  0
SECTION
  2
HEADER
  9
$ACADVER
  1
AC1015
  9
$ACADMAINTVER
 70
    13
  9
$DWGCODEPAGE
  3
ANSI_1252
  9
$INSBASE
 10
0.0
 20
0.0
 30
0.0
  9
$EXTMIN
 10
11.95267796457188
 20
41.278204080808
 30
0.0
  9
$EXTMAX
 10
340.0721997949791
 20
239.2159502191125
 30
0.0
  9
$LIMMIN
 10
0.0
 20
0.0
  9
$LIMMAX
 10
420.0
 20
297.0
  9
$ORTHOMODE
 70
     1
  9
$REGENMODE
 70
     1
  9
$FILLMODE
 70
     1
  9
$QTEXTMODE
 70
     0
  9
$MIRRTEXT
 70
     1
  9
$LTSCALE
 40
1.0
  9
$ATTMODE
 70
     1
  9
$TEXTSIZE
 40
2.5
  9
$TRACEWID
 40
1.0
  9
$TEXTSTYLE
  7
STANDARD
  9
$CLAYER
  8
AM_0
  9
$CELTYPE
  6
ByLayer
  9
$CECOLOR
 62
   256
  9
$CELTSCALE
 40
1.0
  9
$DISPSILH
 70
     0
  9
$DIMSCALE
 40
1.0
  9
$DIMASZ
 40
2.5
  9
$DIMEXO
 40
0.625
  9
$DIMDLI
 40
3.75
  9
$DIMRND
 40
0.0
  9
$DIMDLE
 40
0.0
  9
$DIMEXE
 40
1.25
  9
$DIMTP
 40
0.0
  9
$DIMTM
 40
0.0
  9
$DIMTXT
 40
2.5
  9
$DIMCEN
 40
2.5
  9
$DIMTSZ
 40
0.0
  9
$DIMTOL
 70
     0
  9
$DIMLIM
 70
     0
  9
$DIMTIH
 70
     0
  9
$DIMTOH
 70
     0
  9
$DIMSE1
 70
     0
  9
$DIMSE2
 70
     0
  9
$DIMTAD
 70
     1
  9
$DIMZIN
 70
     8
  9
$DIMBLK
  1

  9
$DIMASO
 70
     1
  9
$DIMSHO
 70
     1
  9
$DIMPOST
  1

  9
$DIMAPOST
  1

  9
$DIMALT
 70
     0
  9
$DIMALTD
 70
     3
  9
$DIMALTF
 40
0.03937007874016
  9
$DIMLFAC
 40
1.0
  9
$DIMTOFL
 70
     1
  9
$DIMTVP
 40
0.0
  9
$DIMTIX
 70
     0
  9
$DIMSOXD
 70
     0
  9
$DIMSAH
 70
     0
  9
$DIMBLK1
  1

  9
$DIMBLK2
  1

  9
$DIMSTYLE
  2
ISO-25
  9
$DIMCLRD
 70
     0
  9
$DIMCLRE
 70
     0
  9
$DIMCLRT
 70
     0
  9
$DIMTFAC
 40
1.0
  9
$DIMGAP
 40
0.625
  9
$DIMJUST
 70
     0
  9
$DIMSD1
 70
     0
  9
$DIMSD2
 70
     0
  9
$DIMTOLJ
 70
     1
  9
$DIMTZIN
 70
     0
  9
$DIMALTZ
 70
     0
  9
$DIMALTTZ
 70
     0
  9
$DIMUPT
 70
     0
  9
$DIMDEC
 70
     4
  9
$DIMTDEC
 70
     4
  9
$DIMALTU
 70
     2
  9
$DIMALTTD
 70
     2
  9
$DIMTXSTY
  7
STANDARD
  9
$DIMAUNIT
 70
     0
  9
$DIMADEC
 70
     0
  9
$DIMALTRND
 40
0.0
  9
$DIMAZIN
 70
     0
  9
$DIMDSEP
 70
    46
  9
$DIMATFIT
 70
     3
  9
$DIMFRAC
 70
     0
  9
$DIMLDRBLK
  1

  9
$DIMLUNIT
 70
     2
  9
$DIMLWD
 70
    -2
  9
$DIMLWE
 70
    -2
  9
$DIMTMOVE
 70
     0
  9
$LUNITS
 70
     2
  9
$LUPREC
 70
     2
  9
$SKETCHINC
 40
1.0
  9
$FILLETRAD
 40
2.5
  9
$AUNITS
 70
     0
  9
$AUPREC
 70
     0
  9
$MENU
  1
.
  9
$ELEVATION
 40
0.0
  9
$PELEVATION
 40
0.0
  9
$THICKNESS
 40
0.0
  9
$LIMCHECK
 70
     0
  9
$CHAMFERA
 40
2.5
  9
$CHAMFERB
 40
2.5
  9
$CHAMFERC
 40
0.0
  9
$CHAMFERD
 40
0.0
  9
$SKPOLY
 70
     0
  9
$TDCREATE
 40
2452801.699731435
  9
$TDUCREATE
 40
2452801.866398101
  9
$TDUPDATE
 40
2453865.610648506
  9
$TDUUPDATE
 40
2453865.777315173
  9
$TDINDWG
 40
0.0755242824
  9
$TDUSRTIMER
 40
0.0755239120
  9
$USRTIMER
 70
     1
  9
$ANGBASE
 50
0.0
  9
$ANGDIR
 70
     0
  9
$PDMODE
 70
     0
  9
$PDSIZE
 40
0.0
  9
$PLINEWID
 40
0.0
  9
$SPLFRAME
 70
     0
  9
$SPLINETYPE
 70
     6
  9
$SPLINESEGS
 70
     8
  9
$HANDSEED
  5
3421
  9
$SURFTAB1
 70
     6
  9
$SURFTAB2
 70
     6
  9
$SURFTYPE
 70
     6
  9
$SURFU
 70
     6
  9
$SURFV
 70
     6
  9
$UCSBASE
  2

  9
$UCSNAME
  2

  9
$UCSORG
 10
0.0
 20
0.0
 30
0.0
  9
$UCSXDIR
 10
1.0
 20
0.0
 30
0.0
  9
$UCSYDIR
 10
0.0
 20
1.0
 30
0.0
  9
$UCSORTHOREF
  2

  9
$UCSORTHOVIEW
 70
     0
  9
$UCSORGTOP
 10
0.0
 20
0.0
 30
0.0
  9
$UCSORGBOTTOM
 10
0.0
 20
0.0
 30
0.0
  9
$UCSORGLEFT
 10
0.0
 20
0.0
 30
0.0
  9
$UCSORGRIGHT
 10
0.0
 20
0.0
 30
0.0
  9
$UCSORGFRONT
 10
0.0
 20
0.0
 30
0.0
  9
$UCSORGBACK
 10
0.0
 20
0.0
 30
0.0
  9
$PUCSBASE
  2

  9
$PUCSNAME
  2

  9
$PUCSORG
 10
0.0
 20
0.0
 30
0.0
  9
$PUCSXDIR
 10
1.0
 20
0.0
 30
0.0
  9
$PUCSYDIR
 10
0.0
 20
1.0
 30
0.0
  9
$PUCSORTHOREF
  2

  9
$PUCSORTHOVIEW
 70
     0
  9
$PUCSORGTOP
 10
0.0
 20
0.0
 30
0.0
  9
$PUCSORGBOTTOM
 10
0.0
 20
0.0
 30
0.0
  9
$PUCSORGLEFT
 10
0.0
 20
0.0
 30
0.0
  9
$PUCSORGRIGHT
 10
0.0
 20
0.0
 30
0.0
  9
$PUCSORGFRONT
 10
0.0
 20
0.0
 30
0.0
  9
$PUCSORGBACK
 10
0.0
 20
0.0
 30
0.0
  9
$USERI1
 70
     0
  9
$USERI2
 70
     0
  9
$USERI3
 70
     0
  9
$USERI4
 70
     0
  9
$USERI5
 70
     0
  9
$USERR1
 40
0.0
  9
$USERR2
 40
0.0
  9
$USERR3
 40
0.0
  9
$USERR4
 40
0.0
  9
$USERR5
 40
0.0
  9
$WORLDVIEW
 70
     1
  9
$SHADEDGE
 70
     3
  9
$SHADEDIF
 70
    70
  9
$TILEMODE
 70
     1
  9
$MAXACTVP
 70
    64
  9
$PINSBASE
 10
0.0
 20
0.0
 30
0.0
  9
$PLIMCHECK
 70
     0
  9
$PEXTMIN
 10
1.000000000000000E+20
 20
1.000000000000000E+20
 30
1.000000000000000E+20
  9
$PEXTMAX
 10
-1.000000000000000E+20
 20
-1.000000000000000E+20
 30
-1.000000000000000E+20
  9
$PLIMMIN
 10
0.0
 20
0.0
  9
$PLIMMAX
 10
420.0
 20
297.0
  9
$UNITMODE
 70
     0
  9
$VISRETAIN
 70
     1
  9
$PLINEGEN
 70
     0
  9
$PSLTSCALE
 70
     1
  9
$TREEDEPTH
 70
  3020
  9
$CMLSTYLE
  2
Standard
  9
$CMLJUST
 70
     0
  9
$CMLSCALE
 40
1.0
  9
$PROXYGRAPHICS
 70
     1
  9
$MEASUREMENT
 70
     0
  9
$CELWEIGHT
370
    -1
  9
$ENDCAPS
280
     0
  9
$JOINSTYLE
280
     0
  9
$LWDISPLAY
290
     0
  9
$INSUNITS
 70
     0
  9
$HYPERLINKBASE
  1

  9
$STYLESHEET
  1

  9
$XEDIT
290
     1
  9
$CEPSNTYPE
380
     0
  9
$PSTYLEMODE
290
     1
  9
$FINGERPRINTGUID
  2
{9407F768-B30F-40AD-A7D6-1B7DD1055912}
  9
$VERSIONGUID
  2
{0FCE99D0-3BAF-444B-AFB6-1824DC8640D5}
  9
$EXTNAMES
290
     1
  9
$PSVPSCALE
 40
0.0
  9
$OLESTARTUP
290
     0
  0
ENDSEC
  0
SECTION
  2
CLASSES
  0
CLASS
  1
ACDBDICTIONARYWDFLT
  2
AcDbDictionaryWithDefault
  3
AutoCAD 2000
 90
        0
280
     0
281
     0
  0
CLASS
  1
ACDBPLACEHOLDER
  2
AcDbPlaceHolder
  3
AutoCAD 2000
 90
        0
280
     0
281
     0
  0
CLASS
  1
LAYOUT
  2
AcDbLayout
  3
AutoCAD 2000
 90
        0
280
     0
281
     0
  0
CLASS
  1
DICTIONARYVAR
  2
AcDbDictionaryVar
  3
AutoCAD 2000
 90
        0
280
     0
281
     0
  0
ENDSEC
  0
SECTION
  2
TABLES
  0
TABLE
  2
VPORT
  5
3145
330
0
100
AcDbSymbolTable
 70
     3
  0
VPORT
  5
3420
330
3145
100
AcDbSymbolTableRecord
100
AcDbViewportTableRecord
  2
*Active
 70
     0
 10
0.0
 20
0.0
 11
1.0
 21
1.0
 12
171.0992435025006
 22
169.4145356501905
 13
0.0
 23
0.0
 14
2.5
 24
2.5
 15
10.0
 25
10.0
 16
0.0
 26
0.0
 36
1.0
 17
0.0
 27
0.0
 37
0.0
 40
273.3401198590221
 41
1.182835820895522
 42
50.0
 43
0.0
 44
0.0
 50
0.0
 51
0.0
 71
     0
 72
   100
 73
     1
 74
     3
 75
     0
 76
     0
 77
     0
 78
     0
281
     0
 65
     1
110
0.0
120
0.0
130
0.0
111
1.0
121
0.0
131
0.0
112
0.0
122
1.0
132
0.0
 79
     0
146
0.0
  0
ENDTAB
  0
TABLE
  2
LTYPE
  5
3142
330
0
100
AcDbSymbolTable
 70
     5
  0
LTYPE
  5
3150
330
3142
100
AcDbSymbolTableRecord
100
AcDbLinetypeTableRecord
  2
ByBlock
 70
     0
  3

 72
    65
 73
     0
 40
0.0
  0
LTYPE
  5
3151
330
3142
100
AcDbSymbolTableRecord
100
AcDbLinetypeTableRecord
  2
ByLayer
 70
     0
  3

 72
    65
 73
     0
 40
0.0
  0
LTYPE
  5
3152
330
3142
100
AcDbSymbolTableRecord
100
AcDbLinetypeTableRecord
  2
CONTINUOUS
 70
     0
  3
Solid line
 72
    65
 73
     0
 40
0.0
  0
LTYPE
  5
3161
330
3142
100
AcDbSymbolTableRecord
100
AcDbLinetypeTableRecord
  2
CENTER
 70
     0
  3
Center ____ _ ____ _ ____ _ ____ _ ____ _ ____
 72
    65
 73
     4
 40
50.8
 49
31.75
 74
     0
 49
-6.349999999999997
 74
     0
 49
6.349999999999997
 74
     0
 49
-6.349999999999997
 74
     0
  0
LTYPE
  5
3162
330
3142
100
AcDbSymbolTableRecord
100
AcDbLinetypeTableRecord
  2
DASHED
 70
     0
  3
__ __ __ __ __
 72
    65
 73
     2
 40
3.741428234850168
 49
2.494285489900109
 74
     0
 49
-1.247142744950054
 74
     0
  0
LTYPE
  5
3163
330
3142
100
AcDbSymbolTableRecord
100
AcDbLinetypeTableRecord
  2
DIVIDE
 70
     0
  3
__ . . __ . . 
 72
    65
 73
     6
 40
6.235713724750277
 49
2.494285489900109
 74
     0
 49
-1.247142744950054
 74
     0
 49
0.0
 74
     0
 49
-1.247142744950054
 74
     0
 49
0.0
 74
     0
 49
-1.247142744950054
 74
     0
  0
LTYPE
  5
3164
330
3142
100
AcDbSymbolTableRecord
100
AcDbLinetypeTableRecord
  2
PHANTOM
 70
     0
  3
_____ _ _ _____ _ _ 
 72
    65
 73
     6
 40
12.47142744950056
 49
6.235713724750277
 74
     0
 49
-1.247142744950054
 74
     0
 49
1.247142744950054
 74
     0
 49
-1.247142744950054
 74
     0
 49
1.247142744950054
 74
     0
 49
-1.247142744950054
 74
     0
  0
ENDTAB
  0
TABLE
  2
LAYER
  5
313F
330
0
100
AcDbSymbolTable
 70
     5
  0
LAYER
  5
314D
330
313F
100
AcDbSymbolTableRecord
100
AcDbLayerTableRecord
  2
0
 70
     0
 62
     7
  6
CONTINUOUS
370
    -3
390
314C
  0
LAYER
  5
315F
330
313F
100
AcDbSymbolTableRecord
100
AcDbLayerTableRecord
  2
AM_0
 70
     0
 62
     7
  6
CONTINUOUS
370
    -3
390
314C
  0
LAYER
  5
3165
330
313F
100
AcDbSymbolTableRecord
100
AcDbLayerTableRecord
  2
1
 70
     0
 62
     7
  6
CONTINUOUS
370
    -3
390
314C
  0
LAYER
  5
3166
330
313F
100
AcDbSymbolTableRecord
100
AcDbLayerTableRecord
  2
2
 70
     0
 62
     7
  6
CONTINUOUS
370
    -3
390
314C
  0
LAYER
  5
33ED
330
313F
100
AcDbSymbolTableRecord
100
AcDbLayerTableRecord
  2
LAYER_1
 70
     0
 62
     5
  6
CONTINUOUS
370
    -3
390
314C
  0
ENDTAB
  0
TABLE
  2
STYLE
  5
3140
330
0
100
AcDbSymbolTable
 70
     1
  0
STYLE
  5
314E
330
3140
100
AcDbSymbolTableRecord
100
AcDbTextStyleTableRecord
  2
STANDARD
 70
     0
 40
0.0
 41
1.0
 50
0.0
 71
     0
 42
2.5
  3
ISOCP.SHX
  4

  0
ENDTAB
  0
TABLE
  2
VIEW
  5
3143
330
0
100
AcDbSymbolTable
 70
     0
  0
ENDTAB
  0
TABLE
  2
UCS
  5
3144
330
0
100
AcDbSymbolTable
 70
     0
  0
ENDTAB
  0
TABLE
  2
APPID
  5
3146
330
0
100
AcDbSymbolTable
 70
    13
  0
APPID
  5
314F
330
3146
100
AcDbSymbolTableRecord
100
AcDbRegAppTableRecord
  2
ACAD
 70
     0
  0
APPID
  5
3167
330
3146
100
AcDbSymbolTableRecord
100
AcDbRegAppTableRecord
  2
GENIUS_GENDIM_13
 70
     0
  0
APPID
  5
3168
330
3146
100
AcDbSymbolTableRecord
100
AcDbRegAppTableRecord
  2
GENIUS_GENDTOL_13
 70
     0
  0
APPID
  5
3169
330
3146
100
AcDbSymbolTableRecord
100
AcDbRegAppTableRecord
  2
GENIUS_GE3DTOL_13
 70
     0
  0
APPID
  5
316A
330
3146
100
AcDbSymbolTableRecord
100
AcDbRegAppTableRecord
  2
MCAD_NO_VIS
 70
     0
  0
APPID
  5
316B
330
3146
100
AcDbSymbolTableRecord
100
AcDbRegAppTableRecord
  2
ACAD_TEMP_GRAPHIC
 70
     0
  0
APPID
  5
316C
330
3146
100
AcDbSymbolTableRecord
100
AcDbRegAppTableRecord
  2
AD_DRAW
 70
     0
  0
APPID
  5
316D
330
3146
100
AcDbSymbolTableRecord
100
AcDbRegAppTableRecord
  2
ACATTRIBSERVICES
 70
     0
  0
APPID
  5
316E
330
3146
100
AcDbSymbolTableRecord
100
AcDbRegAppTableRecord
  2
ASURF_PCURVE_APPNAME
 70
     0
  0
APPID
  5
316F
330
3146
100
AcDbSymbolTableRecord
100
AcDbRegAppTableRecord
  2
DESIGNERASSEMBLIES
 70
     0
  0
APPID
  5
3170
330
3146
100
AcDbSymbolTableRecord
100
AcDbRegAppTableRecord
  2
ACADM_DIM_EDIT
 70
     0
  0
APPID
  5
3171
330
3146
100
AcDbSymbolTableRecord
100
AcDbRegAppTableRecord
  2
G3V_ENTHND
 70
     0
  0
APPID
  5
3172
330
3146
100
AcDbSymbolTableRecord
100
AcDbRegAppTableRecord
  2
GENIUS_GENDIMSH_14
 70
     0
  0
ENDTAB
  0
TABLE
  2
DIMSTYLE
  5
3147
330
0
100
AcDbSymbolTable
 70
     2
100
AcDbDimStyleTable
 71
     0
  0
DIMSTYLE
105
3173
330
3147
100
AcDbSymbolTableRecord
100
AcDbDimStyleTableRecord
  2
ISO-25
 70
     0
 41
2.5
 42
0.625
 43
3.75
 44
1.25
 73
     0
 74
     0
 77
     1
 78
     8
140
2.5
141
2.5
143
0.03937007874016
147
0.625
171
     3
172
     1
271
     2
272
     2
274
     3
279
     2
284
     8
285
     8
286
     8
340
314E
  0
DIMSTYLE
105
33EE
330
3147
100
AcDbSymbolTableRecord
100
AcDbDimStyleTableRecord
  2
Standard
 70
     0
340
314E
  0
ENDTAB
  0
TABLE
  2
BLOCK_RECORD
  5
313E
330
0
100
AcDbSymbolTable
 70
    21
  0
BLOCK_RECORD
  5
315B
330
313E
100
AcDbSymbolTableRecord
100
AcDbBlockTableRecord
  2
*Model_Space
340
315E
  0
BLOCK_RECORD
  5
3157
330
313E
100
AcDbSymbolTableRecord
100
AcDbBlockTableRecord
  2
*Paper_Space
340
315A
  0
BLOCK_RECORD
  5
3175
330
313E
100
AcDbSymbolTableRecord
100
AcDbBlockTableRecord
  2
$MODEL_SPACE
340
0
  0
BLOCK_RECORD
  5
3178
330
313E
100
AcDbSymbolTableRecord
100
AcDbBlockTableRecord
  2
$PAPER_SPACE
340
0
  0
BLOCK_RECORD
  5
3381
330
313E
100
AcDbSymbolTableRecord
100
AcDbBlockTableRecord
  2
AI9-BLK14
340
0
310
2800000020000000200000000100080000000000000400000000000000000000000000000000000000000000000080000080000000808000800000008000800080800000C0C0C000C0DCC000F0CAA6000020400000206000002080000020A0000020C0000020E00000400000004020000040400000406000004080000040A0
310
000040C0000040E00000600000006020000060400000606000006080000060A0000060C0000060E00000800000008020000080400000806000008080000080A0000080C0000080E00000A0000000A0200000A0400000A0600000A0800000A0A00000A0C00000A0E00000C0000000C0200000C0400000C0600000C0800000C0
310
A00000C0C00000C0E00000E0000000E0200000E0400000E0600000E0800000E0A00000E0C00000E0E00040000000400020004000400040006000400080004000A0004000C0004000E00040200000402020004020400040206000402080004020A0004020C0004020E000404000004040200040404000404060004040800040
310
40A0004040C0004040E00040600000406020004060400040606000406080004060A0004060C0004060E00040800000408020004080400040806000408080004080A0004080C0004080E00040A0000040A0200040A0400040A0600040A0800040A0A00040A0C00040A0E00040C0000040C0200040C0400040C0600040C08000
310
40C0A00040C0C00040C0E00040E0000040E0200040E0400040E0600040E0800040E0A00040E0C00040E0E00080000000800020008000400080006000800080008000A0008000C0008000E00080200000802020008020400080206000802080008020A0008020C0008020E00080400000804020008040400080406000804080
310
008040A0008040C0008040E00080600000806020008060400080606000806080008060A0008060C0008060E00080800000808020008080400080806000808080008080A0008080C0008080E00080A0000080A0200080A0400080A0600080A0800080A0A00080A0C00080A0E00080C0000080C0200080C0400080C0600080C0
310
800080C0A00080C0C00080C0E00080E0000080E0200080E0400080E0600080E0800080E0A00080E0C00080E0E000C0000000C0002000C0004000C0006000C0008000C000A000C000C000C000E000C0200000C0202000C0204000C0206000C0208000C020A000C020C000C020E000C0400000C0402000C0404000C0406000C0
310
408000C040A000C040C000C040E000C0600000C0602000C0604000C0606000C0608000C060A000C060C000C060E000C0800000C0802000C0804000C0806000C0808000C080A000C080C000C080E000C0A00000C0A02000C0A04000C0A06000C0A08000C0A0A000C0A0C000C0A0E000C0C00000C0C02000C0C04000C0C06000
310
C0C08000C0C0A000F0FBFF00A4A0A000808080000000FF0000FF000000FFFF00FF000000FF00FF00FFFF0000FFFFFF00FF00FFFFFFFF00FFFFFFFFFFFFFFFFFFFFFFFFFFFFFFFFFFFFFFFFFFFFFFFFFFFF00FFFFFFFF00FFFFFFFFFFFFFFFFFFFFFFFFFFFFFFFFFFFFFFFFFFFFFFFFFFFF00FFFFFFFF00FFFFFFFFFFFFFFFF
310
FFFFFFFFFFFFFFFFFFFFFFFFFFFFFFFFFFFF00FFFFFFFF00FFFFFFFFFFFFFFFFFFFFFFFFFFFFFFFFFFFFFFFFFFFFFFFFFFFF00FFFFFFFF00FFFFFFFFFFFFFFFFFFFFFFFFFFFFFFFFFFFFFFFFFFFFFFFFFFFF00FFFFFFFF00FFFFFFFFFFFFFFFFFFFFFFFFFFFFFFFFFFFFFFFFFFFFFFFFFFFF00FFFFFFFF00FFFFFFFFFFFFFF
310
FFFFFFFFFFFFFFFFFFFFFFFFFFFFFFFFFFFFFF00FFFFFFFF00FFFFFFFFFFFFFFFFFFFFFFFFFFFFFFFFFFFFFFFFFFFFFFFFFFFF00FFFFFFFF00FFFFFFFFFFFFFFFFFFFFFFFFFFFFFFFFFFFFFFFFFFFFFFFFFFFF00FFFFFFFF00FFFFFFFFFFFFFFFFFFFFFFFFFFFFFFFFFFFFFFFFFFFFFFFFFFFF00FFFFFFFF00FFFFFFFFFFFF
310
FFFFFFFFFFFFFFFFFFFFFFFFFFFFFFFFFFFFFFFF00FFFFFFFF00FFFFFFFFFFFFFFFFFFFFFFFFFFFFFFFFFFFFFFFFFFFFFFFFFFFF00FFFFFFFF00FFFFFFFFFFFFFFFFFFFFFFFFFFFFFFFFFFFFFFFFFFFFFFFFFFFF00FFFFFFFF0000000000000000000000000000000000000000000000000000FF00FFFFFFFFFFFFFFFFFFFF
310
FFFFFFFFFFFFFFFFFFFFFFFFFFFFFFFFFFFFFFFFFF00FFFFFFFFFFFFFFFFFFFFFFFFFFFFFFFFFFFFFFFFFFFFFFFFFFFFFFFFFFFFFF00FFFFFFFFFFFFFFFFFFFFFFFFFFFFFFFFFFFFFFFFFFFFFFFFFFFFFFFFFFFFFF00FFFFFFFFFFFFFFFFFFFFFFFFFFFFFFFFFFFFFFFFFFFFFFFFFFFFFFFFFF00FF00000000000000000000
310
0000000000000000000000000000000000000000FFFFFFFFFFFFFFFFFFFFFFFFFFFFFFFFFFFFFFFFFFFFFFFFFFFFFFFFFFFFFFFFFFFFFFFFFFFFFFFFFFFFFFFFFFFFFFFFFFFFFFFFFFFFFFFFFFFFFFFFFFFFFFFFFFFFFFFFFFFFFFFFFFFFFFFFFFFFFFFFFFFFFFFFFFFFFFFFFFFFFFFFFFFFFFFFFFFFFFFFFFFFFFFFFFFFFF
310
FFFFFFFFFFFFFFFFFFFFFFFFFFFFFFFFFFFFFFFFFFFFFFFFFFFFFFFFFFFFFFFFFFFFFFFFFFFFFFFFFFFFFFFFFFFFFFFFFFFFFFFFFFFFFFFFFFFFFFFFFFFFFFFFFFFFFFFFFFFFFFFFFFFFFFFFFFFFFFFFFFFFFFFFFFFFFFFFFFFFFFFFFFFFFFFFFFFFFFFFFFFFFFFFFFFFFFFFFFFFFFFFFFFFFFFFFFFFFFFFFFFFFFFFFFFFFF
310
FFFFFFFFFFFFFFFFFFFFFFFFFFFFFFFFFFFFFFFFFFFFFFFFFFFFFFFFFFFFFFFFFFFFFFFFFFFFFFFFFFFFFFFFFFFFFFFFFFFFFFFFFFFFFFFFFFFFFFFFFFFFFFFFFFFFFFFFFFFFFFFFFFFFFFFFFFFFFFFFFFFFFFFFFFFFFFFFFFFFFFFFFFFFFFFFFFFFFFFFFFFFFFFFFFFFFFFFFFFFFFFFFFFFFFFFFFFFFFFFFFFFFFFFFFFFFF
310
FFFFFFFFFFFFFFFFFFFFFFFFFFFFFFFFFFFFFFFFFFFFFFFFFFFFFFFFFFFFFFFFFFFFFFFFFFFFFFFFFFFFFFFFFFFFFFFFFFFFFFFFFFFFFFFF
102
{BLKREFS
331
33C2
102
}
  0
BLOCK_RECORD
  5
3386
330
313E
100
AcDbSymbolTableRecord
100
AcDbBlockTableRecord
  2
AI9-BLK13
340
0
310
2800000020000000200000000100080000000000000400000000000000000000000000000000000000000000000080000080000000808000800000008000800080800000C0C0C000C0DCC000F0CAA6000020400000206000002080000020A0000020C0000020E00000400000004020000040400000406000004080000040A0
310
000040C0000040E00000600000006020000060400000606000006080000060A0000060C0000060E00000800000008020000080400000806000008080000080A0000080C0000080E00000A0000000A0200000A0400000A0600000A0800000A0A00000A0C00000A0E00000C0000000C0200000C0400000C0600000C0800000C0
310
A00000C0C00000C0E00000E0000000E0200000E0400000E0600000E0800000E0A00000E0C00000E0E00040000000400020004000400040006000400080004000A0004000C0004000E00040200000402020004020400040206000402080004020A0004020C0004020E000404000004040200040404000404060004040800040
310
40A0004040C0004040E00040600000406020004060400040606000406080004060A0004060C0004060E00040800000408020004080400040806000408080004080A0004080C0004080E00040A0000040A0200040A0400040A0600040A0800040A0A00040A0C00040A0E00040C0000040C0200040C0400040C0600040C08000
310
40C0A00040C0C00040C0E00040E0000040E0200040E0400040E0600040E0800040E0A00040E0C00040E0E00080000000800020008000400080006000800080008000A0008000C0008000E00080200000802020008020400080206000802080008020A0008020C0008020E00080400000804020008040400080406000804080
310
008040A0008040C0008040E00080600000806020008060400080606000806080008060A0008060C0008060E00080800000808020008080400080806000808080008080A0008080C0008080E00080A0000080A0200080A0400080A0600080A0800080A0A00080A0C00080A0E00080C0000080C0200080C0400080C0600080C0
310
800080C0A00080C0C00080C0E00080E0000080E0200080E0400080E0600080E0800080E0A00080E0C00080E0E000C0000000C0002000C0004000C0006000C0008000C000A000C000C000C000E000C0200000C0202000C0204000C0206000C0208000C020A000C020C000C020E000C0400000C0402000C0404000C0406000C0
310
408000C040A000C040C000C040E000C0600000C0602000C0604000C0606000C0608000C060A000C060C000C060E000C0800000C0802000C0804000C0806000C0808000C080A000C080C000C080E000C0A00000C0A02000C0A04000C0A06000C0A08000C0A0A000C0A0C000C0A0E000C0C00000C0C02000C0C04000C0C06000
310
C0C08000C0C0A000F0FBFF00A4A0A000808080000000FF0000FF000000FFFF00FF000000FF00FF00FFFF0000FFFFFF00FFFFFFFFFFFFFFFFFFFFFFFFFFFFFFFFFFFFFFFFFFFFFFFFFFFFFFFFFFFFFFFFFFFFFFFFFFFFFFFFFFFFFF0000FFFFFFFFFFFF0000FFFFFFFFFFFFFFFFFFFFFFFFFFFFFFFFFFFFFFFFFFFF0000FFFF
310
FFFFFFFF0000FFFFFFFFFFFFFFFFFFFFFFFFFFFFFFFFFFFFFFFFFFFF0000FFFFFFFFFFFF0000FFFFFFFFFFFFFFFFFFFFFFFFFFFFFFFFFFFFFFFFFFFF0000FFFFFFFFFFFF0000FFFFFFFFFFFFFFFFFFFFFFFFFFFFFFFFFFFFFFFFFFFF0000FFFFFFFFFFFF0000FFFFFFFFFFFFFFFFFFFFFFFFFFFFFFFFFFFFFFFFFFFF0000FF
310
FFFFFFFFFF0000FFFFFFFFFFFFFFFFFFFFFFFFFFFFFFFFFFFFFFFFFFFF0000FFFFFFFFFFFF0000FFFFFFFFFFFFFFFFFFFFFFFFFFFFFFFFFFFFFFFFFFFF0000FFFFFFFFFFFF0000FFFFFFFFFFFFFFFFFFFFFFFFFFFFFFFFFFFFFFFFFFFF0000FFFFFFFFFFFF0000FFFFFFFFFFFFFFFFFFFFFFFFFFFFFFFFFFFFFFFFFFFF0000
310
FFFFFFFFFFFF0000FFFFFFFFFFFFFFFFFFFFFFFFFFFFFFFFFFFFFFFFFFFF0000FFFFFFFFFFFF0000FFFFFFFFFFFFFFFFFFFFFFFFFFFFFFFFFFFFFFFFFFFF0000FFFFFFFFFFFF0000FFFFFFFFFFFFFFFFFFFFFFFFFFFFFFFFFFFFFFFFFFFF0000FFFFFFFFFFFF0000FFFFFFFFFFFFFFFFFFFFFFFFFFFFFFFFFFFFFFFFFFFF00
310
00FFFFFFFFFFFF0000FFFFFFFFFFFFFFFFFFFFFFFFFFFFFFFFFFFFFFFFFFFF00000000000000000000FFFFFFFFFFFFFFFFFFFFFFFFFFFFFFFFFFFFFFFFFFFF00FFFFFFFFFFFFFFFF00FFFFFFFFFFFFFFFFFFFFFFFFFFFFFFFFFFFFFFFFFFFF00FFFFFFFFFFFFFFFF00FFFFFFFFFFFFFFFFFFFFFFFFFFFFFFFFFFFFFFFFFFFF
310
00000000000000000000FFFFFFFFFFFFFFFFFFFFFFFFFFFFFFFFFFFFFFFFFFFF0000FFFFFFFFFFFF0000FFFFFFFFFFFFFFFFFFFFFFFFFFFFFFFFFFFFFFFFFFFF0000FFFFFFFFFFFF0000FFFFFFFFFFFFFFFFFFFFFFFFFFFFFFFFFFFFFFFFFFFF0000FFFFFFFFFFFF0000FFFFFFFFFFFFFFFFFFFFFFFFFFFFFFFFFFFFFFFFFF
310
FF0000FFFFFFFFFFFF0000FFFFFFFFFFFFFFFFFFFFFFFFFFFFFFFFFFFFFFFFFFFF0000FFFFFFFFFFFF0000FFFFFFFFFFFFFFFFFFFFFFFFFFFFFFFFFFFFFFFFFFFF0000FFFFFFFFFFFF0000FFFFFFFFFFFFFFFFFFFFFFFFFFFFFFFFFFFFFFFFFFFF0000FFFFFFFFFFFF0000FFFFFFFFFFFFFFFFFFFFFFFFFFFFFFFFFFFFFFFF
310
FFFF0000FFFFFFFFFFFF0000FFFFFFFFFFFFFFFFFFFFFFFFFFFFFFFFFFFFFFFFFFFF0000FFFFFFFFFFFF0000FFFFFFFFFFFFFFFFFFFFFFFFFFFFFFFFFFFFFFFFFFFF0000FFFFFFFFFFFF0000FFFFFFFFFFFFFFFFFFFFFFFFFFFFFFFFFFFFFFFFFFFF0000FFFFFFFFFFFF0000FFFFFFFFFFFFFFFFFFFFFFFFFFFFFFFFFFFFFF
310
FFFFFF0000FFFFFFFFFFFF0000FFFFFFFFFFFFFFFFFFFFFFFFFFFFFFFFFFFFFFFFFFFFFFFFFFFFFFFFFFFFFFFFFFFFFFFFFFFFFFFFFFFFFF
102
{BLKREFS
331
33C3
102
}
  0
BLOCK_RECORD
  5
338B
330
313E
100
AcDbSymbolTableRecord
100
AcDbBlockTableRecord
  2
AI9-BLK11
340
0
310
2800000020000000200000000100080000000000000400000000000000000000000000000000000000000000000080000080000000808000800000008000800080800000C0C0C000C0DCC000F0CAA6000020400000206000002080000020A0000020C0000020E00000400000004020000040400000406000004080000040A0
310
000040C0000040E00000600000006020000060400000606000006080000060A0000060C0000060E00000800000008020000080400000806000008080000080A0000080C0000080E00000A0000000A0200000A0400000A0600000A0800000A0A00000A0C00000A0E00000C0000000C0200000C0400000C0600000C0800000C0
310
A00000C0C00000C0E00000E0000000E0200000E0400000E0600000E0800000E0A00000E0C00000E0E00040000000400020004000400040006000400080004000A0004000C0004000E00040200000402020004020400040206000402080004020A0004020C0004020E000404000004040200040404000404060004040800040
310
40A0004040C0004040E00040600000406020004060400040606000406080004060A0004060C0004060E00040800000408020004080400040806000408080004080A0004080C0004080E00040A0000040A0200040A0400040A0600040A0800040A0A00040A0C00040A0E00040C0000040C0200040C0400040C0600040C08000
310
40C0A00040C0C00040C0E00040E0000040E0200040E0400040E0600040E0800040E0A00040E0C00040E0E00080000000800020008000400080006000800080008000A0008000C0008000E00080200000802020008020400080206000802080008020A0008020C0008020E00080400000804020008040400080406000804080
310
008040A0008040C0008040E00080600000806020008060400080606000806080008060A0008060C0008060E00080800000808020008080400080806000808080008080A0008080C0008080E00080A0000080A0200080A0400080A0600080A0800080A0A00080A0C00080A0E00080C0000080C0200080C0400080C0600080C0
310
800080C0A00080C0C00080C0E00080E0000080E0200080E0400080E0600080E0800080E0A00080E0C00080E0E000C0000000C0002000C0004000C0006000C0008000C000A000C000C000C000E000C0200000C0202000C0204000C0206000C0208000C020A000C020C000C020E000C0400000C0402000C0404000C0406000C0
310
408000C040A000C040C000C040E000C0600000C0602000C0604000C0606000C0608000C060A000C060C000C060E000C0800000C0802000C0804000C0806000C0808000C080A000C080C000C080E000C0A00000C0A02000C0A04000C0A06000C0A08000C0A0A000C0A0C000C0A0E000C0C00000C0C02000C0C04000C0C06000
310
C0C08000C0C0A000F0FBFF00A4A0A000808080000000FF0000FF000000FFFF00FF000000FF00FF00FFFF0000FFFFFF00FFFFFFFFFFFFFFFFFFFFFFFFFFFFFFFFFFFFFFFFFFFFFFFFFFFFFFFFFFFFFFFFFFFFFFFFFFFFFFFFFFFFFFFFFFFF00000000FFFFFFFFFFFFFFFFFFFFFF000000FFFFFFFFFFFFFFFFFFFFFFFFFFFF00
310
FFFF00FFFFFFFFFFFFFFFFFFFFFF00FFFFFFFFFFFFFFFFFFFFFFFFFFFFFFFF00FFFF00FFFFFFFFFFFFFFFFFFFFFF00FFFFFFFFFFFFFFFFFFFFFFFFFFFFFFFF00FFFF00FFFFFFFFFFFFFFFFFFFFFF00FFFFFFFFFFFFFFFFFFFFFFFFFFFFFFFF00FFFF00FFFFFFFFFFFFFFFFFFFFFF00FFFFFFFFFFFFFFFFFFFFFFFFFFFFFFFF
310
00FFFF00FFFFFFFFFFFFFFFFFFFFFF00FFFFFFFFFFFFFFFFFFFFFFFFFFFFFFFF00FFFF00FFFFFFFFFFFFFFFFFFFFFF00FFFFFFFFFFFFFFFFFFFFFFFFFFFFFFFF00FFFF00FFFFFFFFFFFFFFFFFFFFFF00FFFFFFFFFFFFFFFFFFFFFFFFFFFFFFFF00FFFF00FFFFFFFFFFFFFFFFFFFFFF00FFFFFFFFFFFFFFFFFFFFFFFFFFFFFF
310
FF00FFFF00FFFFFFFFFFFFFFFFFFFFFF00FFFFFFFFFFFFFFFFFFFFFFFFFFFFFFFF00FFFF00FFFFFFFFFFFFFFFFFFFFFF00FFFFFFFFFFFFFFFFFFFFFFFFFFFFFFFF00FFFF00FFFFFFFFFFFFFFFFFFFFFF00FFFFFFFFFFFFFFFFFFFFFFFFFFFFFFFF00FFFF00FFFFFFFFFFFFFFFFFFFFFF00FFFFFFFFFFFFFFFFFFFFFFFFFFFF
310
FFFF00FFFF00FFFFFFFFFFFFFFFFFFFFFF00FFFFFFFFFFFFFFFFFFFFFFFFFFFFFFFF00FFFF00FFFFFFFFFFFFFFFFFFFFFF00FFFFFFFFFFFFFFFFFFFFFFFFFFFFFFFF00FFFF00FFFFFFFFFFFFFFFFFFFFFF00FFFFFFFFFFFFFFFFFFFFFFFFFFFFFFFF00FFFF00FFFFFFFFFFFFFFFFFFFF00FFFFFFFFFFFFFFFFFFFFFFFFFFFF
310
FFFFFF00FFFF00FFFFFFFFFFFFFFFFFFFF00FFFFFFFFFFFFFFFFFFFFFFFFFFFFFFFFFF00FFFF00FFFFFFFFFFFFFFFFFFFF00FFFFFFFFFFFFFFFFFFFFFFFFFFFFFFFFFF00FFFF00FFFFFFFFFFFFFFFFFFFF00FFFFFFFFFFFFFFFFFFFFFFFFFFFFFFFFFF00FFFF00FFFFFFFFFFFFFFFFFFFF00FFFFFFFFFFFFFFFFFFFFFFFFFF
310
FFFFFFFF00FFFF00FFFFFFFFFFFFFFFFFF0000FFFF00FFFFFFFFFFFFFFFFFFFFFFFFFFFF00FFFF00FFFFFFFFFFFFFFFF0000FFFFFF00FFFFFFFFFFFFFFFFFFFFFFFFFFFF00FFFF00000000000000000000FFFFFFFF00FFFFFFFFFFFFFFFFFFFFFFFFFFFF00FFFFFFFFFFFFFFFFFFFFFFFFFFFFFF00FFFFFFFFFFFFFFFFFFFF
310
FFFFFFFFFF00FFFFFFFFFFFFFFFFFFFFFFFFFFFF00FFFFFFFFFFFFFFFFFFFFFFFFFFFFFFFF00FFFFFFFFFFFFFFFFFFFFFFFFFFFF00FFFFFFFFFFFFFFFFFFFFFFFFFFFFFFFF00FFFFFFFFFFFFFFFFFFFFFFFFFFFFFF00FFFFFFFFFFFFFFFFFFFFFFFFFFFFFF00FFFFFFFFFFFFFFFFFFFFFFFFFFFFFF00FFFFFFFFFFFFFFFFFF
310
FFFFFFFFFFFF00FFFF00000000000000000000FFFFFFFF00FFFFFFFFFFFFFFFFFFFFFFFFFFFF00FFFF00FFFFFFFFFFFFFFFFFF0000FFFF00
102
{BLKREFS
331
33C4
102
}
  0
BLOCK_RECORD
  5
3390
330
313E
100
AcDbSymbolTableRecord
100
AcDbBlockTableRecord
  2
AI9-BLK10
340
0
310
2800000020000000200000000100080000000000000400000000000000000000000000000000000000000000000080000080000000808000800000008000800080800000C0C0C000C0DCC000F0CAA6000020400000206000002080000020A0000020C0000020E00000400000004020000040400000406000004080000040A0
310
000040C0000040E00000600000006020000060400000606000006080000060A0000060C0000060E00000800000008020000080400000806000008080000080A0000080C0000080E00000A0000000A0200000A0400000A0600000A0800000A0A00000A0C00000A0E00000C0000000C0200000C0400000C0600000C0800000C0
310
A00000C0C00000C0E00000E0000000E0200000E0400000E0600000E0800000E0A00000E0C00000E0E00040000000400020004000400040006000400080004000A0004000C0004000E00040200000402020004020400040206000402080004020A0004020C0004020E000404000004040200040404000404060004040800040
310
40A0004040C0004040E00040600000406020004060400040606000406080004060A0004060C0004060E00040800000408020004080400040806000408080004080A0004080C0004080E00040A0000040A0200040A0400040A0600040A0800040A0A00040A0C00040A0E00040C0000040C0200040C0400040C0600040C08000
310
40C0A00040C0C00040C0E00040E0000040E0200040E0400040E0600040E0800040E0A00040E0C00040E0E00080000000800020008000400080006000800080008000A0008000C0008000E00080200000802020008020400080206000802080008020A0008020C0008020E00080400000804020008040400080406000804080
310
008040A0008040C0008040E00080600000806020008060400080606000806080008060A0008060C0008060E00080800000808020008080400080806000808080008080A0008080C0008080E00080A0000080A0200080A0400080A0600080A0800080A0A00080A0C00080A0E00080C0000080C0200080C0400080C0600080C0
310
800080C0A00080C0C00080C0E00080E0000080E0200080E0400080E0600080E0800080E0A00080E0C00080E0E000C0000000C0002000C0004000C0006000C0008000C000A000C000C000C000E000C0200000C0202000C0204000C0206000C0208000C020A000C020C000C020E000C0400000C0402000C0404000C0406000C0
310
408000C040A000C040C000C040E000C0600000C0602000C0604000C0606000C0608000C060A000C060C000C060E000C0800000C0802000C0804000C0806000C0808000C080A000C080C000C080E000C0A00000C0A02000C0A04000C0A06000C0A08000C0A0A000C0A0C000C0A0E000C0C00000C0C02000C0C04000C0C06000
310
C0C08000C0C0A000F0FBFF00A4A0A000808080000000FF0000FF000000FFFF00FF000000FF00FF00FFFF0000FFFFFF00FFFFFFFFFFFFFFFFFFFFFFFFFFFFFFFF00FFFFFFFFFFFFFFFFFFFFFFFF00FFFFFFFFFFFFFFFFFFFFFFFFFFFFFFFFFFFF00FFFFFFFFFFFFFFFFFFFFFF00FFFFFFFFFFFFFFFFFFFFFFFFFFFFFFFFFFFF
310
FF00FFFFFFFFFFFFFFFFFFFFFF00FFFFFFFFFFFFFFFFFFFFFFFFFFFFFFFFFFFFFF00FFFFFFFFFFFFFFFFFFFFFF00FFFFFFFFFFFFFFFFFFFFFFFFFFFFFFFFFFFFFF00FFFFFFFFFFFFFFFFFFFFFF00FFFFFFFFFFFFFFFFFFFFFFFFFFFFFFFFFFFFFF00FFFFFFFFFFFFFFFFFFFFFF00FFFFFFFFFFFFFFFFFFFFFFFFFFFFFFFFFF
310
FFFF00FFFFFFFFFFFFFFFFFFFFFF00FFFFFFFFFFFFFFFFFFFFFFFFFFFFFFFFFFFFFF00FFFFFFFFFFFFFFFFFFFF00FFFFFFFFFFFFFFFFFFFFFFFFFFFFFFFFFFFFFFFF00FFFFFFFFFFFFFFFFFFFF00FFFFFFFFFFFFFFFFFFFFFFFFFFFFFFFFFFFFFFFF00FFFFFFFFFFFFFFFFFFFF00FFFFFFFFFFFFFFFFFFFFFFFFFFFFFFFFFF
310
FFFFFF00FFFFFFFFFFFFFFFFFFFF00FFFFFFFFFFFFFFFFFFFFFFFFFFFFFFFFFFFFFFFF00FFFFFFFFFFFFFFFFFFFF00FFFFFFFFFFFFFFFFFFFFFFFFFFFFFFFFFFFFFFFF00FFFFFFFFFFFFFFFFFFFF00FFFFFFFFFFFFFFFFFFFFFFFFFFFFFFFFFFFFFFFF00FFFFFFFFFFFFFFFFFF00FFFFFFFFFFFFFFFFFFFFFFFFFFFFFFFFFF
310
FFFFFFFF00FFFFFFFFFFFFFFFFFF00FFFFFFFFFFFFFFFFFFFFFFFFFFFFFFFFFFFFFFFFFF00FFFFFFFFFFFFFFFFFF00FFFFFFFFFFFFFFFFFFFFFFFFFFFFFFFFFFFFFFFFFF0000000000000000000000FFFFFFFFFFFFFFFFFFFFFFFFFFFFFFFFFFFFFFFFFFFFFFFFFFFFFFFFFFFFFFFFFFFFFFFFFFFFFFFFFFFFFFFFFFFFFFFF
310
FFFFFFFFFFFFFFFFFFFFFFFFFFFFFFFFFFFFFFFFFFFFFFFFFFFFFFFFFFFFFFFFFFFFFFFFFFFFFFFFFFFFFFFFFFFFFFFFFFFFFFFFFFFFFFFFFFFFFFFFFFFFFFFFFFFFFFFFFFFFFFFFFFFFFFFFFFFFFFFFFFFFFFFFFFFFFFFFFFFFFFFFFFFFFFFFFFFFFFFFFFFFFFFFFFFFFFFFFFFFFFFFFFFFFFFFFFFFFFFFFFFFFFFFFFFFFF
310
FFFFFFFFFFFFFFFFFFFFFFFFFFFFFFFFFFFFFFFFFFFFFFFFFFFFFFFFFFFFFFFFFFFFFFFFFFFFFFFFFFFFFFFFFFFFFFFFFFFFFFFFFFFFFFFFFFFFFFFFFFFFFFFFFFFFFFFFFFFFFFFFFFFFFFFFFFFFFFFFFFFFFFFFFFFFFFFFFFFFFFFFFFFFFFFFFFFFFFFFFFFFFFFFFFFFFFFFFFFFFFFFFFFFFFFFFFFFFFFFFFFFFFFFFFFFFF
310
FFFFFFFFFFFFFFFFFFFFFFFFFFFFFFFFFFFFFFFFFFFFFFFFFFFFFFFFFFFFFFFFFFFFFFFFFFFFFFFFFFFFFFFFFFFFFFFFFFFFFFFFFFFFFFFFFFFFFFFFFFFFFFFFFFFFFFFFFFFFFFFFFFFFFFFFFFFFFFFFFFFFFFFFFFFFFFFFFFFFFFFFFFFFFFFFFFFFFFFFFFFFFFFFFFFFFFFFFFFFFFFFFFFFFFFFFFFFFFFFFFFFFFFFFFFFFF
310
FFFFFFFFFFFFFFFFFFFFFFFFFFFFFFFFFFFFFFFFFFFFFFFFFFFFFFFFFFFFFFFFFFFFFFFFFFFFFFFFFFFFFFFFFFFFFFFFFFFFFFFFFFFFFFFF
102
{BLKREFS
331
33C5
102
}
  0
BLOCK_RECORD
  5
3394
330
313E
100
AcDbSymbolTableRecord
100
AcDbBlockTableRecord
  2
AI9-BLK9
340
0
310
2800000020000000200000000100080000000000000400000000000000000000000000000000000000000000000080000080000000808000800000008000800080800000C0C0C000C0DCC000F0CAA6000020400000206000002080000020A0000020C0000020E00000400000004020000040400000406000004080000040A0
310
000040C0000040E00000600000006020000060400000606000006080000060A0000060C0000060E00000800000008020000080400000806000008080000080A0000080C0000080E00000A0000000A0200000A0400000A0600000A0800000A0A00000A0C00000A0E00000C0000000C0200000C0400000C0600000C0800000C0
310
A00000C0C00000C0E00000E0000000E0200000E0400000E0600000E0800000E0A00000E0C00000E0E00040000000400020004000400040006000400080004000A0004000C0004000E00040200000402020004020400040206000402080004020A0004020C0004020E000404000004040200040404000404060004040800040
310
40A0004040C0004040E00040600000406020004060400040606000406080004060A0004060C0004060E00040800000408020004080400040806000408080004080A0004080C0004080E00040A0000040A0200040A0400040A0600040A0800040A0A00040A0C00040A0E00040C0000040C0200040C0400040C0600040C08000
310
40C0A00040C0C00040C0E00040E0000040E0200040E0400040E0600040E0800040E0A00040E0C00040E0E00080000000800020008000400080006000800080008000A0008000C0008000E00080200000802020008020400080206000802080008020A0008020C0008020E00080400000804020008040400080406000804080
310
008040A0008040C0008040E00080600000806020008060400080606000806080008060A0008060C0008060E00080800000808020008080400080806000808080008080A0008080C0008080E00080A0000080A0200080A0400080A0600080A0800080A0A00080A0C00080A0E00080C0000080C0200080C0400080C0600080C0
310
800080C0A00080C0C00080C0E00080E0000080E0200080E0400080E0600080E0800080E0A00080E0C00080E0E000C0000000C0002000C0004000C0006000C0008000C000A000C000C000C000E000C0200000C0202000C0204000C0206000C0208000C020A000C020C000C020E000C0400000C0402000C0404000C0406000C0
310
408000C040A000C040C000C040E000C0600000C0602000C0604000C0606000C0608000C060A000C060C000C060E000C0800000C0802000C0804000C0806000C0808000C080A000C080C000C080E000C0A00000C0A02000C0A04000C0A06000C0A08000C0A0A000C0A0C000C0A0E000C0C00000C0C02000C0C04000C0C06000
310
C0C08000C0C0A000F0FBFF00A4A0A000808080000000FF0000FF000000FFFF00FF000000FF00FF00FFFF0000FFFFFF00FFFFFFFFFFFFFFFFFFFFFFFFFFFFFFFFFFFFFFFFFFFFFFFFFFFFFFFFFFFFFFFFFFFFFFFFFFFFFFFFFFFFFFFFFFFFFF0000FFFFFFFFFFFFFFFFFFFFFFFFFFFFFFFFFFFFFFFFFFFFFFFFFFFFFFFF0000
310
FF0000FFFFFFFFFFFFFFFFFFFFFFFFFFFFFFFFFFFFFFFFFFFFFFFFFFFFFF00FFFFFF0000FFFFFFFFFFFFFFFFFFFFFFFFFFFFFFFFFFFFFFFFFFFFFFFFFFFF00FFFFFFFF0000FFFFFFFFFFFFFFFFFFFFFFFFFFFFFFFFFFFFFFFFFFFFFFFF00FF00000000FF00FFFFFFFFFFFFFFFFFFFFFFFFFFFFFFFFFFFFFFFFFFFFFFFF0000
310
00FFFF00FF00FFFFFFFFFFFFFFFFFFFFFFFFFFFFFFFFFFFFFFFFFFFFFFFF0000FFFFFFFF0000FFFFFFFFFFFFFFFFFFFFFFFFFFFFFFFFFFFFFFFFFFFFFFFF0000FFFFFFFF0000FFFFFFFFFFFFFFFFFFFFFFFFFFFFFFFFFFFFFFFFFFFFFF00FF00FFFFFFFF00FF00FFFFFFFFFFFFFFFFFFFFFFFFFFFFFFFFFFFFFFFFFFFF0000
310
FFFFFFFFFF00FF00FFFFFFFFFFFFFFFFFFFFFFFFFFFFFFFFFFFFFFFFFFFF0000FFFFFFFFFFFF0000FFFFFFFFFFFFFFFFFFFFFFFFFFFFFFFFFFFFFFFFFFFF0000FFFFFFFFFFFF0000FFFFFFFFFFFFFFFFFFFFFFFFFFFFFFFFFFFFFFFFFFFF0000FFFFFFFFFFFF0000FFFFFFFFFFFFFFFFFFFFFFFFFFFFFFFFFFFFFFFFFFFF00
310
00FFFFFFFFFFFF0000FFFFFFFFFFFFFFFFFFFFFFFFFFFFFFFFFFFFFFFFFFFF0000FFFFFFFFFFFF0000FFFFFFFFFFFFFFFFFFFFFFFFFFFFFFFFFFFFFFFFFFFF0000FFFFFFFFFFFF0000FFFFFFFFFFFFFFFFFFFFFFFFFFFFFFFFFFFFFFFFFFFF0000FFFFFFFFFFFF0000FFFFFFFFFFFFFFFFFFFFFFFFFFFFFFFFFFFFFFFFFFFF
310
0000FFFFFFFFFFFF0000FFFFFFFFFFFFFFFFFFFFFFFFFFFFFFFFFFFFFFFFFFFF0000FFFFFFFFFFFF0000FFFFFFFFFFFFFFFFFFFFFFFFFFFFFFFFFFFFFFFFFFFF0000FFFFFFFFFFFF0000FFFFFFFFFFFFFFFFFFFFFFFFFFFFFFFFFFFFFFFFFFFF00FF00FFFFFFFF00FF00FFFFFFFFFFFFFFFFFFFFFFFFFFFFFFFFFFFFFFFFFF
310
FF00FF00FFFFFFFF00FF00FFFFFFFFFFFFFFFFFFFFFFFFFFFFFFFFFFFFFFFFFFFF00FF00FFFFFFFF00FF00FFFFFFFFFFFFFFFFFFFFFFFFFFFFFFFFFFFFFFFFFFFFFF0000FFFFFFFF0000FFFFFFFFFFFFFFFFFFFFFFFFFFFFFFFFFFFFFFFFFFFFFFFF00FF00FFFF00FF00FFFFFFFFFFFFFFFFFFFFFFFFFFFFFFFFFFFFFFFFFF
310
FFFFFF00FF00000000FF00FFFFFFFFFFFFFFFFFFFFFFFFFFFFFFFFFFFFFFFFFFFFFFFFFF00FFFFFFFF0000FFFFFFFFFFFFFFFFFFFFFFFFFFFFFFFFFFFFFFFFFFFFFFFFFF00FFFFFFFF00FFFFFFFFFFFFFFFFFFFFFFFFFFFFFFFFFFFFFFFFFFFFFFFFFFFFFF00000000FFFFFFFFFFFFFFFFFFFFFFFFFFFFFFFFFFFFFFFFFFFF
310
FFFFFFFFFFFFFF0000FFFFFFFFFFFFFFFFFFFFFFFFFFFFFFFFFFFFFFFFFFFFFFFFFFFFFFFFFFFFFFFFFFFFFFFFFFFFFFFFFFFFFFFFFFFFFF
102
{BLKREFS
331
33C6
102
}
  0
BLOCK_RECORD
  5
3399
330
313E
100
AcDbSymbolTableRecord
100
AcDbBlockTableRecord
  2
AI9-BLK8
340
0
310
2800000020000000200000000100080000000000000400000000000000000000000000000000000000000000000080000080000000808000800000008000800080800000C0C0C000C0DCC000F0CAA6000020400000206000002080000020A0000020C0000020E00000400000004020000040400000406000004080000040A0
310
000040C0000040E00000600000006020000060400000606000006080000060A0000060C0000060E00000800000008020000080400000806000008080000080A0000080C0000080E00000A0000000A0200000A0400000A0600000A0800000A0A00000A0C00000A0E00000C0000000C0200000C0400000C0600000C0800000C0
310
A00000C0C00000C0E00000E0000000E0200000E0400000E0600000E0800000E0A00000E0C00000E0E00040000000400020004000400040006000400080004000A0004000C0004000E00040200000402020004020400040206000402080004020A0004020C0004020E000404000004040200040404000404060004040800040
310
40A0004040C0004040E00040600000406020004060400040606000406080004060A0004060C0004060E00040800000408020004080400040806000408080004080A0004080C0004080E00040A0000040A0200040A0400040A0600040A0800040A0A00040A0C00040A0E00040C0000040C0200040C0400040C0600040C08000
310
40C0A00040C0C00040C0E00040E0000040E0200040E0400040E0600040E0800040E0A00040E0C00040E0E00080000000800020008000400080006000800080008000A0008000C0008000E00080200000802020008020400080206000802080008020A0008020C0008020E00080400000804020008040400080406000804080
310
008040A0008040C0008040E00080600000806020008060400080606000806080008060A0008060C0008060E00080800000808020008080400080806000808080008080A0008080C0008080E00080A0000080A0200080A0400080A0600080A0800080A0A00080A0C00080A0E00080C0000080C0200080C0400080C0600080C0
310
800080C0A00080C0C00080C0E00080E0000080E0200080E0400080E0600080E0800080E0A00080E0C00080E0E000C0000000C0002000C0004000C0006000C0008000C000A000C000C000C000E000C0200000C0202000C0204000C0206000C0208000C020A000C020C000C020E000C0400000C0402000C0404000C0406000C0
310
408000C040A000C040C000C040E000C0600000C0602000C0604000C0606000C0608000C060A000C060C000C060E000C0800000C0802000C0804000C0806000C0808000C080A000C080C000C080E000C0A00000C0A02000C0A04000C0A06000C0A08000C0A0A000C0A0C000C0A0E000C0C00000C0C02000C0C04000C0C06000
310
C0C08000C0C0A000F0FBFF00A4A0A000808080000000FF0000FF000000FFFF00FF000000FF00FF00FFFF0000FFFFFF00FFFFFFFFFFFFFFFFFFFFFFFFFFFFFFFFFFFFFFFFFFFFFFFFFFFFFFFFFFFFFFFFFFFFFFFFFFFFFFFFFFFFFF0000FFFFFFFFFFFF0000FFFFFFFFFFFFFFFFFFFFFFFFFFFFFFFFFFFFFFFFFFFF0000FFFF
310
FFFFFFFF0000FFFFFFFFFFFFFFFFFFFFFFFFFFFFFFFFFFFFFFFFFFFF0000FFFFFFFFFF00FF00FFFFFFFFFFFFFFFFFFFFFFFFFFFFFFFFFFFFFFFFFFFF0000FFFFFFFFFF00FF00FFFFFFFFFFFFFFFFFFFFFFFFFFFFFFFFFFFFFFFFFFFF0000FFFFFFFFFF00FF00FFFFFFFFFFFFFFFFFFFFFFFFFFFFFFFFFFFFFFFFFFFF0000FF
310
FFFFFF00FFFF00FFFFFFFFFFFFFFFFFFFFFFFFFFFFFFFFFFFFFFFFFFFF0000FFFFFFFF00FF0000FFFFFFFFFFFFFFFFFFFFFFFFFFFFFFFFFFFFFFFFFFFF0000FFFFFFFF00FF0000FFFFFFFFFFFFFFFFFFFFFFFFFFFFFFFFFFFFFFFFFFFF0000FFFFFFFF00000000FFFFFFFFFFFFFFFFFFFFFFFFFFFFFFFFFFFFFFFFFFFF0000
310
FFFFFF00FF000000FFFFFFFFFFFFFFFFFFFFFFFFFFFFFFFFFFFFFFFFFFFF0000FFFFFF00FF000000FFFFFFFFFFFFFFFFFFFFFFFFFFFFFFFFFFFFFFFFFFFF0000FFFFFF00FF000000FFFFFFFFFFFFFFFFFFFFFFFFFFFFFFFFFFFFFFFFFFFF0000FFFF00FF00FF0000FFFFFFFFFFFFFFFFFFFFFFFFFFFFFFFFFFFFFFFFFFFF00
310
00FFFF00FF00FF0000FFFFFFFFFFFFFFFFFFFFFFFFFFFFFFFFFFFFFFFFFFFF0000FFFF00FF00FF0000FFFFFFFFFFFFFFFFFFFFFFFFFFFFFFFFFFFFFFFFFFFF0000FF00FFFF00FF0000FFFFFFFFFFFFFFFFFFFFFFFFFFFFFFFFFFFFFFFFFFFF0000FF00FF00FFFF0000FFFFFFFFFFFFFFFFFFFFFFFFFFFFFFFFFFFFFFFFFFFF
310
0000FF00FF00FFFF0000FFFFFFFFFFFFFFFFFFFFFFFFFFFFFFFFFFFFFFFFFFFF0000FF00FF00FFFF0000FFFFFFFFFFFFFFFFFFFFFFFFFFFFFFFFFFFFFFFFFFFF000000FFFF00FFFF0000FFFFFFFFFFFFFFFFFFFFFFFFFFFFFFFFFFFFFFFFFFFF000000FF00FFFFFF0000FFFFFFFFFFFFFFFFFFFFFFFFFFFFFFFFFFFFFFFFFF
310
FF000000FF00FFFFFF0000FFFFFFFFFFFFFFFFFFFFFFFFFFFFFFFFFFFFFFFFFFFF0000FFFF00FFFFFF0000FFFFFFFFFFFFFFFFFFFFFFFFFFFFFFFFFFFFFFFFFFFF0000FFFF00FFFFFF0000FFFFFFFFFFFFFFFFFFFFFFFFFFFFFFFFFFFFFFFFFFFF00FFFF00FFFFFFFF0000FFFFFFFFFFFFFFFFFFFFFFFFFFFFFFFFFFFFFFFF
310
FFFF00FFFF00FFFFFFFF0000FFFFFFFFFFFFFFFFFFFFFFFFFFFFFFFFFFFFFFFFFFFF00FFFF00FFFFFFFF0000FFFFFFFFFFFFFFFFFFFFFFFFFFFFFFFFFFFFFFFFFFFF00FFFF00FFFFFFFF0000FFFFFFFFFFFFFFFFFFFFFFFFFFFFFFFFFFFFFFFFFFFF00FF00FFFFFFFFFF0000FFFFFFFFFFFFFFFFFFFFFFFFFFFFFFFFFFFFFF
310
FFFFFF000000FFFFFFFFFF0000FFFFFFFFFFFFFFFFFFFFFFFFFFFFFFFFFFFFFFFFFFFFFFFFFFFFFFFFFFFFFFFFFFFFFFFFFFFFFFFFFFFFFF
102
{BLKREFS
331
33C7
102
}
  0
BLOCK_RECORD
  5
339E
330
313E
100
AcDbSymbolTableRecord
100
AcDbBlockTableRecord
  2
AI9-BLK7
340
0
310
2800000020000000200000000100080000000000000400000000000000000000000000000000000000000000000080000080000000808000800000008000800080800000C0C0C000C0DCC000F0CAA6000020400000206000002080000020A0000020C0000020E00000400000004020000040400000406000004080000040A0
310
000040C0000040E00000600000006020000060400000606000006080000060A0000060C0000060E00000800000008020000080400000806000008080000080A0000080C0000080E00000A0000000A0200000A0400000A0600000A0800000A0A00000A0C00000A0E00000C0000000C0200000C0400000C0600000C0800000C0
310
A00000C0C00000C0E00000E0000000E0200000E0400000E0600000E0800000E0A00000E0C00000E0E00040000000400020004000400040006000400080004000A0004000C0004000E00040200000402020004020400040206000402080004020A0004020C0004020E000404000004040200040404000404060004040800040
310
40A0004040C0004040E00040600000406020004060400040606000406080004060A0004060C0004060E00040800000408020004080400040806000408080004080A0004080C0004080E00040A0000040A0200040A0400040A0600040A0800040A0A00040A0C00040A0E00040C0000040C0200040C0400040C0600040C08000
310
40C0A00040C0C00040C0E00040E0000040E0200040E0400040E0600040E0800040E0A00040E0C00040E0E00080000000800020008000400080006000800080008000A0008000C0008000E00080200000802020008020400080206000802080008020A0008020C0008020E00080400000804020008040400080406000804080
310
008040A0008040C0008040E00080600000806020008060400080606000806080008060A0008060C0008060E00080800000808020008080400080806000808080008080A0008080C0008080E00080A0000080A0200080A0400080A0600080A0800080A0A00080A0C00080A0E00080C0000080C0200080C0400080C0600080C0
310
800080C0A00080C0C00080C0E00080E0000080E0200080E0400080E0600080E0800080E0A00080E0C00080E0E000C0000000C0002000C0004000C0006000C0008000C000A000C000C000C000E000C0200000C0202000C0204000C0206000C0208000C020A000C020C000C020E000C0400000C0402000C0404000C0406000C0
310
408000C040A000C040C000C040E000C0600000C0602000C0604000C0606000C0608000C060A000C060C000C060E000C0800000C0802000C0804000C0806000C0808000C080A000C080C000C080E000C0A00000C0A02000C0A04000C0A06000C0A08000C0A0A000C0A0C000C0A0E000C0C00000C0C02000C0C04000C0C06000
310
C0C08000C0C0A000F0FBFF00A4A0A000808080000000FF0000FF000000FFFF00FF000000FF00FF00FFFF0000FFFFFF00FFFFFFFFFFFFFFFFFFFFFFFFFFFFFFFFFFFFFFFFFFFFFFFFFFFFFFFFFFFFFFFFFFFFFFFFFFFFFFFFFFFFFFFFFFFFFF0000FFFFFFFFFFFFFFFFFFFFFFFFFFFFFFFFFFFFFFFFFFFFFFFFFFFFFFFFFFFF
310
0000FFFFFFFFFFFFFFFFFFFFFFFFFFFFFFFFFFFFFFFFFFFFFFFFFFFFFFFFFFFF0000FFFFFFFFFFFFFFFFFFFFFFFFFFFFFFFFFFFFFFFFFFFFFFFFFFFFFFFFFFFF0000FFFFFFFFFFFFFFFFFFFFFFFFFFFFFFFFFFFFFFFFFFFFFFFFFFFFFFFFFFFF0000FFFFFFFFFFFFFFFFFFFFFFFFFFFFFFFFFFFFFFFFFFFFFFFFFFFFFFFFFF
310
FF0000FFFFFFFFFFFFFFFFFFFFFFFFFFFFFFFFFFFFFFFFFFFFFFFFFFFFFFFFFFFF0000FFFFFFFFFFFFFFFFFFFFFFFFFFFFFFFFFFFFFFFFFFFFFFFFFFFFFFFFFFFF0000FFFFFFFFFFFFFFFFFFFFFFFFFFFFFFFFFFFFFFFFFFFFFFFFFFFFFFFFFFFF0000FFFFFFFFFFFFFFFFFFFFFFFFFFFFFFFFFFFFFFFFFFFFFFFFFFFFFFFF
310
FFFF0000FFFFFFFFFFFFFFFFFFFFFFFFFFFFFFFFFFFFFFFFFFFFFFFFFFFFFFFFFFFF0000FFFFFFFFFFFFFFFFFFFFFFFFFFFFFFFFFFFFFFFFFFFFFFFFFFFFFFFFFFFF0000FFFFFFFFFFFFFFFFFFFFFFFFFFFFFFFFFFFFFFFFFFFFFFFFFFFFFFFFFFFF0000FFFFFFFFFFFFFFFFFFFFFFFFFFFFFFFFFFFFFFFFFFFFFFFFFFFFFF
310
FFFFFF0000FFFFFFFFFFFFFFFFFFFFFFFFFFFFFFFFFFFFFFFFFFFFFFFFFFFFFFFFFFFF0000FFFFFFFFFFFFFFFFFFFFFFFFFFFFFFFFFFFFFFFFFFFFFFFFFFFFFFFFFFFF0000FFFFFFFFFFFFFFFFFFFFFFFFFFFFFFFFFFFFFFFFFFFFFFFFFFFFFFFFFFFF0000FFFFFFFFFFFFFFFFFFFFFFFFFFFFFFFFFFFFFFFFFFFFFFFFFFFF
310
FFFFFFFF0000FFFFFFFFFFFFFFFFFFFFFFFFFFFFFFFFFFFFFFFFFFFFFFFFFFFFFFFFFFFF0000FFFFFFFFFFFFFFFFFFFFFFFFFFFFFFFFFFFFFFFFFFFFFFFFFFFFFFFFFFFF0000FFFFFFFFFFFFFFFFFFFFFFFFFFFFFFFFFFFFFFFFFFFFFFFFFFFFFFFFFFFF0000FFFFFFFFFFFFFFFFFFFFFFFFFFFFFFFFFFFFFFFFFFFFFFFFFF
310
FFFFFFFFFF0000FFFFFFFFFFFFFFFFFFFFFFFFFFFFFFFFFFFFFFFFFFFFFFFFFFFFFFFFFFFF0000FFFFFFFFFFFFFFFFFFFFFFFFFFFFFFFFFFFFFFFFFFFFFFFFFFFFFFFFFFFF0000FFFFFFFFFFFFFFFFFFFFFFFFFFFFFFFFFFFFFFFFFFFFFFFFFFFFFFFFFFFF0000FFFFFFFFFFFFFFFFFFFFFFFFFFFFFFFFFFFFFFFFFFFFFFFF
310
FFFFFFFFFFFF0000FFFFFFFFFFFFFFFFFFFFFFFFFFFFFFFFFFFFFFFFFFFFFFFFFFFFFFFFFFFF0000FFFFFFFFFFFFFFFFFFFFFFFFFFFFFFFFFFFFFFFFFFFFFFFFFFFFFFFFFFFF0000FFFFFFFFFFFFFFFFFFFFFFFFFFFFFFFFFFFFFFFFFFFFFFFFFFFFFFFFFFFF0000FFFFFFFFFFFFFFFFFFFFFFFFFFFFFFFFFFFFFFFFFFFFFF
310
FFFFFFFFFFFFFF0000FFFFFFFFFFFFFFFFFFFFFFFFFFFFFFFFFFFFFFFFFFFFFFFFFFFFFFFFFFFFFFFFFFFFFFFFFFFFFFFFFFFFFFFFFFFFFF
102
{BLKREFS
331
33C8
102
}
  0
BLOCK_RECORD
  5
33A3
330
313E
100
AcDbSymbolTableRecord
100
AcDbBlockTableRecord
  2
AI9-BLK6
340
0
310
2800000020000000200000000100080000000000000400000000000000000000000000000000000000000000000080000080000000808000800000008000800080800000C0C0C000C0DCC000F0CAA6000020400000206000002080000020A0000020C0000020E00000400000004020000040400000406000004080000040A0
310
000040C0000040E00000600000006020000060400000606000006080000060A0000060C0000060E00000800000008020000080400000806000008080000080A0000080C0000080E00000A0000000A0200000A0400000A0600000A0800000A0A00000A0C00000A0E00000C0000000C0200000C0400000C0600000C0800000C0
310
A00000C0C00000C0E00000E0000000E0200000E0400000E0600000E0800000E0A00000E0C00000E0E00040000000400020004000400040006000400080004000A0004000C0004000E00040200000402020004020400040206000402080004020A0004020C0004020E000404000004040200040404000404060004040800040
310
40A0004040C0004040E00040600000406020004060400040606000406080004060A0004060C0004060E00040800000408020004080400040806000408080004080A0004080C0004080E00040A0000040A0200040A0400040A0600040A0800040A0A00040A0C00040A0E00040C0000040C0200040C0400040C0600040C08000
310
40C0A00040C0C00040C0E00040E0000040E0200040E0400040E0600040E0800040E0A00040E0C00040E0E00080000000800020008000400080006000800080008000A0008000C0008000E00080200000802020008020400080206000802080008020A0008020C0008020E00080400000804020008040400080406000804080
310
008040A0008040C0008040E00080600000806020008060400080606000806080008060A0008060C0008060E00080800000808020008080400080806000808080008080A0008080C0008080E00080A0000080A0200080A0400080A0600080A0800080A0A00080A0C00080A0E00080C0000080C0200080C0400080C0600080C0
310
800080C0A00080C0C00080C0E00080E0000080E0200080E0400080E0600080E0800080E0A00080E0C00080E0E000C0000000C0002000C0004000C0006000C0008000C000A000C000C000C000E000C0200000C0202000C0204000C0206000C0208000C020A000C020C000C020E000C0400000C0402000C0404000C0406000C0
310
408000C040A000C040C000C040E000C0600000C0602000C0604000C0606000C0608000C060A000C060C000C060E000C0800000C0802000C0804000C0806000C0808000C080A000C080C000C080E000C0A00000C0A02000C0A04000C0A06000C0A08000C0A0A000C0A0C000C0A0E000C0C00000C0C02000C0C04000C0C06000
310
C0C08000C0C0A000F0FBFF00A4A0A000808080000000FF0000FF000000FFFF00FF000000FF00FF00FFFF0000FFFFFF00FFFFFFFFFFFFFFFFFFFFFFFF00FFFFFFFFFFFFFF00FFFFFFFFFFFFFFFFFFFFFFFFFFFFFFFFFFFFFFFFFFFFFF00FFFFFFFFFFFFFF00FFFFFFFFFFFFFFFFFFFFFFFFFFFFFFFFFFFFFFFFFFFFFF00FFFF
310
FFFFFFFFFF00FFFFFFFFFFFFFFFFFFFFFFFFFFFFFFFFFFFFFFFFFFFF00FFFFFFFFFFFFFFFF00FFFFFFFFFFFFFFFFFFFFFFFFFFFFFFFFFFFFFFFFFFFF00FFFFFFFFFFFFFF00FFFFFFFFFFFFFFFFFFFFFFFFFFFFFFFFFFFFFFFFFFFFFF00FFFFFFFFFFFFFF00FFFFFFFFFFFFFFFFFFFFFFFFFFFFFFFFFFFFFFFFFFFF00FFFFFF
310
FFFFFFFFFF00FFFFFFFFFFFFFFFFFFFFFFFFFFFFFFFFFFFFFFFFFFFF00FFFFFFFFFFFFFF00FFFFFFFFFFFFFFFFFFFFFFFFFFFFFFFFFFFFFFFFFFFF00FFFFFFFFFFFFFFFF00FFFFFFFFFFFFFFFFFFFFFFFFFFFFFFFFFFFFFFFFFF00FFFFFFFFFFFFFFFFFF00FFFFFFFFFFFFFFFFFFFFFFFFFFFFFFFFFFFFFFFF00FFFFFFFFFF
310
FFFFFFFFFF00FFFFFFFFFFFFFFFFFFFFFFFFFFFFFFFFFFFFFF00FFFFFFFFFFFFFFFFFFFF00FFFFFFFFFFFFFFFFFFFFFFFFFFFFFFFFFFFF0000FFFFFFFFFFFFFFFFFFFFFF00FFFFFFFFFFFFFFFFFFFFFFFFFFFF00000000FFFFFFFFFFFFFFFFFFFFFFFFFF00FFFFFFFFFFFFFFFFFFFFFFFFFFFFFFFFFFFFFFFFFFFFFFFFFFFF
310
FFFFFFFF00FFFFFFFFFFFFFFFFFFFFFFFFFFFFFFFFFFFFFFFFFFFFFFFFFFFFFFFFFFFFFF00FFFFFFFFFFFFFFFFFFFFFFFFFFFFFFFFFFFFFFFFFFFFFFFFFFFFFFFFFFFFFF00FFFFFFFFFFFFFFFFFFFFFFFFFFFFFFFFFFFFFFFFFFFFFFFFFFFFFFFFFFFF00FFFFFFFFFFFFFFFFFFFFFFFFFFFFFFFFFFFFFFFFFFFFFFFFFFFFFF
310
FFFFFFFF00FFFFFFFFFFFFFFFFFFFFFFFFFFFFFFFFFFFFFFFFFFFFFFFFFFFFFFFFFFFF00FFFFFFFFFFFFFFFFFFFFFFFFFFFFFFFFFFFFFFFFFFFFFFFFFFFFFFFFFFFF00FFFFFFFFFFFFFFFFFFFFFFFFFFFFFFFFFFFFFFFFFFFFFFFFFFFFFFFFFFFF00FFFFFFFFFFFFFFFFFFFFFFFFFFFFFFFFFFFFFFFFFFFFFFFFFFFFFFFFFF
310
FF00FFFFFFFFFFFFFFFFFFFFFFFFFFFFFFFFFFFFFFFFFFFFFFFFFFFFFFFFFFFFFF00FFFFFFFFFFFFFFFFFFFFFFFFFFFFFFFFFFFFFFFFFFFFFFFFFFFFFFFFFFFF00FFFFFFFFFFFFFFFFFFFFFFFFFFFFFFFFFFFFFFFFFFFFFFFFFFFFFFFFFF0000FFFFFFFFFFFFFFFFFFFFFFFFFFFFFFFFFFFFFFFFFFFFFFFFFFFFFFFF0000FF
310
FFFFFFFFFFFFFFFFFFFFFFFFFFFFFFFFFFFFFFFFFFFFFFFFFF00000000FFFFFFFFFFFFFFFFFFFFFFFFFFFFFFFFFFFFFFFFFFFFFFFFFFFF0000FFFFFFFFFFFFFFFFFFFFFFFFFFFFFFFFFFFFFFFFFFFFFFFFFFFFFFFFFFFFFFFFFFFFFFFFFFFFFFFFFFFFFFFFFFFFFFFFFFFFFFFFFFFFFFFFFFFFFFFFFFFFFFFFFFFFFFFFFFFF
310
FFFFFFFFFFFFFFFFFFFFFFFFFFFFFFFFFFFFFFFFFFFFFFFFFFFFFFFFFFFFFFFFFFFFFFFFFFFFFFFFFFFFFFFFFFFFFFFFFFFFFFFFFFFFFFFF
102
{BLKREFS
331
33C9
102
}
  0
BLOCK_RECORD
  5
33A7
330
313E
100
AcDbSymbolTableRecord
100
AcDbBlockTableRecord
  2
AI9-BLK5
340
0
310
2800000020000000200000000100080000000000000400000000000000000000000000000000000000000000000080000080000000808000800000008000800080800000C0C0C000C0DCC000F0CAA6000020400000206000002080000020A0000020C0000020E00000400000004020000040400000406000004080000040A0
310
000040C0000040E00000600000006020000060400000606000006080000060A0000060C0000060E00000800000008020000080400000806000008080000080A0000080C0000080E00000A0000000A0200000A0400000A0600000A0800000A0A00000A0C00000A0E00000C0000000C0200000C0400000C0600000C0800000C0
310
A00000C0C00000C0E00000E0000000E0200000E0400000E0600000E0800000E0A00000E0C00000E0E00040000000400020004000400040006000400080004000A0004000C0004000E00040200000402020004020400040206000402080004020A0004020C0004020E000404000004040200040404000404060004040800040
310
40A0004040C0004040E00040600000406020004060400040606000406080004060A0004060C0004060E00040800000408020004080400040806000408080004080A0004080C0004080E00040A0000040A0200040A0400040A0600040A0800040A0A00040A0C00040A0E00040C0000040C0200040C0400040C0600040C08000
310
40C0A00040C0C00040C0E00040E0000040E0200040E0400040E0600040E0800040E0A00040E0C00040E0E00080000000800020008000400080006000800080008000A0008000C0008000E00080200000802020008020400080206000802080008020A0008020C0008020E00080400000804020008040400080406000804080
310
008040A0008040C0008040E00080600000806020008060400080606000806080008060A0008060C0008060E00080800000808020008080400080806000808080008080A0008080C0008080E00080A0000080A0200080A0400080A0600080A0800080A0A00080A0C00080A0E00080C0000080C0200080C0400080C0600080C0
310
800080C0A00080C0C00080C0E00080E0000080E0200080E0400080E0600080E0800080E0A00080E0C00080E0E000C0000000C0002000C0004000C0006000C0008000C000A000C000C000C000E000C0200000C0202000C0204000C0206000C0208000C020A000C020C000C020E000C0400000C0402000C0404000C0406000C0
310
408000C040A000C040C000C040E000C0600000C0602000C0604000C0606000C0608000C060A000C060C000C060E000C0800000C0802000C0804000C0806000C0808000C080A000C080C000C080E000C0A00000C0A02000C0A04000C0A06000C0A08000C0A0A000C0A0C000C0A0E000C0C00000C0C02000C0C04000C0C06000
310
C0C08000C0C0A000F0FBFF00A4A0A000808080000000FF0000FF000000FFFF00FF000000FF00FF00FFFF0000FFFFFF00FFFFFFFFFFFFFFFFFFFFFFFFFFFFFFFFFFFFFFFFFFFFFFFFFFFFFFFFFFFFFFFFFFFFFFFFFFFFFFFF000000000000000000000000000000000000000000000000FFFFFFFFFFFFFFFF00FFFFFFFFFFFF
310
FFFFFFFFFFFFFFFFFFFFFFFFFFFFFFFFFFFFFFFFFFFFFFFFFF00FFFFFFFFFFFFFFFFFFFFFFFFFFFFFFFFFFFFFFFFFFFFFFFFFFFFFFFFFFFFFF00FFFFFFFFFFFFFFFFFFFFFFFFFFFFFFFFFFFFFFFFFFFFFFFFFFFFFFFFFFFFFF00FFFFFFFFFFFFFFFFFFFFFFFFFFFFFFFFFFFFFFFFFFFFFFFFFFFFFFFFFFFFFF00FFFFFFFFFF
310
FFFFFFFFFFFFFFFFFFFFFFFFFFFFFFFFFFFFFFFFFFFFFFFFFFFF00FFFFFFFFFFFFFFFFFFFFFFFFFFFFFFFFFFFFFFFFFFFFFFFFFFFFFFFFFFFFFF00FFFFFFFFFFFFFFFFFFFFFFFFFFFFFFFFFFFFFFFFFFFFFFFFFFFFFFFFFFFFFF00FFFFFFFFFFFFFFFFFFFFFFFFFFFFFFFFFFFFFFFFFFFFFFFFFFFFFFFFFFFFFF00FFFFFFFF
310
FFFFFFFFFFFFFFFFFFFFFFFFFFFFFFFFFFFFFFFFFFFFFFFFFFFFFF00FFFFFFFFFFFFFFFFFFFFFFFFFFFFFFFFFFFFFFFFFFFFFFFFFFFFFFFFFFFFFF00FFFFFFFFFFFFFFFFFFFFFFFFFFFFFFFFFFFFFFFFFFFFFFFFFFFFFFFFFFFFFF00FFFFFFFFFFFFFFFFFFFFFFFFFFFFFFFFFFFFFFFFFFFFFFFFFFFFFFFFFFFFFF00FFFFFF
310
FFFFFFFFFFFFFFFFFFFFFFFFFFFFFFFFFFFFFFFFFFFFFFFFFFFFFFFF00FFFFFFFFFFFFFFFFFFFFFFFFFFFFFFFFFFFFFFFFFFFFFFFFFFFFFFFFFFFFFF00FFFFFFFFFFFFFFFFFFFFFFFFFFFFFFFFFFFFFFFFFFFFFFFFFFFFFFFFFFFFFF00FFFFFFFFFFFFFFFFFFFFFFFFFFFFFFFFFFFFFFFFFFFFFFFFFFFFFFFFFFFFFF00FFFF
310
FFFFFFFFFFFFFFFFFFFFFFFFFFFFFFFFFFFFFFFFFFFFFFFFFFFFFFFFFF00FFFFFFFFFFFFFFFFFFFFFFFFFFFFFFFFFFFFFFFFFFFFFFFFFFFFFFFFFFFFFF00FFFFFFFFFFFFFFFFFFFFFFFFFFFFFFFFFFFFFFFFFFFFFFFFFFFFFFFFFFFFFF00FFFFFFFFFFFFFFFFFFFFFFFFFFFFFFFFFFFFFFFFFFFFFFFFFFFFFFFFFFFFFF00FF
310
FFFFFFFFFFFFFFFFFFFFFFFFFFFFFFFFFFFFFFFFFFFFFFFFFFFFFFFFFFFF00FFFFFFFFFFFFFFFFFFFFFFFFFFFFFFFFFFFFFFFFFFFFFFFFFFFFFFFFFFFFFF00FFFFFFFFFFFFFFFFFFFFFFFFFFFFFFFFFFFFFFFFFFFFFFFFFFFFFFFFFFFFFF00FFFFFFFFFFFFFFFFFFFFFFFFFFFFFFFFFFFFFFFFFFFFFFFFFFFFFFFFFFFFFF00
310
FFFFFFFFFFFFFFFFFFFFFFFFFFFFFFFFFFFFFFFFFFFFFFFFFFFFFFFFFFFFFF00FFFFFFFFFFFFFFFFFFFFFFFFFFFFFFFFFFFFFFFFFFFFFFFFFFFFFFFFFFFFFF00FFFFFFFFFFFFFFFFFFFFFFFFFFFFFFFFFFFFFFFFFFFFFFFFFFFFFFFFFFFFFF00FFFFFFFFFFFFFFFFFFFFFFFFFFFFFFFFFFFFFFFFFFFFFFFFFFFFFFFFFFFFFF
310
00FFFFFFFFFFFFFFFFFFFFFFFFFFFF000000000000000000FFFFFFFFFFFFFFFF00FFFFFFFFFFFFFFFFFFFFFFFFFFFF00FFFFFFFFFFFFFFFF
102
{BLKREFS
331
33CA
102
}
  0
BLOCK_RECORD
  5
33AC
330
313E
100
AcDbSymbolTableRecord
100
AcDbBlockTableRecord
  2
AI9-BLK4
340
0
310
2800000020000000200000000100080000000000000400000000000000000000000000000000000000000000000080000080000000808000800000008000800080800000C0C0C000C0DCC000F0CAA6000020400000206000002080000020A0000020C0000020E00000400000004020000040400000406000004080000040A0
310
000040C0000040E00000600000006020000060400000606000006080000060A0000060C0000060E00000800000008020000080400000806000008080000080A0000080C0000080E00000A0000000A0200000A0400000A0600000A0800000A0A00000A0C00000A0E00000C0000000C0200000C0400000C0600000C0800000C0
310
A00000C0C00000C0E00000E0000000E0200000E0400000E0600000E0800000E0A00000E0C00000E0E00040000000400020004000400040006000400080004000A0004000C0004000E00040200000402020004020400040206000402080004020A0004020C0004020E000404000004040200040404000404060004040800040
310
40A0004040C0004040E00040600000406020004060400040606000406080004060A0004060C0004060E00040800000408020004080400040806000408080004080A0004080C0004080E00040A0000040A0200040A0400040A0600040A0800040A0A00040A0C00040A0E00040C0000040C0200040C0400040C0600040C08000
310
40C0A00040C0C00040C0E00040E0000040E0200040E0400040E0600040E0800040E0A00040E0C00040E0E00080000000800020008000400080006000800080008000A0008000C0008000E00080200000802020008020400080206000802080008020A0008020C0008020E00080400000804020008040400080406000804080
310
008040A0008040C0008040E00080600000806020008060400080606000806080008060A0008060C0008060E00080800000808020008080400080806000808080008080A0008080C0008080E00080A0000080A0200080A0400080A0600080A0800080A0A00080A0C00080A0E00080C0000080C0200080C0400080C0600080C0
310
800080C0A00080C0C00080C0E00080E0000080E0200080E0400080E0600080E0800080E0A00080E0C00080E0E000C0000000C0002000C0004000C0006000C0008000C000A000C000C000C000E000C0200000C0202000C0204000C0206000C0208000C020A000C020C000C020E000C0400000C0402000C0404000C0406000C0
310
408000C040A000C040C000C040E000C0600000C0602000C0604000C0606000C0608000C060A000C060C000C060E000C0800000C0802000C0804000C0806000C0808000C080A000C080C000C080E000C0A00000C0A02000C0A04000C0A06000C0A08000C0A0A000C0A0C000C0A0E000C0C00000C0C02000C0C04000C0C06000
310
C0C08000C0C0A000F0FBFF00A4A0A000808080000000FF0000FF000000FFFF00FF000000FF00FF00FFFF0000FFFFFF00FFFFFFFFFFFFFFFFFFFFFFFFFFFFFFFFFFFFFFFFFFFFFFFFFFFFFFFFFFFFFFFFFFFFFFFFFFFFFFFFFFFFFFFFFFFF00000000FFFFFFFFFFFFFFFFFFFFFF000000FFFFFFFFFFFFFFFFFFFFFFFFFFFF00
310
FFFF00FFFFFFFFFFFFFFFFFFFFFF00FFFFFFFFFFFFFFFFFFFFFFFFFFFFFFFF00FFFF00FFFFFFFFFFFFFFFFFFFFFF00FFFFFFFFFFFFFFFFFFFFFFFFFFFFFFFF00FFFF00FFFFFFFFFFFFFFFFFFFFFF00FFFFFFFFFFFFFFFFFFFFFFFFFFFFFFFF00FFFF00FFFFFFFFFFFFFFFFFFFFFF00FFFFFFFFFFFFFFFFFFFFFFFFFFFFFFFF
310
00FFFF00FFFFFFFFFFFFFFFFFFFFFF00FFFFFFFFFFFFFFFFFFFFFFFFFFFFFFFF00FFFF00FFFFFFFFFFFFFFFFFFFFFF00FFFFFFFFFFFFFFFFFFFFFFFFFFFFFFFF00FFFF00FFFFFFFFFFFFFFFFFFFFFF00FFFFFFFFFFFFFFFFFFFFFFFFFFFFFFFF00FFFF00FFFFFFFFFFFFFFFFFFFFFF00FFFFFFFFFFFFFFFFFFFFFFFFFFFFFF
310
FF00FFFF00FFFFFFFFFFFFFFFFFFFFFF00FFFFFFFFFFFFFFFFFFFFFFFFFFFFFFFF00FFFF00FFFFFFFFFFFFFFFFFFFFFF00FFFFFFFFFFFFFFFFFFFFFFFFFFFFFFFF00FFFF00FFFFFFFFFFFFFFFFFFFFFF00FFFFFFFFFFFFFFFFFFFFFFFFFFFFFFFF00FFFF00FFFFFFFFFFFFFFFFFFFFFF00FFFFFFFFFFFFFFFFFFFFFFFFFFFF
310
FFFF00FFFF00FFFFFFFFFFFFFFFFFFFFFF00FFFFFFFFFFFFFFFFFFFFFFFFFFFFFFFF00FFFF00FFFFFFFFFFFFFFFFFFFFFF00FFFFFFFFFFFFFFFFFFFFFFFFFFFFFFFF00FFFF00FFFFFFFFFFFFFFFFFFFFFF00FFFFFFFFFFFFFFFFFFFFFFFFFFFFFFFF00FFFF00FFFFFFFFFFFFFFFFFFFF00FFFFFFFFFFFFFFFFFFFFFFFFFFFF
310
FFFFFF00FFFF00FFFFFFFFFFFFFFFFFFFF00FFFFFFFFFFFFFFFFFFFFFFFFFFFFFFFFFF00FFFF00FFFFFFFFFFFFFFFFFFFF00FFFFFFFFFFFFFFFFFFFFFFFFFFFFFFFFFF00FFFF00FFFFFFFFFFFFFFFFFFFF00FFFFFFFFFFFFFFFFFFFFFFFFFFFFFFFFFF00FFFF00FFFFFFFFFFFFFFFFFFFF00FFFFFFFFFFFFFFFFFFFFFFFFFF
310
FFFFFFFF00FFFF00FFFFFFFFFFFFFFFFFF0000FFFF00FFFFFFFFFFFFFFFFFFFFFFFFFFFF00FFFF00FFFFFFFFFFFFFFFF0000FFFFFF00FFFFFFFFFFFFFFFFFFFFFFFFFFFF00FFFF00000000000000000000FFFFFFFF00FFFFFFFFFFFFFFFFFFFFFFFFFFFF00FFFFFFFFFFFFFFFFFFFFFFFFFFFFFF00FFFFFFFFFFFFFFFFFFFF
310
FFFFFFFFFF00FFFFFFFFFFFFFFFFFFFFFFFFFFFF00FFFFFFFFFFFFFFFFFFFFFFFFFFFFFFFF00FFFFFFFFFFFFFFFFFFFFFFFFFFFF00FFFFFFFFFFFFFFFFFFFFFFFFFFFFFFFF00FFFFFFFFFFFFFFFFFFFFFFFFFFFFFF00FFFFFFFFFFFFFFFFFFFFFFFFFFFFFF00FFFFFFFFFFFFFFFFFFFFFFFFFFFFFF00FFFFFFFFFFFFFFFFFF
310
FFFFFFFFFFFF00FFFF00000000000000000000FFFFFFFF00FFFFFFFFFFFFFFFFFFFFFFFFFFFF00FFFF00FFFFFFFFFFFFFFFFFF0000FFFF00
102
{BLKREFS
331
33CB
102
}
  0
BLOCK_RECORD
  5
33B1
330
313E
100
AcDbSymbolTableRecord
100
AcDbBlockTableRecord
  2
AI9-BLK3
340
0
310
2800000020000000200000000100080000000000000400000000000000000000000000000000000000000000000080000080000000808000800000008000800080800000C0C0C000C0DCC000F0CAA6000020400000206000002080000020A0000020C0000020E00000400000004020000040400000406000004080000040A0
310
000040C0000040E00000600000006020000060400000606000006080000060A0000060C0000060E00000800000008020000080400000806000008080000080A0000080C0000080E00000A0000000A0200000A0400000A0600000A0800000A0A00000A0C00000A0E00000C0000000C0200000C0400000C0600000C0800000C0
310
A00000C0C00000C0E00000E0000000E0200000E0400000E0600000E0800000E0A00000E0C00000E0E00040000000400020004000400040006000400080004000A0004000C0004000E00040200000402020004020400040206000402080004020A0004020C0004020E000404000004040200040404000404060004040800040
310
40A0004040C0004040E00040600000406020004060400040606000406080004060A0004060C0004060E00040800000408020004080400040806000408080004080A0004080C0004080E00040A0000040A0200040A0400040A0600040A0800040A0A00040A0C00040A0E00040C0000040C0200040C0400040C0600040C08000
310
40C0A00040C0C00040C0E00040E0000040E0200040E0400040E0600040E0800040E0A00040E0C00040E0E00080000000800020008000400080006000800080008000A0008000C0008000E00080200000802020008020400080206000802080008020A0008020C0008020E00080400000804020008040400080406000804080
310
008040A0008040C0008040E00080600000806020008060400080606000806080008060A0008060C0008060E00080800000808020008080400080806000808080008080A0008080C0008080E00080A0000080A0200080A0400080A0600080A0800080A0A00080A0C00080A0E00080C0000080C0200080C0400080C0600080C0
310
800080C0A00080C0C00080C0E00080E0000080E0200080E0400080E0600080E0800080E0A00080E0C00080E0E000C0000000C0002000C0004000C0006000C0008000C000A000C000C000C000E000C0200000C0202000C0204000C0206000C0208000C020A000C020C000C020E000C0400000C0402000C0404000C0406000C0
310
408000C040A000C040C000C040E000C0600000C0602000C0604000C0606000C0608000C060A000C060C000C060E000C0800000C0802000C0804000C0806000C0808000C080A000C080C000C080E000C0A00000C0A02000C0A04000C0A06000C0A08000C0A0A000C0A0C000C0A0E000C0C00000C0C02000C0C04000C0C06000
310
C0C08000C0C0A000F0FBFF00A4A0A000808080000000FF0000FF000000FFFF00FF000000FF00FF00FFFF0000FFFFFF00FFFFFFFFFFFFFFFFFFFFFFFFFFFFFFFFFFFFFFFFFFFFFFFFFFFFFFFFFFFFFFFFFFFFFFFFFFFFFFFFFFFFFFFFFFFFFF0000FFFFFFFFFFFFFFFFFFFFFFFFFFFFFFFFFFFFFFFFFFFFFFFFFFFFFFFFFFFF
310
0000FFFFFFFFFFFFFFFFFFFFFFFFFFFFFFFFFFFFFFFFFFFFFFFFFFFFFFFFFFFF0000FFFFFFFFFFFFFFFFFFFFFFFFFFFFFFFFFFFFFFFFFFFFFFFFFFFFFFFFFFFF0000FFFFFFFFFFFFFFFFFFFFFFFFFFFFFFFFFFFFFFFFFFFFFFFFFFFFFFFFFFFF0000FFFFFFFFFFFFFFFFFFFFFFFFFFFFFFFFFFFFFFFFFFFFFFFFFFFFFFFFFF
310
FF0000FFFFFFFFFFFFFFFFFFFFFFFFFFFFFFFFFFFFFFFFFFFFFFFFFFFFFFFFFFFF0000FFFFFFFFFFFFFFFFFFFFFFFFFFFFFFFFFFFFFFFFFFFFFFFFFFFFFFFFFFFF0000FFFFFFFFFFFFFFFFFFFFFFFFFFFFFFFFFFFFFFFFFFFFFFFFFFFFFFFFFFFF0000FFFFFFFFFFFFFFFFFFFFFFFFFFFFFFFFFFFFFFFFFFFFFFFFFFFFFFFF
310
FFFF0000FFFFFFFFFFFFFFFFFFFFFFFFFFFFFFFFFFFFFFFFFFFFFFFFFFFFFFFFFFFF0000FFFFFFFFFFFFFFFFFFFFFFFFFFFFFFFFFFFFFFFFFFFFFFFFFFFFFFFFFFFF0000FFFFFFFFFFFFFFFFFFFFFFFFFFFFFFFFFFFFFFFFFFFFFFFFFFFFFFFFFFFF0000FFFFFFFFFFFFFFFFFFFFFFFFFFFFFFFFFFFFFFFFFFFFFFFFFFFFFF
310
FFFFFF0000FFFFFFFFFFFFFFFFFFFFFFFFFFFFFFFFFFFFFFFFFFFFFFFFFFFFFFFFFFFF0000FFFFFFFFFFFFFFFFFFFFFFFFFFFFFFFFFFFFFFFFFFFFFFFFFFFFFFFFFFFF0000FFFFFFFFFFFFFFFFFFFFFFFFFFFFFFFFFFFFFFFFFFFFFFFFFFFFFFFFFFFF0000FFFFFFFFFFFFFFFFFFFFFFFFFFFFFFFFFFFFFFFFFFFFFFFFFFFF
310
FFFFFFFF0000FFFFFFFFFFFFFFFFFFFFFFFFFFFFFFFFFFFFFFFFFFFFFFFFFFFFFFFFFFFF0000FFFFFFFFFFFFFFFFFFFFFFFFFFFFFFFFFFFFFFFFFFFFFFFFFFFFFFFFFFFF0000FFFFFFFFFFFFFFFFFFFFFFFFFFFFFFFFFFFFFFFFFFFFFFFFFFFFFFFFFFFF0000FFFFFFFFFFFFFFFFFFFFFFFFFFFFFFFFFFFFFFFFFFFFFFFFFF
310
FFFFFFFFFF0000FFFFFFFFFFFFFFFFFFFFFFFFFFFFFFFFFFFFFFFFFFFFFFFFFFFFFFFFFFFF0000FFFFFFFFFFFFFFFFFFFFFFFFFFFFFFFFFFFFFFFFFFFFFFFFFFFFFFFFFFFF0000FFFFFFFFFFFFFFFFFFFFFFFFFFFFFFFFFFFFFFFFFFFFFFFFFFFFFFFFFFFF0000FFFFFFFFFFFFFFFFFFFFFFFFFFFFFFFFFFFFFFFFFFFFFFFF
310
FFFFFFFFFFFF0000FFFFFFFFFFFFFFFFFFFFFFFFFFFFFFFFFFFFFFFFFFFFFFFFFFFFFFFFFFFF0000FFFFFFFFFFFFFFFFFFFFFFFFFFFFFFFFFFFFFFFFFFFFFFFFFFFFFFFFFFFF0000FFFFFFFFFFFFFFFFFFFFFFFFFFFFFFFFFFFFFFFFFFFFFFFFFFFFFFFFFFFF0000FFFFFFFFFFFFFFFFFFFFFFFFFFFFFFFFFFFFFFFFFFFFFF
310
FFFFFFFFFFFFFF0000FFFFFFFFFFFFFFFFFFFFFFFFFFFFFFFFFFFFFFFFFFFFFFFFFFFFFFFFFFFFFFFFFFFFFFFFFFFFFFFFFFFFFFFFFFFFFF
102
{BLKREFS
331
33CC
102
}
  0
BLOCK_RECORD
  5
33B6
330
313E
100
AcDbSymbolTableRecord
100
AcDbBlockTableRecord
  2
AI9-BLK2
340
0
310
2800000020000000200000000100080000000000000400000000000000000000000000000000000000000000000080000080000000808000800000008000800080800000C0C0C000C0DCC000F0CAA6000020400000206000002080000020A0000020C0000020E00000400000004020000040400000406000004080000040A0
310
000040C0000040E00000600000006020000060400000606000006080000060A0000060C0000060E00000800000008020000080400000806000008080000080A0000080C0000080E00000A0000000A0200000A0400000A0600000A0800000A0A00000A0C00000A0E00000C0000000C0200000C0400000C0600000C0800000C0
310
A00000C0C00000C0E00000E0000000E0200000E0400000E0600000E0800000E0A00000E0C00000E0E00040000000400020004000400040006000400080004000A0004000C0004000E00040200000402020004020400040206000402080004020A0004020C0004020E000404000004040200040404000404060004040800040
310
40A0004040C0004040E00040600000406020004060400040606000406080004060A0004060C0004060E00040800000408020004080400040806000408080004080A0004080C0004080E00040A0000040A0200040A0400040A0600040A0800040A0A00040A0C00040A0E00040C0000040C0200040C0400040C0600040C08000
310
40C0A00040C0C00040C0E00040E0000040E0200040E0400040E0600040E0800040E0A00040E0C00040E0E00080000000800020008000400080006000800080008000A0008000C0008000E00080200000802020008020400080206000802080008020A0008020C0008020E00080400000804020008040400080406000804080
310
008040A0008040C0008040E00080600000806020008060400080606000806080008060A0008060C0008060E00080800000808020008080400080806000808080008080A0008080C0008080E00080A0000080A0200080A0400080A0600080A0800080A0A00080A0C00080A0E00080C0000080C0200080C0400080C0600080C0
310
800080C0A00080C0C00080C0E00080E0000080E0200080E0400080E0600080E0800080E0A00080E0C00080E0E000C0000000C0002000C0004000C0006000C0008000C000A000C000C000C000E000C0200000C0202000C0204000C0206000C0208000C020A000C020C000C020E000C0400000C0402000C0404000C0406000C0
310
408000C040A000C040C000C040E000C0600000C0602000C0604000C0606000C0608000C060A000C060C000C060E000C0800000C0802000C0804000C0806000C0808000C080A000C080C000C080E000C0A00000C0A02000C0A04000C0A06000C0A08000C0A0A000C0A0C000C0A0E000C0C00000C0C02000C0C04000C0C06000
310
C0C08000C0C0A000F0FBFF00A4A0A000808080000000FF0000FF000000FFFF00FF000000FF00FF00FFFF0000FFFFFF00FFFFFFFFFFFFFFFFFFFFFFFFFFFFFFFFFFFFFFFFFFFFFFFFFFFFFFFFFFFFFFFFFFFFFFFFFFFFFFFFFFFFFFFFFFFFFF0000FFFFFFFFFFFFFFFFFFFFFFFFFFFFFFFFFFFFFFFFFFFFFFFFFFFFFFFFFFFF
310
0000FFFFFFFFFFFFFFFFFFFFFFFFFFFFFFFFFFFFFFFFFFFFFFFFFFFFFFFFFFFF0000FFFFFFFFFFFFFFFFFFFFFFFFFFFFFFFFFFFFFFFFFFFFFFFFFFFFFFFFFF00FFFF00FFFFFFFFFFFFFFFFFFFFFFFFFFFFFFFFFFFFFFFFFFFFFFFFFFFFFFFF00FFFF00FFFFFFFFFFFFFFFFFFFFFFFFFFFFFFFFFFFFFFFFFFFFFFFFFFFFFFFF
310
00FF0000FFFFFFFFFFFFFFFFFFFFFFFFFFFFFFFFFFFFFFFFFFFFFFFFFFFFFFFF00FF0000FFFFFFFFFFFFFFFFFFFFFFFFFFFFFFFFFFFFFFFFFFFFFFFFFFFFFFFF00FF0000FFFFFFFFFFFFFFFFFFFFFFFFFFFFFFFFFFFFFFFFFFFFFFFFFFFFFFFF00000000FFFFFFFFFFFFFFFFFFFFFFFFFFFFFFFFFFFFFFFFFFFFFFFFFFFFFF
310
00FF00FF0000FFFFFFFFFFFFFFFFFFFFFFFFFFFFFFFFFFFFFFFFFFFFFFFFFFFF00FF00FF0000FFFFFFFFFFFFFFFFFFFFFFFFFFFFFFFFFFFFFFFFFFFFFFFFFFFF00FF00FF0000FFFFFFFFFFFFFFFFFFFFFFFFFFFFFFFFFFFFFFFFFFFFFFFFFFFF00FF00FF0000FFFFFFFFFFFFFFFFFFFFFFFFFFFFFFFFFFFFFFFFFFFFFFFFFF
310
FF00FF00FF0000FFFFFFFFFFFFFFFFFFFFFFFFFFFFFFFFFFFFFFFFFFFFFFFFFFFF0000FFFF0000FFFFFFFFFFFFFFFFFFFFFFFFFFFFFFFFFFFFFFFFFFFFFFFFFF00FF00FFFF00FF00FFFFFFFFFFFFFFFFFFFFFFFFFFFFFFFFFFFFFFFFFFFFFFFF00FF00FFFF00FF00FFFFFFFFFFFFFFFFFFFFFFFFFFFFFFFFFFFFFFFFFFFFFF
310
FF00FF00FFFFFF0000FFFFFFFFFFFFFFFFFFFFFFFFFFFFFFFFFFFFFFFFFFFFFFFF00FF00FFFFFF0000FFFFFFFFFFFFFFFFFFFFFFFFFFFFFFFFFFFFFFFFFFFFFFFF00FF00FFFFFF0000FFFFFFFFFFFFFFFFFFFFFFFFFFFFFFFFFFFFFFFFFFFFFFFF0000FFFFFFFF0000FFFFFFFFFFFFFFFFFFFFFFFFFFFFFFFFFFFFFFFFFFFF
310
FF00FF00FFFFFFFF00FF00FFFFFFFFFFFFFFFFFFFFFFFFFFFFFFFFFFFFFFFFFFFF00FF00FFFFFFFF00FF00FFFFFFFFFFFFFFFFFFFFFFFFFFFFFFFFFFFFFFFFFFFF00FF00FFFFFFFF00FF00FFFFFFFFFFFFFFFFFFFFFFFFFFFFFFFFFFFFFFFFFFFF00FF00FFFFFFFF00FF00FFFFFFFFFFFFFFFFFFFFFFFFFFFFFFFFFFFFFFFF
310
FFFF00FF00FFFFFFFFFF0000FFFFFFFFFFFFFFFFFFFFFFFFFFFFFFFFFFFFFFFFFFFF0000FFFFFFFFFFFF0000FFFFFFFFFFFFFFFFFFFFFFFFFFFFFFFFFFFFFFFFFF00FF00FFFFFFFFFFFF00FF00FFFFFFFFFFFFFFFFFFFFFFFFFFFFFFFFFFFFFFFF00FF00FFFFFFFFFFFF00FF00FFFFFFFFFFFFFFFFFFFFFFFFFFFFFFFFFFFF
310
FFFF000000FFFFFFFFFFFF000000FFFFFFFFFFFFFFFFFFFFFFFFFFFFFFFFFFFFFFFFFFFFFFFFFFFFFFFFFFFFFFFFFFFFFFFFFFFFFFFFFFFF
102
{BLKREFS
331
33CD
102
}
  0
BLOCK_RECORD
  5
33BB
330
313E
100
AcDbSymbolTableRecord
100
AcDbBlockTableRecord
  2
AI9-BLK1
340
0
310
2800000020000000200000000100080000000000000400000000000000000000000000000000000000000000000080000080000000808000800000008000800080800000C0C0C000C0DCC000F0CAA6000020400000206000002080000020A0000020C0000020E00000400000004020000040400000406000004080000040A0
310
000040C0000040E00000600000006020000060400000606000006080000060A0000060C0000060E00000800000008020000080400000806000008080000080A0000080C0000080E00000A0000000A0200000A0400000A0600000A0800000A0A00000A0C00000A0E00000C0000000C0200000C0400000C0600000C0800000C0
310
A00000C0C00000C0E00000E0000000E0200000E0400000E0600000E0800000E0A00000E0C00000E0E00040000000400020004000400040006000400080004000A0004000C0004000E00040200000402020004020400040206000402080004020A0004020C0004020E000404000004040200040404000404060004040800040
310
40A0004040C0004040E00040600000406020004060400040606000406080004060A0004060C0004060E00040800000408020004080400040806000408080004080A0004080C0004080E00040A0000040A0200040A0400040A0600040A0800040A0A00040A0C00040A0E00040C0000040C0200040C0400040C0600040C08000
310
40C0A00040C0C00040C0E00040E0000040E0200040E0400040E0600040E0800040E0A00040E0C00040E0E00080000000800020008000400080006000800080008000A0008000C0008000E00080200000802020008020400080206000802080008020A0008020C0008020E00080400000804020008040400080406000804080
310
008040A0008040C0008040E00080600000806020008060400080606000806080008060A0008060C0008060E00080800000808020008080400080806000808080008080A0008080C0008080E00080A0000080A0200080A0400080A0600080A0800080A0A00080A0C00080A0E00080C0000080C0200080C0400080C0600080C0
310
800080C0A00080C0C00080C0E00080E0000080E0200080E0400080E0600080E0800080E0A00080E0C00080E0E000C0000000C0002000C0004000C0006000C0008000C000A000C000C000C000E000C0200000C0202000C0204000C0206000C0208000C020A000C020C000C020E000C0400000C0402000C0404000C0406000C0
310
408000C040A000C040C000C040E000C0600000C0602000C0604000C0606000C0608000C060A000C060C000C060E000C0800000C0802000C0804000C0806000C0808000C080A000C080C000C080E000C0A00000C0A02000C0A04000C0A06000C0A08000C0A0A000C0A0C000C0A0E000C0C00000C0C02000C0C04000C0C06000
310
C0C08000C0C0A000F0FBFF00A4A0A000808080000000FF0000FF000000FFFF00FF000000FF00FF00FFFF0000FFFFFF00FFFFFFFFFFFFFFFFFFFFFFFFFFFFFFFFFFFFFFFFFFFFFFFFFFFFFFFFFFFFFFFFFFFFFFFFFFFFFFFFFFFFFF00000000000000000000FFFFFFFFFFFFFFFFFFFFFFFFFFFFFFFFFFFFFFFFFFFF00FFFFFF
310
FFFFFFFFFF00FFFFFFFFFFFFFFFFFFFFFFFFFFFFFFFFFFFFFFFFFFFF00FFFFFFFFFFFFFFFF00FFFFFFFFFFFFFFFFFFFFFFFFFFFFFFFFFFFFFFFFFFFF00FFFFFFFFFFFFFFFF00FFFFFFFFFFFFFFFFFFFFFFFFFFFFFFFFFFFFFFFFFFFF00FF0000000000000000FFFFFFFFFFFFFFFFFFFFFFFFFFFFFFFFFFFFFFFFFFFF00FF00
310
FFFFFFFFFFFFFFFFFFFFFFFFFFFFFFFFFFFFFFFFFFFFFFFFFFFFFFFFFF00FF00FFFFFFFFFFFFFFFFFFFFFFFFFFFFFFFFFFFFFFFFFFFFFFFFFFFFFFFFFF00FF00FFFFFFFFFFFFFFFFFFFFFFFFFFFFFFFFFFFFFFFFFFFFFFFFFFFFFFFFFF00FF00FFFFFFFFFFFFFFFFFFFFFFFFFFFFFFFFFFFFFFFFFFFFFFFFFFFFFFFFFF00FF
310
00FFFFFFFFFFFFFFFFFFFFFFFFFFFFFFFFFFFFFFFFFFFFFFFFFFFFFFFFFF00FF00FFFFFFFFFFFFFFFFFFFFFFFFFFFFFFFFFFFFFFFFFFFFFFFFFFFFFFFFFF00FF00FFFFFFFFFFFFFFFFFFFFFFFFFFFFFFFFFFFFFFFFFFFFFFFFFFFFFFFFFF00FF00FFFFFFFFFFFFFFFFFFFFFFFFFFFFFFFFFFFFFFFFFFFFFFFFFFFFFFFFFF00
310
FF00000000000000FFFFFFFFFFFFFFFFFFFFFFFFFFFFFFFFFFFFFFFFFFFFFF00FFFFFFFFFFFFFF00FFFFFFFFFFFFFFFFFFFFFFFFFFFFFFFFFFFFFFFFFFFFFF00FFFFFFFFFFFFFF00FFFFFFFFFFFFFFFFFFFFFFFFFFFFFFFFFFFFFFFFFFFFFF00FFFFFFFFFFFFFF00FFFFFFFFFFFFFFFFFFFFFFFFFFFFFFFFFFFFFFFFFFFFFF
310
00FF00000000000000FFFFFFFFFFFFFFFFFFFFFFFFFFFFFFFFFFFFFFFFFFFFFF00FF00FFFFFFFFFFFFFFFFFFFFFFFFFFFFFFFFFFFFFFFFFFFFFFFFFFFFFFFFFF00FF00FFFFFFFFFFFFFFFFFFFFFFFFFFFFFFFFFFFFFFFFFFFFFFFFFFFFFFFFFF00FF00FFFFFFFFFFFFFFFFFFFFFFFFFFFFFFFFFFFFFFFFFFFFFFFFFFFFFFFF
310
FF00FF00FFFFFFFFFFFFFFFFFFFFFFFFFFFFFFFFFFFFFFFFFFFFFFFFFFFFFFFFFF00FF00FFFFFFFFFFFFFFFFFFFFFFFFFFFFFFFFFFFFFFFFFFFFFFFFFFFFFFFFFF00FF00FFFFFFFFFFFFFFFFFFFFFFFFFFFFFFFFFFFFFFFFFFFFFFFFFFFFFFFFFF00FF00FFFFFFFFFFFFFFFFFFFFFFFFFFFFFFFFFFFFFFFFFFFFFFFFFFFFFF
310
FFFF00FF0000000000000000FFFFFFFFFFFFFFFFFFFFFFFFFFFFFFFFFFFFFFFFFFFF00FFFFFFFFFFFFFFFF00FFFFFFFFFFFFFFFFFFFFFFFFFFFFFFFFFFFFFFFFFFFF00FFFFFFFFFFFFFFFF00FFFFFFFFFFFFFFFFFFFFFFFFFFFFFFFFFFFFFFFFFFFF00FFFFFFFFFFFFFFFF00FFFFFFFFFFFFFFFFFFFFFFFFFFFFFFFFFFFFFF
310
FFFFFF00000000000000000000FFFFFFFFFFFFFFFFFFFFFFFFFFFFFFFFFFFFFFFFFFFFFFFFFFFFFFFFFFFFFFFFFFFFFFFFFFFFFFFFFFFFFF
102
{BLKREFS
331
33CE
102
}
  0
BLOCK_RECORD
  5
33C0
330
313E
100
AcDbSymbolTableRecord
100
AcDbBlockTableRecord
  2
HD_LLC_logo_OT5
340
0
310
2800000020000000200000000100080000000000000400000000000000000000000000000000000000000000000080000080000000808000800000008000800080800000C0C0C000C0DCC000F0CAA6000020400000206000002080000020A0000020C0000020E00000400000004020000040400000406000004080000040A0
310
000040C0000040E00000600000006020000060400000606000006080000060A0000060C0000060E00000800000008020000080400000806000008080000080A0000080C0000080E00000A0000000A0200000A0400000A0600000A0800000A0A00000A0C00000A0E00000C0000000C0200000C0400000C0600000C0800000C0
310
A00000C0C00000C0E00000E0000000E0200000E0400000E0600000E0800000E0A00000E0C00000E0E00040000000400020004000400040006000400080004000A0004000C0004000E00040200000402020004020400040206000402080004020A0004020C0004020E000404000004040200040404000404060004040800040
310
40A0004040C0004040E00040600000406020004060400040606000406080004060A0004060C0004060E00040800000408020004080400040806000408080004080A0004080C0004080E00040A0000040A0200040A0400040A0600040A0800040A0A00040A0C00040A0E00040C0000040C0200040C0400040C0600040C08000
310
40C0A00040C0C00040C0E00040E0000040E0200040E0400040E0600040E0800040E0A00040E0C00040E0E00080000000800020008000400080006000800080008000A0008000C0008000E00080200000802020008020400080206000802080008020A0008020C0008020E00080400000804020008040400080406000804080
310
008040A0008040C0008040E00080600000806020008060400080606000806080008060A0008060C0008060E00080800000808020008080400080806000808080008080A0008080C0008080E00080A0000080A0200080A0400080A0600080A0800080A0A00080A0C00080A0E00080C0000080C0200080C0400080C0600080C0
310
800080C0A00080C0C00080C0E00080E0000080E0200080E0400080E0600080E0800080E0A00080E0C00080E0E000C0000000C0002000C0004000C0006000C0008000C000A000C000C000C000E000C0200000C0202000C0204000C0206000C0208000C020A000C020C000C020E000C0400000C0402000C0404000C0406000C0
310
408000C040A000C040C000C040E000C0600000C0602000C0604000C0606000C0608000C060A000C060C000C060E000C0800000C0802000C0804000C0806000C0808000C080A000C080C000C080E000C0A00000C0A02000C0A04000C0A06000C0A08000C0A0A000C0A0C000C0A0E000C0C00000C0C02000C0C04000C0C06000
310
C0C08000C0C0A000F0FBFF00A4A0A000808080000000FF0000FF000000FFFF00FF000000FF00FF00FFFF0000FFFFFF00FFFFFFFFFFFFFFFFFFFFFFFFFFFFFFFFFFFFFFFFFFFFFFFFFFFFFFFFFFFFFFFFFFFFFFFFFFFFFFFFFFFFFFFFFFFFFFFFFFFFFFFFFFFFFFFFFFFFFFFFFFFFFFFFFFFFFFFFFFFFFFFFFFFFFFFFFFFFFF
310
FFFFFFFFFFFFFFFFFFFFFFFFFFFFFFFFFFFFFFFFFFFFFFFFFFFFFFFFFFFFFFFFFFFFFFFFFFFFFFFFFFFFFFFFFFFFFFFFFFFFFFFFFFFFFFFFFFFFFFFFFFFFFFFFFFFFFFFFFFFFFFFFFFFFFFFFFFFFFFFFFFFFFFFFFFFFFFFFFFFFFFFFFFFFFFFFFFFFFFFFFFFFFFFFFFFFFFFFFFFFFFFFFFFFFFFFFFFFFFFFFFFFFFFFFFFFFF
310
FFFFFFFFFFFFFFFFFFFFFFFFFFFFFFFFFFFFFFFFFFFFFFFFFFFFFFFFFFFFFFFFFFFFFFFFFFFFFFFFFFFFFFFFFFFFFFFFFFFFFFFFFFFFFFFFFFFFFFFFFFFFFFFFFFFFFFFFFFFFFFFFFFFFFFFFFFFFFFFFFFFFFFFFFFFFFFFFFFFFFFFFFFFFFFFFFFFFFFFFFFFFFFFFFFFFFFFFFFFFFFFFFFFFFFFFFFFFFFFFFFFFFFFFFFFFFF
310
FFFFFFFFFFFFFFFFFFFFFFFFFFFFFFFFFFFFFFFFFFFFFFFFFFFFFFFFFFFFFFFFFFFFFFFFFFFFFFFFFFFFFFFFFFFFFFFFFFFFFFFF0000000000000000000000000000000000000000000000000000000000FFFFFF0000000000000000000000000000000000FFFFFFFFFFFFFFFFFFFF0000FFFFFF0000000000000000000000
310
00000000000000FFFFFFFFFFFFFFFFFFFF0000FFFF000000000000000000000000000000000000FFFFFF00000000FFFFFF0000FFFF00FFFFFFFFFFFF00FFFFFF00FFFFFFFFFF00FFFFFF0000000000FFFF0000FFFF00FFFFFFFFFFFF00FFFFFF00FFFFFFFFFF00FFFFFF00FFFF0000FFFF0000FFFF00FFFFFFFFFFFF00FFFF
310
00FFFFFFFFFFFF00FFFFFF00FFFF0000FFFF0000FFFF0000000000FFFF00000000FFFFFF00000000FFFFFF00000000FFFFFF0000FFFFFFFFFFFF00FFFFFFFFFFFFFFFFFF00FFFFFFFFFFFFFFFFFFFFFFFFFF0000FFFFFFFFFFFF00FFFFFFFFFFFFFFFFFF00FFFFFFFFFFFFFFFFFFFFFFFFFF0000FFFFFFFFFFFF00FFFFFFFF
310
FFFFFFFFFF00FFFFFFFFFFFFFFFFFFFFFFFF0000FFFFFF0000000000FFFF00000000FFFFFF0000000000000000000000000000FFFFFFFF00FFFFFFFFFFFF00FFFF00FFFFFFFFFFFF00FFFFFFFFFFFFFFFFFFFFFFFFFFFF00FFFFFFFFFFFF00FFFFFF00FFFFFFFFFF00FFFFFFFFFFFFFFFFFFFFFFFFFFFF0000000000000000
310
FFFFFF00000000000000FFFFFFFFFFFFFFFFFFFFFFFFFFFFFFFFFFFFFFFFFFFFFFFFFFFFFFFFFFFFFFFFFFFFFFFFFFFFFFFFFFFFFFFFFFFFFFFFFFFFFFFFFFFFFFFFFFFFFFFFFFFFFFFFFFFFFFFFFFFFFFFFFFFFFFFFFFFFFFFFFFFFFFFFFFFFFFFFFFFFFFFFFFFFFFFFFFFFFFFFFFFFFFFFFFFFFFFFFFFFFFFFFFFFFFFFFF
310
FFFFFFFFFFFFFFFFFFFFFFFFFFFFFFFFFFFFFFFFFFFFFFFFFFFFFFFFFFFFFFFFFFFFFFFFFFFFFFFFFFFFFFFFFFFFFFFFFFFFFFFFFFFFFFFF
102
{BLKREFS
331
33E6
102
}
  0
BLOCK_RECORD
  5
33E5
330
313E
100
AcDbSymbolTableRecord
100
AcDbBlockTableRecord
  2
HD logo-new
340
0
310
2800000020000000200000000100080000000000000400000000000000000000000000000000000000000000000080000080000000808000800000008000800080800000C0C0C000C0DCC000F0CAA6000020400000206000002080000020A0000020C0000020E00000400000004020000040400000406000004080000040A0
310
000040C0000040E00000600000006020000060400000606000006080000060A0000060C0000060E00000800000008020000080400000806000008080000080A0000080C0000080E00000A0000000A0200000A0400000A0600000A0800000A0A00000A0C00000A0E00000C0000000C0200000C0400000C0600000C0800000C0
310
A00000C0C00000C0E00000E0000000E0200000E0400000E0600000E0800000E0A00000E0C00000E0E00040000000400020004000400040006000400080004000A0004000C0004000E00040200000402020004020400040206000402080004020A0004020C0004020E000404000004040200040404000404060004040800040
310
40A0004040C0004040E00040600000406020004060400040606000406080004060A0004060C0004060E00040800000408020004080400040806000408080004080A0004080C0004080E00040A0000040A0200040A0400040A0600040A0800040A0A00040A0C00040A0E00040C0000040C0200040C0400040C0600040C08000
310
40C0A00040C0C00040C0E00040E0000040E0200040E0400040E0600040E0800040E0A00040E0C00040E0E00080000000800020008000400080006000800080008000A0008000C0008000E00080200000802020008020400080206000802080008020A0008020C0008020E00080400000804020008040400080406000804080
310
008040A0008040C0008040E00080600000806020008060400080606000806080008060A0008060C0008060E00080800000808020008080400080806000808080008080A0008080C0008080E00080A0000080A0200080A0400080A0600080A0800080A0A00080A0C00080A0E00080C0000080C0200080C0400080C0600080C0
310
800080C0A00080C0C00080C0E00080E0000080E0200080E0400080E0600080E0800080E0A00080E0C00080E0E000C0000000C0002000C0004000C0006000C0008000C000A000C000C000C000E000C0200000C0202000C0204000C0206000C0208000C020A000C020C000C020E000C0400000C0402000C0404000C0406000C0
310
408000C040A000C040C000C040E000C0600000C0602000C0604000C0606000C0608000C060A000C060C000C060E000C0800000C0802000C0804000C0806000C0808000C080A000C080C000C080E000C0A00000C0A02000C0A04000C0A06000C0A08000C0A0A000C0A0C000C0A0E000C0C00000C0C02000C0C04000C0C06000
310
C0C08000C0C0A000F0FBFF00A4A0A000808080000000FF0000FF000000FFFF00FF000000FF00FF00FFFF0000FFFFFF00FFFFFFFFFFFFFFFFFFFFFFFFFFFFFFFFFFFFFFFFFFFFFFFFFFFFFFFFFFFFFFFFFFFFFFFFFFFFFFFFFFFFFFFFFFFFFFFFFFFFFFFFFFFFFFFFFFFFFFFFFFFFFFFFFFFFFFFFFFFFFFFFFFFFFFFFFFFFFF
310
FFFFFFFFFFFFFFFFFFFFFFFFFFFFFFFFFFFFFFFFFFFFFFFFFFFFFFFFFFFFFFFFFFFFFFFFFFFFFFFFFFFFFFFFFFFFFFFFFFFFFFFFFFFFFFFFFFFFFFFFFFFFFFFFFFFFFFFFFFFFFFFFFFFFFFFFFFFFFFFFFFFFFFFFFFFFFFFFFFFFFFFFFFFFFFFFFFFFFFFFFFFFFFFFFFFFFFFFFFFFFFFFFFFFFFFFFFFFFFFFFFFFFFFFFFFFFF
310
FFFFFFFFFFFFFFFFFFFFFFFFFFFFFFFFFFFFFFFFFFFFFFFFFFFFFFFFFFFFFFFFFFFFFFFFFFFFFFFFFFFFFFFFFFFFFFFFFFFFFFFFFFFFFFFFFFFFFFFFFFFFFFFFFFFFFFFFFFFFFFFFFFFFFFFFFFFFFFFFFFFFFFFFFFFFFFFFFFFFFFFFFFFFFFFFFFFFFFFFFFFFFFFFFFFFFFFFFFFFFFFFFFFFFFFFFFFFFFFFFFFFFFFFFFFFFF
310
FFFFFFFFFFFFFFFFFFFFFFFFFFFFFFFFFFFFFFFFFFFFFFFFFFFFFFFFFFFFFFFFFFFFFFFFFFFFFFFFFFFFFFFFFFFFFFFFFFFFFFFF0000000000000000000000000000000000000000000000000000000000FFFFFF0000000000000000000000000000000000FFFFFFFFFFFFFFFFFFFF0000FFFFFF0000000000000000000000
310
00000000000000FFFFFFFFFFFFFFFFFFFF0000FFFF000000000000000000000000000000000000FFFFFF00000000FFFFFF0000FFFF00FFFFFFFFFFFF00FFFFFF00FFFFFFFFFF00FFFFFF0000000000FFFF0000FFFF00FFFFFFFFFFFF00FFFFFF00FFFFFFFFFF00FFFFFF00FFFF0000FFFF0000FFFF00FFFFFFFFFFFF00FFFF
310
00FFFFFFFFFFFF00FFFFFF00FFFF0000FFFF0000FFFF0000000000FFFF00000000FFFFFF00000000FFFFFF00000000FFFFFF0000FFFFFFFFFFFF00FFFFFFFFFFFFFFFFFF00FFFFFFFFFFFFFFFFFFFFFFFFFF0000FFFFFFFFFFFF00FFFFFFFFFFFFFFFFFF00FFFFFFFFFFFFFFFFFFFFFFFFFF0000FFFFFFFFFFFF00FFFFFFFF
310
FFFFFFFFFF00FFFFFFFFFFFFFFFFFFFFFFFF0000FFFFFF0000000000FFFF00000000FFFFFF0000000000000000000000000000FFFFFFFF00FFFFFFFFFFFF00FFFF00FFFFFFFFFFFF00FFFFFFFFFFFFFFFFFFFFFFFFFFFF00FFFFFFFFFFFF00FFFFFF00FFFFFFFFFF00FFFFFFFFFFFFFFFFFFFFFFFFFFFF0000000000000000
310
FFFFFF00000000000000FFFFFFFFFFFFFFFFFFFFFFFFFFFFFFFFFFFFFFFFFFFFFFFFFFFFFFFFFFFFFFFFFFFFFFFFFFFFFFFFFFFFFFFFFFFFFFFFFFFFFFFFFFFFFFFFFFFFFFFFFFFFFFFFFFFFFFFFFFFFFFFFFFFFFFFFFFFFFFFFFFFFFFFFFFFFFFFFFFFFFFFFFFFFFFFFFFFFFFFFFFFFFFFFFFFFFFFFFFFFFFFFFFFFFFFFFF
310
FFFFFFFFFFFFFFFFFFFFFFFFFFFFFFFFFFFFFFFFFFFFFFFFFFFFFFFFFFFFFFFFFFFFFFFFFFFFFFFFFFFFFFFFFFFFFFFFFFFFFFFFFFFFFFFF
102
{BLKREFS
331
33EA
102
}
  0
BLOCK_RECORD
  5
33E9
330
313E
100
AcDbSymbolTableRecord
100
AcDbBlockTableRecord
  2
HD Logo
340
0
310
2800000020000000200000000100080000000000000400000000000000000000000000000000000000000000000080000080000000808000800000008000800080800000C0C0C000C0DCC000F0CAA6000020400000206000002080000020A0000020C0000020E00000400000004020000040400000406000004080000040A0
310
000040C0000040E00000600000006020000060400000606000006080000060A0000060C0000060E00000800000008020000080400000806000008080000080A0000080C0000080E00000A0000000A0200000A0400000A0600000A0800000A0A00000A0C00000A0E00000C0000000C0200000C0400000C0600000C0800000C0
310
A00000C0C00000C0E00000E0000000E0200000E0400000E0600000E0800000E0A00000E0C00000E0E00040000000400020004000400040006000400080004000A0004000C0004000E00040200000402020004020400040206000402080004020A0004020C0004020E000404000004040200040404000404060004040800040
310
40A0004040C0004040E00040600000406020004060400040606000406080004060A0004060C0004060E00040800000408020004080400040806000408080004080A0004080C0004080E00040A0000040A0200040A0400040A0600040A0800040A0A00040A0C00040A0E00040C0000040C0200040C0400040C0600040C08000
310
40C0A00040C0C00040C0E00040E0000040E0200040E0400040E0600040E0800040E0A00040E0C00040E0E00080000000800020008000400080006000800080008000A0008000C0008000E00080200000802020008020400080206000802080008020A0008020C0008020E00080400000804020008040400080406000804080
310
008040A0008040C0008040E00080600000806020008060400080606000806080008060A0008060C0008060E00080800000808020008080400080806000808080008080A0008080C0008080E00080A0000080A0200080A0400080A0600080A0800080A0A00080A0C00080A0E00080C0000080C0200080C0400080C0600080C0
310
800080C0A00080C0C00080C0E00080E0000080E0200080E0400080E0600080E0800080E0A00080E0C00080E0E000C0000000C0002000C0004000C0006000C0008000C000A000C000C000C000E000C0200000C0202000C0204000C0206000C0208000C020A000C020C000C020E000C0400000C0402000C0404000C0406000C0
310
408000C040A000C040C000C040E000C0600000C0602000C0604000C0606000C0608000C060A000C060C000C060E000C0800000C0802000C0804000C0806000C0808000C080A000C080C000C080E000C0A00000C0A02000C0A04000C0A06000C0A08000C0A0A000C0A0C000C0A0E000C0C00000C0C02000C0C04000C0C06000
310
C0C08000C0C0A000F0FBFF00A4A0A000808080000000FF0000FF000000FFFF00FF000000FF00FF00FFFF0000FFFFFF00FFFFFFFFFFFFFFFFFFFFFFFFFFFFFFFFFFFFFFFFFFFFFFFFFFFFFFFFFFFFFFFFFFFFFFFFFFFFFFFFFFFFFFFFFFFFFFFFFFFFFFFFFFFFFFFFFFFFFFFFFFFFFFFFFFFFFFFFFFFFFFFFFFFFFFFFFFFFFF
310
FFFFFFFFFFFFFFFFFFFFFFFFFFFFFFFFFFFFFFFFFFFFFFFFFFFFFFFFFFFFFFFFFFFFFFFFFFFFFFFFFFFFFFFFFFFFFFFFFFFFFFFFFFFFFFFFFFFFFFFFFFFFFFFFFFFFFFFFFFFFFFFFFFFFFFFFFFFFFFFFFFFFFFFFFFFFFFFFFFFFFFFFFFFFFFFFFFFFFFFFFFFFFFFFFFFFFFFFFFFFFFFFFFFFFFFFFFFFFFFFFFFFFFFFFFFFFF
310
FFFFFFFFFFFFFFFFFFFFFFFFFFFFFFFFFFFFFFFFFFFFFFFFFFFFFFFFFFFFFFFFFFFFFFFFFFFFFFFFFFFFFFFFFFFFFFFFFFFFFFFFFFFFFFFFFFFFFFFFFFFFFFFFFFFFFFFFFFFFFFFFFFFFFFFFFFFFFFFFFFFFFFFFFFFFFFFFFFFFFFFFFFFFFFFFFFFFFFFFFFFFFFFFFFFFFFFFFFFFFFFFFFFFFFFFFFFFFFFFFFFFFFFFFFFFFF
310
FFFFFFFFFFFFFFFFFFFFFFFFFFFFFFFFFFFFFFFFFFFFFFFFFFFFFFFFFFFFFFFFFFFFFFFFFFFFFFFFFFFFFFFFFFFFFFFFFFFFFFFF0000000000000000000000000000000000000000000000000000000000FFFFFF0000000000000000000000000000000000FFFFFFFFFFFFFFFFFFFF0000FFFFFF0000000000000000000000
310
00000000000000FFFFFFFFFFFFFFFFFFFF0000FFFF000000000000000000000000000000000000FFFFFF00000000FFFFFF0000FFFF00FFFFFFFFFFFF00FFFFFF00FFFFFFFFFF00FFFFFF0000000000FFFF0000FFFF00FFFFFFFFFFFF00FFFFFF00FFFFFFFFFF00FFFFFF00FFFF0000FFFF0000FFFF00FFFFFFFFFFFF00FFFF
310
00FFFFFFFFFFFF00FFFFFF00FFFF0000FFFF0000FFFF0000000000FFFF00000000FFFFFF00000000FFFFFF00000000FFFFFF0000FFFFFFFFFFFF00FFFFFFFFFFFFFFFFFF00FFFFFFFFFFFFFFFFFFFFFFFFFF0000FFFFFFFFFFFF00FFFFFFFFFFFFFFFFFF00FFFFFFFFFFFFFFFFFFFFFFFFFF0000FFFFFFFFFFFF00FFFFFFFF
310
FFFFFFFFFF00FFFFFFFFFFFFFFFFFFFFFFFF0000FFFFFF0000000000FFFF00000000FFFFFF0000000000000000000000000000FFFFFFFF00FFFFFFFFFFFF00FFFF00FFFFFFFFFFFF00FFFFFFFFFFFFFFFFFFFFFFFFFFFF00FFFFFFFFFFFF00FFFFFF00FFFFFFFFFF00FFFFFFFFFFFFFFFFFFFFFFFFFFFF0000000000000000
310
FFFFFF00000000000000FFFFFFFFFFFFFFFFFFFFFFFFFFFFFFFFFFFFFFFFFFFFFFFFFFFFFFFFFFFFFFFFFFFFFFFFFFFFFFFFFFFFFFFFFFFFFFFFFFFFFFFFFFFFFFFFFFFFFFFFFFFFFFFFFFFFFFFFFFFFFFFFFFFFFFFFFFFFFFFFFFFFFFFFFFFFFFFFFFFFFFFFFFFFFFFFFFFFFFFFFFFFFFFFFFFFFFFFFFFFFFFFFFFFFFFFFF
310
FFFFFFFFFFFFFFFFFFFFFFFFFFFFFFFFFFFFFFFFFFFFFFFFFFFFFFFFFFFFFFFFFFFFFFFFFFFFFFFFFFFFFFFFFFFFFFFFFFFFFFFFFFFFFFFF
102
{BLKREFS
331
33F0
331
33F4
102
}
  0
BLOCK_RECORD
  5
3401
330
313E
100
AcDbSymbolTableRecord
100
AcDbBlockTableRecord
  2
Harmonic Drive LLC
340
0
310
2800000020000000200000000100080000000000000400000000000000000000000000000000000000000000000080000080000000808000800000008000800080800000C0C0C000C0DCC000F0CAA6000020400000206000002080000020A0000020C0000020E00000400000004020000040400000406000004080000040A0
310
000040C0000040E00000600000006020000060400000606000006080000060A0000060C0000060E00000800000008020000080400000806000008080000080A0000080C0000080E00000A0000000A0200000A0400000A0600000A0800000A0A00000A0C00000A0E00000C0000000C0200000C0400000C0600000C0800000C0
310
A00000C0C00000C0E00000E0000000E0200000E0400000E0600000E0800000E0A00000E0C00000E0E00040000000400020004000400040006000400080004000A0004000C0004000E00040200000402020004020400040206000402080004020A0004020C0004020E000404000004040200040404000404060004040800040
310
40A0004040C0004040E00040600000406020004060400040606000406080004060A0004060C0004060E00040800000408020004080400040806000408080004080A0004080C0004080E00040A0000040A0200040A0400040A0600040A0800040A0A00040A0C00040A0E00040C0000040C0200040C0400040C0600040C08000
310
40C0A00040C0C00040C0E00040E0000040E0200040E0400040E0600040E0800040E0A00040E0C00040E0E00080000000800020008000400080006000800080008000A0008000C0008000E00080200000802020008020400080206000802080008020A0008020C0008020E00080400000804020008040400080406000804080
310
008040A0008040C0008040E00080600000806020008060400080606000806080008060A0008060C0008060E00080800000808020008080400080806000808080008080A0008080C0008080E00080A0000080A0200080A0400080A0600080A0800080A0A00080A0C00080A0E00080C0000080C0200080C0400080C0600080C0
310
800080C0A00080C0C00080C0E00080E0000080E0200080E0400080E0600080E0800080E0A00080E0C00080E0E000C0000000C0002000C0004000C0006000C0008000C000A000C000C000C000E000C0200000C0202000C0204000C0206000C0208000C020A000C020C000C020E000C0400000C0402000C0404000C0406000C0
310
408000C040A000C040C000C040E000C0600000C0602000C0604000C0606000C0608000C060A000C060C000C060E000C0800000C0802000C0804000C0806000C0808000C080A000C080C000C080E000C0A00000C0A02000C0A04000C0A06000C0A08000C0A0A000C0A0C000C0A0E000C0C00000C0C02000C0C04000C0C06000
310
C0C08000C0C0A000F0FBFF00A4A0A000808080000000FF0000FF000000FFFF00FF000000FF00FF00FFFF0000FFFFFF00FFFFFFFFFFFFFFFFFFFFFFFFFFFFFFFFFFFFFFFFFFFFFFFFFFFFFFFFFFFFFFFFFFFFFFFFFFFFFFFFFFFFFFFFFFFFFFFFFFFFFFFFFFFFFFFFFFFFFFFFFFFFFFFFFFFFFFFFFFFFFFFFFFFFFFFFFFFFFF
310
FFFFFFFFFFFFFFFFFFFFFFFFFFFFFFFFFFFFFFFFFFFFFFFFFFFFFFFFFFFFFFFFFFFFFFFFFFFFFFFFFFFFFFFFFFFFFFFFFFFFFFFFFFFFFFFFFFFFFFFFFFFFFFFFFFFFFFFFFFFFFFFFFFFFFFFFFFFFFFFFFFFFFFFFFFFFFFFFFFFFFFFFFFFFFFFFFFFFFFFFFFFFFFFFFFFFFFFFFFFFFFFFFFFFFFFFFFFFFFFFFFFFFFFFFFFFFF
310
FFFFFFFFFFFFFFFFFFFFFFFFFFFFFFFFFFFFFFFFFFFFFFFFFFFFFFFFFFFFFFFFFFFFFFFFFFFFFFFFFFFFFFFFFFFFFFFFFFFFFFFFFFFFFFFFFFFFFFFFFFFFFFFFFFFFFFFFFFFFFFFFFFFFFFFFFFFFFFFFFFFFFFFFFFFFFFFFFFFFFFFFFFFFFFFFFFFFFFFFFFFFFFFFFFFFFFFFFFFFFFFFFFFFFFFFFFFFFFFFFFFFFFFFFFFFFF
310
FFFFFFFFFFFFFFFFFFFFFFFFFFFFFFFFFFFFFFFFFFFFFFFFFFFFFFFFFFFFFFFFFFFFFFFFFFFFFFFFFFFFFFFFFFFFFFFFFFFFFFFFFFFFFFFFFFFFFFFFFFFFFFFFFFFFFFFFFFFFFFFFFFFFFFFFFFFFFFFFFFFFFFFFFFFFFF000000000000000000000000000000000000000000000000FFFFFFFFFFFFFFFF0000000000000000
310
00000000000000000000000000000000FFFFFFFFFFFFFFFFFFFFFFFF00000000FF00000000FF000000000000FFFFFFFFFFFFFFFFFFFFFFFFFFFFFFFF00000000000000000000000000000000FFFFFFFFFFFFFFFFFFFFFFFFFF00000000000000000000FF000000000000FF00000000FFFFFFFFFFFFFFFFFFFF000000000000
310
00000000FF000000000000FF00000000FFFFFFFFFFFFFFFFFFFFFFFFFFFFFFFFFFFFFFFFFFFFFFFFFFFFFFFFFFFFFFFFFFFFFFFFFFFFFFFFFFFFFFFFFFFFFFFFFFFFFFFFFFFFFFFFFFFFFFFFFFFFFFFFFFFFFFFFFFFFFFFFFFFFFFFFFFFFFFFFFFFFFFFFFFFFFFFFFFFFFFFFFFFFFFFFFFFFFFFFFFFFFFFFFFFFFFFFFFFFFF
310
FFFFFFFFFFFFFFFFFFFFFFFFFFFFFFFFFFFFFFFFFFFFFFFFFFFFFFFFFFFFFFFFFFFFFFFFFFFFFFFFFFFFFFFFFFFFFFFFFFFFFFFFFFFFFFFFFFFFFFFFFFFFFFFFFFFFFFFFFFFFFFFFFFFFFFFFFFFFFFFFFFFFFFFFFFFFFFFFFFFFFFFFFFFFFFFFFFFFFFFFFFFFFFFFFFFFFFFFFFFFFFFFFFFFFFFFFFFFFFFFFFFFFFFFFFFFFF
310
FFFFFFFFFFFFFFFFFFFFFFFFFFFFFFFFFFFFFFFFFFFFFFFFFFFFFFFFFFFFFFFFFFFFFFFFFFFFFFFFFFFFFFFFFFFFFFFFFFFFFFFFFFFFFFFFFFFFFFFFFFFFFFFFFFFFFFFFFFFFFFFFFFFFFFFFFFFFFFFFFFFFFFFFFFFFFFFFFFFFFFFFFFFFFFFFFFFFFFFFFFFFFFFFFFFFFFFFFFFFFFFFFFFFFFFFFFFFFFFFFFFFFFFFFFFFFF
310
FFFFFFFFFFFFFFFFFFFFFFFFFFFFFFFFFFFFFFFFFFFFFFFFFFFFFFFFFFFFFFFFFFFFFFFFFFFFFFFFFFFFFFFFFFFFFFFFFFFFFFFFFFFFFFFF
102
{BLKREFS
331
3406
331
340A
102
}
  0
BLOCK_RECORD
  5
3412
330
313E
100
AcDbSymbolTableRecord
100
AcDbBlockTableRecord
  2
NTC
340
0
310
2800000020000000200000000100080000000000000400000000000000000000000000000000000000000000000080000080000000808000800000008000800080800000C0C0C000C0DCC000F0CAA6000020400000206000002080000020A0000020C0000020E00000400000004020000040400000406000004080000040A0
310
000040C0000040E00000600000006020000060400000606000006080000060A0000060C0000060E00000800000008020000080400000806000008080000080A0000080C0000080E00000A0000000A0200000A0400000A0600000A0800000A0A00000A0C00000A0E00000C0000000C0200000C0400000C0600000C0800000C0
310
A00000C0C00000C0E00000E0000000E0200000E0400000E0600000E0800000E0A00000E0C00000E0E00040000000400020004000400040006000400080004000A0004000C0004000E00040200000402020004020400040206000402080004020A0004020C0004020E000404000004040200040404000404060004040800040
310
40A0004040C0004040E00040600000406020004060400040606000406080004060A0004060C0004060E00040800000408020004080400040806000408080004080A0004080C0004080E00040A0000040A0200040A0400040A0600040A0800040A0A00040A0C00040A0E00040C0000040C0200040C0400040C0600040C08000
310
40C0A00040C0C00040C0E00040E0000040E0200040E0400040E0600040E0800040E0A00040E0C00040E0E00080000000800020008000400080006000800080008000A0008000C0008000E00080200000802020008020400080206000802080008020A0008020C0008020E00080400000804020008040400080406000804080
310
008040A0008040C0008040E00080600000806020008060400080606000806080008060A0008060C0008060E00080800000808020008080400080806000808080008080A0008080C0008080E00080A0000080A0200080A0400080A0600080A0800080A0A00080A0C00080A0E00080C0000080C0200080C0400080C0600080C0
310
800080C0A00080C0C00080C0E00080E0000080E0200080E0400080E0600080E0800080E0A00080E0C00080E0E000C0000000C0002000C0004000C0006000C0008000C000A000C000C000C000E000C0200000C0202000C0204000C0206000C0208000C020A000C020C000C020E000C0400000C0402000C0404000C0406000C0
310
408000C040A000C040C000C040E000C0600000C0602000C0604000C0606000C0608000C060A000C060C000C060E000C0800000C0802000C0804000C0806000C0808000C080A000C080C000C080E000C0A00000C0A02000C0A04000C0A06000C0A08000C0A0A000C0A0C000C0A0E000C0C00000C0C02000C0C04000C0C06000
310
C0C08000C0C0A000F0FBFF00A4A0A000808080000000FF0000FF000000FFFF00FF000000FF00FF00FFFF0000FFFFFF00FFFFFFFFFFFFFFFFFFFFFFFFFFFFFFFFFFFFFFFFFFFFFFFFFFFFFFFFFFFFFFFFFFFFFFFFFFFFFFFFFFFFFFFFFFFFFFFFFFFFFFFFFFFFFFFFFFFFFFFFFFFFFFFFFFFFFFFFFFFFFFFFFFFFFFFFFFFFFF
310
FFFFFFFFFFFFFFFFFFFFFFFFFFFFFFFFFFFFFFFFFFFFFFFFFFFFFFFFFFFFFFFFFFFFFFFFFFFFFFFFFFFFFFFFFFFFFFFFFFFFFFFFFFFFFFFFFFFFFFFFFFFFFFFFFFFFFFFFFFFFFFFFFFFFFFFFFFFFFFFFFFFFFFFFFFFFFFFFFFFFFFFFFFFFFFFFFFFFFFFFFFFFFFFFFFFFFFFFFFFFFFFFFFFFFFFFFFFFFFFFFFFFFFFFFFFFFF
310
FFFFFFFFFFFFFFFFFFFFFFFFFFFFFFFFFFFFFFFFFFFFFFFFFFFFFFFFFFFFFFFFFFFFFFFFFFFFFFFFFFFFFFFFFFFFFFFFFFFFFFFFFFFFFFFFFFFFFFFFFFFFFFFFFFFFFFFFFFFFFFFFFFFFFFFFFFFFFFFFFFFFFFFFFFFFFFFFFFFFFFFFFFFFFFFFFFFFFFFFFFFFFFFFFFFFFFFFFFFFFFFFFFFFFFFFFFFFFFFFFFFFFFFFFFFFFF
310
FFFFFFFFFFFFFFFFFFFFFFFFFFFFFFFFFFFFFFFF000000000000000000000000000000000000000000000000000000000000FFFF00FF0000000000000000FFFFFFFFFFFFFFFFFFFFFFFFFFFFFFFFFFFFFF00FFFF00FF0000000000000000FFFFFFFFFFFFFFFFFFFFFFFFFFFFFFFFFFFFFF00FFFF00FF000000000000000000
310
00000000000000000000000000FFFFFFFFFF00FFFF00FF0000000000000000000000000000000000000000000000000000FF00FFFF00FF0000000000000000000000000000000000000000000000000000FF00FFFF00FF0000000000000000000000000000000000000000000000000000FF00FFFF00FF0000000000000000
310
00000000000000000000000000000000FFFFFF00FFFF00FF0000000000FFFFFFFFFFFFFFFFFFFFFFFFFFFFFFFFFFFFFFFFFFFF00FFFF000000000000000000000000000000000000000000000000000000000000FFFFFFFFFFFFFFFFFFFFFFFFFFFFFFFFFFFFFFFFFFFFFFFFFFFFFFFFFFFFFFFFFFFFFFFFFFFFFFFFFFFFFF
310
FFFFFFFFFFFFFFFFFFFFFFFFFFFFFFFFFFFFFFFFFFFFFFFFFFFFFFFFFFFFFFFFFFFFFFFFFFFFFFFFFFFFFFFFFFFFFFFFFFFFFFFFFFFFFFFFFFFFFFFFFFFFFFFFFFFFFFFFFFFFFFFFFFFFFFFFFFFFFFFFFFFFFFFFFFFFFFFFFFFFFFFFFFFFFFFFFFFFFFFFFFFFFFFFFFFFFFFFFFFFFFFFFFFFFFFFFFFFFFFFFFFFFFFFFFFFFF
310
FFFFFFFFFFFFFFFFFFFFFFFFFFFFFFFFFFFFFFFFFFFFFFFFFFFFFFFFFFFFFFFFFFFFFFFFFFFFFFFFFFFFFFFFFFFFFFFFFFFFFFFFFFFFFFFFFFFFFFFFFFFFFFFFFFFFFFFFFFFFFFFFFFFFFFFFFFFFFFFFFFFFFFFFFFFFFFFFFFFFFFFFFFFFFFFFFFFFFFFFFFFFFFFFFFFFFFFFFFFFFFFFFFFFFFFFFFFFFFFFFFFFFFFFFFFFFF
310
FFFFFFFFFFFFFFFFFFFFFFFFFFFFFFFFFFFFFFFFFFFFFFFFFFFFFFFFFFFFFFFFFFFFFFFFFFFFFFFFFFFFFFFFFFFFFFFFFFFFFFFFFFFFFFFF
102
{BLKREFS
331
3418
331
341E
102
}
  0
ENDTAB
  0
ENDSEC
  0
SECTION
  2
BLOCKS
  0
BLOCK
  5
315C
330
315B
100
AcDbEntity
  8
0
100
AcDbBlockBegin
  2
*Model_Space
 70
     0
 10
0.0
 20
0.0
 30
0.0
  3
*Model_Space
  1

  0
ENDBLK
  5
315D
330
315B
100
AcDbEntity
  8
0
100
AcDbBlockEnd
  0
BLOCK
  5
3158
330
3157
100
AcDbEntity
 67
     1
  8
0
100
AcDbBlockBegin
  2
*Paper_Space
 70
     0
 10
0.0
 20
0.0
 30
0.0
  3
*Paper_Space
  1

  0
ENDBLK
  5
3159
330
3157
100
AcDbEntity
 67
     1
  8
0
100
AcDbBlockEnd
  0
BLOCK
  5
3176
330
3175
100
AcDbEntity
  8
0
100
AcDbBlockBegin
  2
$MODEL_SPACE
 70
     0
 10
0.0
 20
0.0
 30
0.0
  3
$MODEL_SPACE
  1

  0
ENDBLK
  5
3177
330
3175
100
AcDbEntity
  8
0
100
AcDbBlockEnd
  0
BLOCK
  5
3179
330
3178
100
AcDbEntity
  8
0
100
AcDbBlockBegin
  2
$PAPER_SPACE
 70
     0
 10
0.0
 20
0.0
 30
0.0
  3
$PAPER_SPACE
  1

  0
ENDBLK
  5
317A
330
3178
100
AcDbEntity
  8
0
100
AcDbBlockEnd
  0
BLOCK
  5
3384
330
3381
100
AcDbEntity
  8
0
 62
     7
100
AcDbBlockBegin
  2
AI9-BLK14
 70
     0
 10
0.0
 20
0.0
 30
0.0
  3
AI9-BLK14
  1

  0
SPLINE
  5
3382
330
3381
100
AcDbEntity
  8
LAYER_1
 62
     7
100
AcDbSpline
210
0.0
220
0.0
230
1.0
 70
    11
 71
     3
 72
    23
 73
    19
 74
     0
 42
0.0000000001
 43
0.0000000001
 40
0.0
 40
0.0
 40
0.0
 40
0.0
 40
1.0
 40
1.0
 40
1.0
 40
2.0
 40
2.0
 40
2.0
 40
3.0
 40
3.0
 40
3.0
 40
4.0
 40
4.0
 40
4.0
 40
5.0
 40
5.0
 40
5.0
 40
6.0
 40
6.0
 40
6.0
 40
6.0
 10
-10.90321044921874
 20
10.88107571072048
 30
0.0
 10
-10.90321044921874
 20
10.88107571072048
 30
0.0
 10
-10.90321044921874
 20
-10.88107571072048
 30
0.0
 10
-10.90321044921874
 20
-10.88107571072048
 30
0.0
 10
-10.90321044921874
 20
-10.88107571072048
 30
0.0
 10
1.752692328559025
 20
-10.88107571072048
 30
0.0
 10
1.752692328559025
 20
-10.88107571072048
 30
0.0
 10
3.280592176649305
 20
-10.88107571072048
 30
0.0
 10
10.90321044921874
 20
-10.32383151584201
 30
0.0
 10
10.90321044921874
 20
0.6792867024739583
 30
0.0
 10
10.90321044921874
 20
10.61700914171006
 30
0.0
 10
2.773129611545138
 20
10.87952541775172
 30
0.0
 10
2.691136338975693
 20
10.88090345594618
 30
0.0
 10
2.691136338975693
 20
10.88090345594618
 30
0.0
 10
-9.903099229600693
 20
10.88107571072048
 30
0.0
 10
-9.903099229600693
 20
10.88107571072048
 30
0.0
 10
-9.903099229600693
 20
10.88107571072048
 30
0.0
 10
-10.90321044921874
 20
10.88107571072048
 30
0.0
 10
-10.90321044921874
 20
10.88107571072048
 30
0.0
  0
SPLINE
  5
3383
330
3381
100
AcDbEntity
  8
LAYER_1
 62
     7
100
AcDbSpline
210
0.0
220
0.0
230
1.0
 70
    11
 71
     3
 72
    20
 73
    16
 74
     0
 42
0.0000000001
 43
0.0000000001
 40
0.0
 40
0.0
 40
0.0
 40
0.0
 40
1.0
 40
1.0
 40
1.0
 40
2.0
 40
2.0
 40
2.0
 40
3.0
 40
3.0
 40
3.0
 40
4.0
 40
4.0
 40
4.0
 40
5.0
 40
5.0
 40
5.0
 40
5.0
 10
2.672877332899305
 20
8.881197781032986
 30
0.0
 10
2.905421278211805
 20
8.874307590060762
 30
0.0
 10
8.902988009982637
 20
8.616442192925347
 30
0.0
 10
8.902988009982637
 20
0.6792867024739583
 30
0.0
 10
8.902988009982637
 20
-8.191661919487842
 30
0.0
 10
3.430109320746526
 20
-8.881197781032986
 30
0.0
 10
1.752692328559025
 20
-8.881197781032986
 30
0.0
 10
1.752692328559025
 20
-8.881197781032986
 30
0.0
 10
-7.231427680121528
 20
-8.881197781032986
 30
0.0
 10
-8.902988009982637
 20
-8.881197781032986
 30
0.0
 10
-8.902988009982637
 20
-7.174497477213541
 30
0.0
 10
-8.902988009982637
 20
7.174497477213541
 30
0.0
 10
-8.902988009982637
 20
8.881197781032986
 30
0.0
 10
-7.208690049913191
 20
8.881197781032986
 30
0.0
 10
2.672877332899305
 20
8.881197781032986
 30
0.0
 10
2.672877332899305
 20
8.881197781032986
 30
0.0
  0
ENDBLK
  5
3385
330
3381
100
AcDbEntity
  8
0
100
AcDbBlockEnd
  0
BLOCK
  5
3389
330
3386
100
AcDbEntity
  8
0
 62
     7
100
AcDbBlockBegin
  2
AI9-BLK13
 70
     0
 10
0.0
 20
0.0
 30
0.0
  3
AI9-BLK13
  1

  0
LWPOLYLINE
  5
3387
330
3386
100
AcDbEntity
  8
LAYER_1
 62
     7
100
AcDbPolyline
 90
       12
 70
     1
 43
0.0
 10
-3.792361111111107
 20
10.7376736111111
 10
-2.469444444444443
 20
10.7376736111111
 10
-2.469444444444443
 20
1.874131944444444
 10
2.469444444444443
 20
1.874131944444444
 10
2.469444444444443
 20
10.7376736111111
 10
3.792361111111107
 20
10.7376736111111
 10
3.792361111111107
 20
-10.7376736111111
 10
2.469444444444443
 20
-10.7376736111111
 10
2.469444444444443
 20
-0.6835069444444444
 10
-2.469444444444443
 20
-0.6835069444444444
 10
-2.469444444444443
 20
-10.7376736111111
 10
-3.792361111111107
 20
-10.7376736111111
  0
HATCH
  5
3388
330
3386
100
AcDbEntity
  8
LAYER_1
 62
     7
100
AcDbHatch
 10
0.0
 20
0.0
 30
0.0
210
0.0
220
0.0
230
1.0
  2
SOLID
 70
     1
 71
     0
 91
        1
 92
        3
 72
     0
 73
     1
 93
       12
 10
-3.792361111111107
 20
10.7376736111111
 10
-2.469444444444443
 20
10.7376736111111
 10
-2.469444444444443
 20
1.874131944444444
 10
2.469444444444443
 20
1.874131944444444
 10
2.469444444444443
 20
10.7376736111111
 10
3.792361111111107
 20
10.7376736111111
 10
3.792361111111107
 20
-10.7376736111111
 10
2.469444444444443
 20
-10.7376736111111
 10
2.469444444444443
 20
-0.6835069444444444
 10
-2.469444444444443
 20
-0.6835069444444444
 10
-2.469444444444443
 20
-10.7376736111111
 10
-3.792361111111107
 20
-10.7376736111111
 97
        0
 75
     2
 76
     1
 98
        1
 10
0.0
 20
0.0
  0
ENDBLK
  5
338A
330
3386
100
AcDbEntity
  8
0
100
AcDbBlockEnd
  0
BLOCK
  5
338E
330
338B
100
AcDbEntity
  8
0
 62
     7
100
AcDbBlockBegin
  2
AI9-BLK11
 70
     0
 10
0.0
 20
0.0
 30
0.0
  3
AI9-BLK11
  1

  0
SPLINE
  5
338C
330
338B
100
AcDbEntity
  8
LAYER_1
 62
     7
100
AcDbSpline
210
0.0
220
0.0
230
1.0
 70
    11
 71
     3
 72
    26
 73
    22
 74
     0
 42
0.0000000001
 43
0.0000000001
 40
0.0
 40
0.0
 40
0.0
 40
0.0
 40
1.0
 40
1.0
 40
1.0
 40
2.0
 40
2.0
 40
2.0
 40
3.0
 40
3.0
 40
3.0
 40
4.0
 40
4.0
 40
4.0
 40
5.0
 40
5.0
 40
5.0
 40
6.0
 40
6.0
 40
6.0
 40
7.0
 40
7.0
 40
7.0
 40
7.0
 10
-2.645833333333333
 20
0.9039930555555551
 30
0.0
 10
-2.645833333333333
 20
0.9039930555555551
 30
0.0
 10
-2.645833333333333
 20
8.180034722222217
 30
0.0
 10
-2.645833333333333
 20
8.180034722222217
 30
0.0
 10
-2.645833333333333
 20
8.180034722222217
 30
0.0
 10
0.465087890625
 20
8.180034722222217
 30
0.0
 10
0.465087890625
 20
8.180034722222217
 30
0.0
 10
0.9026150173611108
 20
8.180034722222217
 30
0.0
 10
1.24988064236111
 20
8.034651692708331
 30
0.0
 10
1.506884765625
 20
7.745263671874997
 30
0.0
 10
2.001600477430554
 20
7.194048394097221
 30
0.0
 10
2.248958333333332
 20
6.160519748263887
 30
0.0
 10
2.248958333333332
 20
4.643299696180553
 30
0.0
 10
2.248958333333332
 20
3.232188585069443
 30
0.0
 10
2.072569444444444
 20
2.256537543402775
 30
0.0
 10
1.720480685763888
 20
1.715657552083333
 30
0.0
 10
1.368391927083333
 20
1.174088541666665
 30
0.0
 10
0.8929687499999998
 20
0.9039930555555551
 30
0.0
 10
0.2942111545138888
 20
0.9039930555555551
 30
0.0
 10
0.2942111545138888
 20
0.9039930555555551
 30
0.0
 10
-2.645833333333333
 20
0.9039930555555551
 30
0.0
 10
-2.645833333333333
 20
0.9039930555555551
 30
0.0
  0
SPLINE
  5
338D
330
338B
100
AcDbEntity
  8
LAYER_1
 62
     7
100
AcDbSpline
210
0.0
220
0.0
230
1.0
 70
    11
 71
     3
 72
    68
 73
    64
 74
     0
 42
0.0000000001
 43
0.0000000001
 40
0.0
 40
0.0
 40
0.0
 40
0.0
 40
1.0
 40
1.0
 40
1.0
 40
2.0
 40
2.0
 40
2.0
 40
3.0
 40
3.0
 40
3.0
 40
4.0
 40
4.0
 40
4.0
 40
5.0
 40
5.0
 40
5.0
 40
6.0
 40
6.0
 40
6.0
 40
7.0
 40
7.0
 40
7.0
 40
8.0
 40
8.0
 40
8.0
 40
9.0
 40
9.0
 40
9.0
 40
10.0
 40
10.0
 40
10.0
 40
11.0
 40
11.0
 40
11.0
 40
12.0
 40
12.0
 40
12.0
 40
13.0
 40
13.0
 40
13.0
 40
14.0
 40
14.0
 40
14.0
 40
15.0
 40
15.0
 40
15.0
 40
16.0
 40
16.0
 40
16.0
 40
17.0
 40
17.0
 40
17.0
 40
18.0
 40
18.0
 40
18.0
 40
19.0
 40
19.0
 40
19.0
 40
20.0
 40
20.0
 40
20.0
 40
21.0
 40
21.0
 40
21.0
 40
21.0
 10
-3.968749999999998
 20
-10.7376736111111
 30
0.0
 10
-3.968749999999998
 20
-10.7376736111111
 30
0.0
 10
-2.645833333333333
 20
-10.7376736111111
 30
0.0
 10
-2.645833333333333
 20
-10.7376736111111
 30
0.0
 10
-2.645833333333333
 20
-10.7376736111111
 30
0.0
 10
-2.645833333333333
 20
-1.521354166666665
 30
0.0
 10
-2.645833333333333
 20
-1.521354166666665
 30
0.0
 10
-2.645833333333333
 20
-1.521354166666665
 30
0.0
 10
0.2390896267361111
 20
-1.521354166666665
 30
0.0
 10
0.2390896267361111
 20
-1.521354166666665
 30
0.0
 10
0.7599880642361111
 20
-1.521354166666665
 30
0.0
 10
1.143771701388887
 20
-1.65295681423611
 30
0.0
 10
1.390440538194444
 20
-1.916162109374999
 30
0.0
 10
1.816254340277773
 20
-2.39434136284722
 30
0.0
 10
2.04363064236111
 20
-3.335541449652775
 30
0.0
 10
2.072569444444444
 20
-4.739762369791666
 30
0.0
 10
2.072569444444444
 20
-4.739762369791666
 30
0.0
 10
2.160763888888888
 20
-8.324039713541665
 30
0.0
 10
2.160763888888888
 20
-8.324039713541665
 30
0.0
 10
2.18005642361111
 20
-9.163264973958332
 30
0.0
 10
2.202794053819443
 20
-9.728949652777775
 30
0.0
 10
2.227598741319444
 20
-10.02109374999998
 30
0.0
 10
2.252403428819443
 20
-10.31392686631944
 30
0.0
 10
2.28892144097222
 20
-10.55301649305555
 30
0.0
 10
2.33853081597222
 20
-10.7376736111111
 30
0.0
 10
2.33853081597222
 20
-10.7376736111111
 30
0.0
 10
3.968749999999998
 20
-10.7376736111111
 30
0.0
 10
3.968749999999998
 20
-10.7376736111111
 30
0.0
 10
3.968749999999998
 20
-10.7376736111111
 30
0.0
 10
3.968749999999998
 20
-10.25260416666666
 30
0.0
 10
3.968749999999998
 20
-10.25260416666666
 30
0.0
 10
3.766867404513888
 20
-10.05830078125
 30
0.0
 10
3.625618489583333
 20
-9.621462673611112
 30
0.0
 10
3.545692274305555
 20
-8.942089843749997
 30
0.0
 10
3.49470486111111
 20
-8.543836805555555
 30
0.0
 10
3.459564887152775
 20
-7.937499999999999
 30
0.0
 10
3.439583333333333
 20
-7.121701388888887
 30
0.0
 10
3.439583333333333
 20
-7.121701388888887
 30
0.0
 10
3.395486111111106
 20
-4.232644314236106
 30
0.0
 10
3.395486111111106
 20
-4.232644314236106
 30
0.0
 10
3.375504557291666
 20
-2.981385633680555
 30
0.0
 10
3.26870659722222
 20
-2.077392578125
 30
0.0
 10
3.075781249999999
 20
-1.522043185763888
 30
0.0
 10
2.882166883680555
 20
-0.9666937934027776
 30
0.0
 10
2.592089843749999
 20
-0.5188313802083333
 30
0.0
 10
2.204861111111104
 20
-0.1770779079861111
 30
0.0
 10
2.63618706597222
 20
0.3197048611111111
 30
0.0
 10
2.971739366319443
 20
0.9770290798611107
 30
0.0
 10
3.211518012152775
 20
1.79558376736111
 30
0.0
 10
3.451296657986107
 20
2.613449435763888
 30
0.0
 10
3.571874999999999
 20
3.66558159722222
 30
0.0
 10
3.571874999999999
 20
4.951291232638888
 30
0.0
 10
3.571874999999999
 20
7.415912543402777
 30
0.0
 10
3.124701605902775
 20
9.106076388888887
 30
0.0
 10
2.231043836805555
 20
10.02178276909722
 30
0.0
 10
1.759754774305553
 20
10.498583984375
 30
0.0
 10
1.163753255208332
 20
10.7376736111111
 30
0.0
 10
0.443039279513889
 20
10.7376736111111
 30
0.0
 10
0.443039279513889
 20
10.7376736111111
 30
0.0
 10
-3.968749999999998
 20
10.7376736111111
 30
0.0
 10
-3.968749999999998
 20
10.7376736111111
 30
0.0
 10
-3.968749999999998
 20
10.7376736111111
 30
0.0
 10
-3.968749999999998
 20
-10.7376736111111
 30
0.0
 10
-3.968749999999998
 20
-10.7376736111111
 30
0.0
  0
ENDBLK
  5
338F
330
338B
100
AcDbEntity
  8
0
100
AcDbBlockEnd
  0
BLOCK
  5
3392
330
3390
100
AcDbEntity
  8
0
 62
     7
100
AcDbBlockBegin
  2
AI9-BLK10
 70
     0
 10
0.0
 20
0.0
 30
0.0
  3
AI9-BLK10
  1

  0
SPLINE
  5
3391
330
3390
100
AcDbEntity
  8
LAYER_1
 62
     7
100
AcDbSpline
210
0.0
220
0.0
230
1.0
 70
    11
 71
     3
 72
    59
 73
    55
 74
     0
 42
0.0000000001
 43
0.0000000001
 40
0.0
 40
0.0
 40
0.0
 40
0.0
 40
1.0
 40
1.0
 40
1.0
 40
2.0
 40
2.0
 40
2.0
 40
3.0
 40
3.0
 40
3.0
 40
4.0
 40
4.0
 40
4.0
 40
5.0
 40
5.0
 40
5.0
 40
6.0
 40
6.0
 40
6.0
 40
7.0
 40
7.0
 40
7.0
 40
8.0
 40
8.0
 40
8.0
 40
9.0
 40
9.0
 40
9.0
 40
10.0
 40
10.0
 40
10.0
 40
11.0
 40
11.0
 40
11.0
 40
12.0
 40
12.0
 40
12.0
 40
13.0
 40
13.0
 40
13.0
 40
14.0
 40
14.0
 40
14.0
 40
15.0
 40
15.0
 40
15.0
 40
16.0
 40
16.0
 40
16.0
 40
17.0
 40
17.0
 40
17.0
 40
18.0
 40
18.0
 40
18.0
 40
18.0
 10
-4.652256944444443
 20
10.7376736111111
 30
0.0
 10
-4.652256944444443
 20
10.7376736111111
 30
0.0
 10
-2.798795572916666
 20
10.7376736111111
 30
0.0
 10
-2.798795572916666
 20
10.7376736111111
 30
0.0
 10
-2.798795572916666
 20
10.7376736111111
 30
0.0
 10
0.0
 20
-7.419357638888887
 30
0.0
 10
0.0
 20
-7.419357638888887
 30
0.0
 10
0.0
 20
-7.419357638888887
 30
0.0
 10
2.793283420138888
 20
10.7376736111111
 30
0.0
 10
2.793283420138888
 20
10.7376736111111
 30
0.0
 10
2.793283420138888
 20
10.7376736111111
 30
0.0
 10
4.652256944444443
 20
10.7376736111111
 30
0.0
 10
4.652256944444443
 20
10.7376736111111
 30
0.0
 10
4.652256944444443
 20
10.7376736111111
 30
0.0
 10
4.652256944444443
 20
-10.7376736111111
 30
0.0
 10
4.652256944444443
 20
-10.7376736111111
 30
0.0
 10
4.652256944444443
 20
-10.7376736111111
 30
0.0
 10
3.41753472222222
 20
-10.7376736111111
 30
0.0
 10
3.41753472222222
 20
-10.7376736111111
 30
0.0
 10
3.41753472222222
 20
-10.7376736111111
 30
0.0
 10
3.41753472222222
 20
1.936832682291665
 30
0.0
 10
3.41753472222222
 20
1.936832682291665
 30
0.0
 10
3.41753472222222
 20
2.375048828124999
 30
0.0
 10
3.424424913194443
 20
3.101274956597221
 30
0.0
 10
3.439583333333333
 20
4.11482204861111
 30
0.0
 10
3.454052734374998
 20
5.128369140624998
 30
0.0
 10
3.461631944444443
 20
6.214952256944441
 30
0.0
 10
3.461631944444443
 20
7.375260416666666
 30
0.0
 10
3.461631944444443
 20
7.375260416666666
 30
0.0
 10
0.6538791232638889
 20
-10.7376736111111
 30
0.0
 10
0.6538791232638889
 20
-10.7376736111111
 30
0.0
 10
0.6538791232638889
 20
-10.7376736111111
 30
0.0
 10
-0.6628363715277778
 20
-10.7376736111111
 30
0.0
 10
-0.6628363715277778
 20
-10.7376736111111
 30
0.0
 10
-0.6628363715277778
 20
-10.7376736111111
 30
0.0
 10
-3.461631944444443
 20
7.375260416666666
 30
0.0
 10
-3.461631944444443
 20
7.375260416666666
 30
0.0
 10
-3.461631944444443
 20
7.375260416666666
 30
0.0
 10
-3.461631944444443
 20
6.717247178819441
 30
0.0
 10
-3.461631944444443
 20
6.717247178819441
 30
0.0
 10
-3.461631944444443
 20
6.190836588541666
 30
0.0
 10
-3.45474175347222
 20
5.389507378472222
 30
0.0
 10
-3.439583333333333
 20
4.312570529513888
 30
0.0
 10
-3.425113932291666
 20
3.235633680555555
 30
0.0
 10
-3.41753472222222
 20
2.44395073784722
 30
0.0
 10
-3.41753472222222
 20
1.936832682291665
 30
0.0
 10
-3.41753472222222
 20
1.936832682291665
 30
0.0
 10
-3.41753472222222
 20
-10.7376736111111
 30
0.0
 10
-3.41753472222222
 20
-10.7376736111111
 30
0.0
 10
-3.41753472222222
 20
-10.7376736111111
 30
0.0
 10
-4.652256944444443
 20
-10.7376736111111
 30
0.0
 10
-4.652256944444443
 20
-10.7376736111111
 30
0.0
 10
-4.652256944444443
 20
-10.7376736111111
 30
0.0
 10
-4.652256944444443
 20
10.7376736111111
 30
0.0
 10
-4.652256944444443
 20
10.7376736111111
 30
0.0
  0
ENDBLK
  5
3393
330
3390
100
AcDbEntity
  8
0
100
AcDbBlockEnd
  0
BLOCK
  5
3397
330
3394
100
AcDbEntity
  8
0
 62
     7
100
AcDbBlockBegin
  2
AI9-BLK9
 70
     0
 10
0.0
 20
0.0
 30
0.0
  3
AI9-BLK9
  1

  0
SPLINE
  5
3395
330
3394
100
AcDbEntity
  8
LAYER_1
 62
     7
100
AcDbSpline
210
0.0
220
0.0
230
1.0
 70
    11
 71
     3
 72
    29
 73
    25
 74
     0
 42
0.0000000001
 43
0.0000000001
 40
0.0
 40
0.0
 40
0.0
 40
0.0
 40
1.0
 40
1.0
 40
1.0
 40
2.0
 40
2.0
 40
2.0
 40
3.0
 40
3.0
 40
3.0
 40
4.0
 40
4.0
 40
4.0
 40
5.0
 40
5.0
 40
5.0
 40
6.0
 40
6.0
 40
6.0
 40
7.0
 40
7.0
 40
7.0
 40
8.0
 40
8.0
 40
8.0
 40
8.0
 10
0.0668348524305556
 20
-8.753298611111111
 30
0.0
 10
-0.9067491319444444
 20
-8.753298611111111
 30
0.0
 10
-1.60954861111111
 20
-7.936810980902778
 30
0.0
 10
-2.041563585069444
 20
-6.30383572048611
 30
0.0
 10
-2.474267578124999
 20
-4.670860460069443
 30
0.0
 10
-2.689930555555555
 20
-2.664436848958333
 30
0.0
 10
-2.689930555555555
 20
-0.28525390625
 30
0.0
 10
-2.689930555555555
 20
2.68855251736111
 30
0.0
 10
-2.439127604166666
 20
4.938199869791666
 30
0.0
 10
-1.937521701388888
 20
6.464377170138886
 30
0.0
 10
-1.43591579861111
 20
7.989865451388887
 30
0.0
 10
-0.7827256944444444
 20
8.753298611111111
 30
0.0
 10
0.0220486111111111
 20
8.753298611111111
 30
0.0
 10
0.8468044704861108
 20
8.753298611111111
 30
0.0
 10
1.49792751736111
 20
7.982975260416663
 30
0.0
 10
1.974728732638888
 20
6.442328559027776
 30
0.0
 10
2.451529947916665
 20
4.901681857638886
 30
0.0
 10
2.689930555555555
 20
2.868386501736111
 30
0.0
 10
2.689930555555555
 20
0.3438205295138888
 30
0.0
 10
2.689930555555555
 20
-2.045697699652774
 30
0.0
 10
2.483224826388884
 20
-4.15891927083333
 30
0.0
 10
2.071191406249999
 20
-5.996533203124998
 30
0.0
 10
1.65915798611111
 20
-7.834836154513887
 30
0.0
 10
0.9908094618055557
 20
-8.753298611111111
 30
0.0
 10
0.0668348524305556
 20
-8.753298611111111
 30
0.0
  0
SPLINE
  5
3396
330
3394
100
AcDbEntity
  8
LAYER_1
 62
     7
100
AcDbSpline
210
0.0
220
0.0
230
1.0
 70
    11
 71
     3
 72
    29
 73
    25
 74
     0
 42
0.0000000001
 43
0.0000000001
 40
0.0
 40
0.0
 40
0.0
 40
0.0
 40
1.0
 40
1.0
 40
1.0
 40
2.0
 40
2.0
 40
2.0
 40
3.0
 40
3.0
 40
3.0
 40
4.0
 40
4.0
 40
4.0
 40
5.0
 40
5.0
 40
5.0
 40
6.0
 40
6.0
 40
6.0
 40
7.0
 40
7.0
 40
7.0
 40
8.0
 40
8.0
 40
8.0
 40
8.0
 10
-0.0289388020833333
 20
11.35503472222222
 30
0.0
 10
-1.317404513888887
 20
11.35503472222222
 30
0.0
 10
-2.28892144097222
 20
10.02798394097222
 30
0.0
 10
-2.94280056423611
 20
7.374571397569441
 30
0.0
 10
-3.450607638888888
 20
5.30613606770833
 30
0.0
 10
-3.704166666666666
 20
2.81877712673611
 30
0.0
 10
-3.704166666666666
 20
-0.0881944444444445
 30
0.0
 10
-3.704166666666666
 20
-3.307291666666666
 30
0.0
 10
-3.406510416666666
 20
-5.97035047743055
 30
0.0
 10
-2.811197916666666
 20
-8.077370876736106
 30
0.0
 10
-2.147672526041664
 20
-10.26293945312499
 30
0.0
 10
-1.229899088541666
 20
-11.35503472222222
 30
0.0
 10
-0.0585666232638889
 20
-11.35503472222222
 30
0.0
 10
1.20027126736111
 20
-11.35503472222222
 30
0.0
 10
2.166276041666665
 20
-10.10653211805555
 30
0.0
 10
2.840136718749998
 20
-7.609526909722221
 30
0.0
 10
3.416156684027776
 20
-5.483213975694441
 30
0.0
 10
3.704166666666666
 20
-2.814643012152775
 30
0.0
 10
3.704166666666666
 20
0.3948079427083333
 30
0.0
 10
3.704166666666666
 20
3.360346137152776
 30
0.0
 10
3.449918619791666
 20
5.793961588541666
 30
0.0
 10
2.94280056423611
 20
7.696343315972222
 30
0.0
 10
2.298567708333333
 20
10.13547092013888
 30
0.0
 10
1.307758246527777
 20
11.35503472222222
 30
0.0
 10
-0.0289388020833333
 20
11.35503472222222
 30
0.0
  0
ENDBLK
  5
3398
330
3394
100
AcDbEntity
  8
0
100
AcDbBlockEnd
  0
BLOCK
  5
339C
330
3399
100
AcDbEntity
  8
0
 62
     7
100
AcDbBlockBegin
  2
AI9-BLK8
 70
     0
 10
0.0
 20
0.0
 30
0.0
  3
AI9-BLK8
  1

  0
LWPOLYLINE
  5
339A
330
3399
100
AcDbEntity
  8
LAYER_1
 62
     7
100
AcDbPolyline
 90
       10
 70
     1
 43
0.0
 10
-3.792361111111107
 20
10.7376736111111
 10
-2.268939887152773
 20
10.7376736111111
 10
2.557638888888888
 20
-6.505718315972222
 10
2.557638888888888
 20
10.7376736111111
 10
3.792361111111107
 20
10.7376736111111
 10
3.792361111111107
 20
-10.7376736111111
 10
2.32612847222222
 20
-10.7376736111111
 10
-2.557638888888888
 20
6.549815538194441
 10
-2.557638888888888
 20
-10.7376736111111
 10
-3.792361111111107
 20
-10.7376736111111
  0
HATCH
  5
339B
330
3399
100
AcDbEntity
  8
LAYER_1
 62
     7
100
AcDbHatch
 10
0.0
 20
0.0
 30
0.0
210
0.0
220
0.0
230
1.0
  2
SOLID
 70
     1
 71
     0
 91
        1
 92
        3
 72
     0
 73
     1
 93
       10
 10
-3.792361111111107
 20
10.7376736111111
 10
-2.268939887152773
 20
10.7376736111111
 10
2.557638888888888
 20
-6.505718315972222
 10
2.557638888888888
 20
10.7376736111111
 10
3.792361111111107
 20
10.7376736111111
 10
3.792361111111107
 20
-10.7376736111111
 10
2.32612847222222
 20
-10.7376736111111
 10
-2.557638888888888
 20
6.549815538194441
 10
-2.557638888888888
 20
-10.7376736111111
 10
-3.792361111111107
 20
-10.7376736111111
 97
        0
 75
     2
 76
     1
 98
        1
 10
0.0
 20
0.0
  0
ENDBLK
  5
339D
330
3399
100
AcDbEntity
  8
0
100
AcDbBlockEnd
  0
BLOCK
  5
33A1
330
339E
100
AcDbEntity
  8
0
 62
     7
100
AcDbBlockBegin
  2
AI9-BLK7
 70
     0
 10
0.0
 20
0.0
 30
0.0
  3
AI9-BLK7
  1

  0
LWPOLYLINE
  5
339F
330
339E
100
AcDbEntity
  8
LAYER_1
 62
     7
100
AcDbPolyline
 90
        4
 70
     1
 43
0.0
 10
-0.6614583333333333
 20
10.7376736111111
 10
0.6614583333333333
 20
10.7376736111111
 10
0.6614583333333333
 20
-10.7376736111111
 10
-0.6614583333333333
 20
-10.7376736111111
  0
HATCH
  5
33A0
330
339E
100
AcDbEntity
  8
LAYER_1
 62
     7
100
AcDbHatch
 10
0.0
 20
0.0
 30
0.0
210
0.0
220
0.0
230
1.0
  2
SOLID
 70
     1
 71
     0
 91
        1
 92
        3
 72
     0
 73
     1
 93
        4
 10
-0.6614583333333333
 20
10.7376736111111
 10
0.6614583333333333
 20
10.7376736111111
 10
0.6614583333333333
 20
-10.7376736111111
 10
-0.6614583333333333
 20
-10.7376736111111
 97
        0
 75
     2
 76
     1
 98
        1
 10
0.0
 20
0.0
  0
ENDBLK
  5
33A2
330
339E
100
AcDbEntity
  8
0
100
AcDbBlockEnd
  0
BLOCK
  5
33A5
330
33A3
100
AcDbEntity
  8
0
 62
     7
100
AcDbBlockBegin
  2
AI9-BLK6
 70
     0
 10
0.0
 20
0.0
 30
0.0
  3
AI9-BLK6
  1

  0
SPLINE
  5
33A4
330
33A3
100
AcDbEntity
  8
LAYER_1
 62
     7
100
AcDbSpline
210
0.0
220
0.0
230
1.0
 70
    11
 71
     3
 72
    59
 73
    55
 74
     0
 42
0.0000000001
 43
0.0000000001
 40
0.0
 40
0.0
 40
0.0
 40
0.0
 40
1.0
 40
1.0
 40
1.0
 40
2.0
 40
2.0
 40
2.0
 40
3.0
 40
3.0
 40
3.0
 40
4.0
 40
4.0
 40
4.0
 40
5.0
 40
5.0
 40
5.0
 40
6.0
 40
6.0
 40
6.0
 40
7.0
 40
7.0
 40
7.0
 40
8.0
 40
8.0
 40
8.0
 40
9.0
 40
9.0
 40
9.0
 40
10.0
 40
10.0
 40
10.0
 40
11.0
 40
11.0
 40
11.0
 40
12.0
 40
12.0
 40
12.0
 40
13.0
 40
13.0
 40
13.0
 40
14.0
 40
14.0
 40
14.0
 40
15.0
 40
15.0
 40
15.0
 40
16.0
 40
16.0
 40
16.0
 40
17.0
 40
17.0
 40
17.0
 40
18.0
 40
18.0
 40
18.0
 40
18.0
 10
3.062689887152775
 20
9.168088107638887
 30
0.0
 10
3.735172526041666
 20
7.739062499999997
 30
0.0
 10
4.110687934027776
 20
6.116422526041666
 30
0.0
 10
4.189236111111108
 20
4.299479166666666
 30
0.0
 10
4.189236111111108
 20
4.299479166666666
 30
0.0
 10
2.866319444444443
 20
4.299479166666666
 30
0.0
 10
2.866319444444443
 20
4.299479166666666
 30
0.0
 10
2.720936414930555
 20
5.667871093749997
 30
0.0
 10
2.435682508680555
 20
6.752387152777776
 30
0.0
 10
2.009868706597218
 20
7.553027343749997
 30
0.0
 10
1.584054904513888
 20
8.352978515624997
 30
0.0
 10
0.9839192708333332
 20
8.753298611111111
 30
0.0
 10
0.2101508246527778
 20
8.753298611111111
 30
0.0
 10
-0.7386284722222222
 20
8.753298611111111
 30
0.0
 10
-1.503439670138888
 20
8.010536024305555
 30
0.0
 10
-2.083593749999999
 20
6.526388888888886
 30
0.0
 10
-2.664436848958333
 20
5.042241753472221
 30
0.0
 10
-2.954513888888888
 20
2.767100694444443
 30
0.0
 10
-2.954513888888888
 20
-0.2990342881944444
 30
0.0
 10
-2.954513888888888
 20
-2.811197916666666
 30
0.0
 10
-2.693375651041666
 20
-4.847938368055555
 30
0.0
 10
-2.17041015625
 20
-6.409944661458332
 30
0.0
 10
-1.648133680555553
 20
-7.972639973958332
 30
0.0
 10
-0.8640299479166666
 20
-8.753298611111111
 30
0.0
 10
0.1812120225694444
 20
-8.753298611111111
 30
0.0
 10
1.138948567708333
 20
-8.753298611111111
 30
0.0
 10
1.865174696180553
 20
-7.927853732638887
 30
0.0
 10
2.359201388888884
 20
-6.275585937499998
 30
0.0
 10
2.62998589409722
 20
-5.406043836805555
 30
0.0
 10
2.828423394097221
 20
-4.262272135416666
 30
0.0
 10
2.954513888888888
 20
-2.844270833333331
 30
0.0
 10
2.954513888888888
 20
-2.844270833333331
 30
0.0
 10
4.277430555555555
 20
-2.844270833333331
 30
0.0
 10
4.277430555555555
 20
-2.844270833333331
 30
0.0
 10
4.169943576388888
 20
-5.109765624999996
 30
0.0
 10
3.795117187499998
 20
-7.009391276041665
 30
0.0
 10
3.151573350694443
 20
-8.542458767361106
 30
0.0
 10
2.381249999999999
 20
-10.38834092881943
 30
0.0
 10
1.347721354166665
 20
-11.3109375
 30
0.0
 10
0.0509874131944445
 20
-11.3109375
 30
0.0
 10
-1.07004665798611
 20
-11.3109375
 30
0.0
 10
-2.010557725694444
 20
-10.55577256944443
 30
0.0
 10
-2.771234809027776
 20
-9.04475368923611
 30
0.0
 10
-3.775824652777775
 20
-7.046598307291666
 30
0.0
 10
-4.277430555555555
 20
-3.961170789930555
 30
0.0
 10
-4.277430555555555
 20
0.2115288628472222
 30
0.0
 10
-4.277430555555555
 20
3.379638671874998
 30
0.0
 10
-3.902604166666666
 20
5.977929687499997
 30
0.0
 10
-3.151573350694443
 20
8.005712890624996
 30
0.0
 10
-2.333018663194443
 20
10.20919596354165
 30
0.0
 10
-1.20647243923611
 20
11.3109375
 30
0.0
 10
0.2266872829861111
 20
11.3109375
 30
0.0
 10
1.444873046875
 20
11.3109375
 30
0.0
 10
2.390207248263884
 20
10.59642469618055
 30
0.0
 10
3.062689887152775
 20
9.168088107638887
 30
0.0
  0
ENDBLK
  5
33A6
330
33A3
100
AcDbEntity
  8
0
100
AcDbBlockEnd
  0
BLOCK
  5
33AA
330
33A7
100
AcDbEntity
  8
0
 62
     7
100
AcDbBlockBegin
  2
AI9-BLK5
 70
     0
 10
0.0
 20
0.0
 30
0.0
  3
AI9-BLK5
  1

  0
SPLINE
  5
33A8
330
33A7
100
AcDbEntity
  8
LAYER_1
 62
     7
100
AcDbSpline
210
0.0
220
0.0
230
1.0
 70
    11
 71
     3
 72
    32
 73
    28
 74
     0
 42
0.0000000001
 43
0.0000000001
 40
0.0
 40
0.0
 40
0.0
 40
0.0
 40
1.0
 40
1.0
 40
1.0
 40
2.0
 40
2.0
 40
2.0
 40
3.0
 40
3.0
 40
3.0
 40
4.0
 40
4.0
 40
4.0
 40
5.0
 40
5.0
 40
5.0
 40
6.0
 40
6.0
 40
6.0
 40
7.0
 40
7.0
 40
7.0
 40
8.0
 40
8.0
 40
8.0
 40
9.0
 40
9.0
 40
9.0
 40
9.0
 10
-2.62378472222222
 20
-8.268229166666666
 30
0.0
 10
-2.62378472222222
 20
-8.268229166666666
 30
0.0
 10
-2.62378472222222
 20
8.180034722222217
 30
0.0
 10
-2.62378472222222
 20
8.180034722222217
 30
0.0
 10
-2.62378472222222
 20
8.180034722222217
 30
0.0
 10
-0.3376193576388888
 20
8.180034722222217
 30
0.0
 10
-0.3376193576388888
 20
8.180034722222217
 30
0.0
 10
0.6972873263888888
 20
8.180034722222217
 30
0.0
 10
1.449007161458333
 20
7.445540364583332
 30
0.0
 10
1.918918185763885
 20
5.977929687499997
 30
0.0
 10
2.388829210069443
 20
4.510319010416666
 30
0.0
 10
2.62378472222222
 20
2.449462890624999
 30
0.0
 10
2.62378472222222
 20
-0.204638671875
 30
0.0
 10
2.62378472222222
 20
-0.8950358072916666
 30
0.0
 10
2.590022786458332
 20
-1.643310546874999
 30
0.0
 10
2.523187934027772
 20
-2.45015190972222
 30
0.0
 10
2.408121744791666
 20
-3.80200737847222
 30
0.0
 10
2.226220703124999
 20
-4.909950086805555
 30
0.0
 10
1.976795789930553
 20
-5.774669053819441
 30
0.0
 10
1.659847005208333
 20
-6.853672960069442
 30
0.0
 10
1.252636718749998
 20
-7.583344184027778
 30
0.0
 10
0.7544759114583333
 20
-7.962304687499997
 30
0.0
 10
0.4664659288194444
 20
-8.166254340277777
 30
0.0
 10
0.1074869791666666
 20
-8.268229166666666
 30
0.0
 10
-0.3231499565972222
 20
-8.268229166666666
 30
0.0
 10
-0.3231499565972222
 20
-8.268229166666666
 30
0.0
 10
-2.62378472222222
 20
-8.268229166666666
 30
0.0
 10
-2.62378472222222
 20
-8.268229166666666
 30
0.0
  0
SPLINE
  5
33A9
330
33A7
100
AcDbEntity
  8
LAYER_1
 62
     7
100
AcDbSpline
210
0.0
220
0.0
230
1.0
 70
    11
 71
     3
 72
    26
 73
    22
 74
     0
 42
0.0000000001
 43
0.0000000001
 40
0.0
 40
0.0
 40
0.0
 40
0.0
 40
1.0
 40
1.0
 40
1.0
 40
2.0
 40
2.0
 40
2.0
 40
3.0
 40
3.0
 40
3.0
 40
4.0
 40
4.0
 40
4.0
 40
5.0
 40
5.0
 40
5.0
 40
6.0
 40
6.0
 40
6.0
 40
7.0
 40
7.0
 40
7.0
 40
7.0
 10
-3.946701388888888
 20
-10.7376736111111
 30
0.0
 10
-3.946701388888888
 20
-10.7376736111111
 30
0.0
 10
-0.0943956163194444
 20
-10.7376736111111
 30
0.0
 10
-0.0943956163194444
 20
-10.7376736111111
 30
0.0
 10
1.546847873263885
 20
-10.7376736111111
 30
0.0
 10
2.705777994791666
 20
-9.11021050347222
 30
0.0
 10
3.381705729166666
 20
-5.854595269097222
 30
0.0
 10
3.757910156249999
 20
-4.01284722222222
 30
0.0
 10
3.946701388888888
 20
-1.951991102430555
 30
0.0
 10
3.946701388888888
 20
0.328662109375
 30
0.0
 10
3.946701388888888
 20
3.281797960069443
 30
0.0
 10
3.622862413194443
 20
5.703700086805552
 30
0.0
 10
2.976562499999998
 20
7.594368489583332
 30
0.0
 10
2.25171440972222
 20
9.689675564236106
 30
0.0
 10
1.233344184027777
 20
10.7376736111111
 30
0.0
 10
-0.0799262152777778
 20
10.7376736111111
 30
0.0
 10
-0.0799262152777778
 20
10.7376736111111
 30
0.0
 10
-3.946701388888888
 20
10.7376736111111
 30
0.0
 10
-3.946701388888888
 20
10.7376736111111
 30
0.0
 10
-3.946701388888888
 20
10.7376736111111
 30
0.0
 10
-3.946701388888888
 20
-10.7376736111111
 30
0.0
 10
-3.946701388888888
 20
-10.7376736111111
 30
0.0
  0
ENDBLK
  5
33AB
330
33A7
100
AcDbEntity
  8
0
100
AcDbBlockEnd
  0
BLOCK
  5
33AF
330
33AC
100
AcDbEntity
  8
0
 62
     7
100
AcDbBlockBegin
  2
AI9-BLK4
 70
     0
 10
0.0
 20
0.0
 30
0.0
  3
AI9-BLK4
  1

  0
SPLINE
  5
33AD
330
33AC
100
AcDbEntity
  8
LAYER_1
 62
     7
100
AcDbSpline
210
0.0
220
0.0
230
1.0
 70
    11
 71
     3
 72
    26
 73
    22
 74
     0
 42
0.0000000001
 43
0.0000000001
 40
0.0
 40
0.0
 40
0.0
 40
0.0
 40
1.0
 40
1.0
 40
1.0
 40
2.0
 40
2.0
 40
2.0
 40
3.0
 40
3.0
 40
3.0
 40
4.0
 40
4.0
 40
4.0
 40
5.0
 40
5.0
 40
5.0
 40
6.0
 40
6.0
 40
6.0
 40
7.0
 40
7.0
 40
7.0
 40
7.0
 10
-2.645833333333333
 20
0.9039930555555551
 30
0.0
 10
-2.645833333333333
 20
0.9039930555555551
 30
0.0
 10
-2.645833333333333
 20
8.180034722222217
 30
0.0
 10
-2.645833333333333
 20
8.180034722222217
 30
0.0
 10
-2.645833333333333
 20
8.180034722222217
 30
0.0
 10
0.465087890625
 20
8.180034722222217
 30
0.0
 10
0.465087890625
 20
8.180034722222217
 30
0.0
 10
0.9026150173611108
 20
8.180034722222217
 30
0.0
 10
1.24988064236111
 20
8.034651692708331
 30
0.0
 10
1.506884765625
 20
7.745263671874997
 30
0.0
 10
2.001600477430554
 20
7.194048394097221
 30
0.0
 10
2.248958333333332
 20
6.160519748263887
 30
0.0
 10
2.248958333333332
 20
4.643299696180553
 30
0.0
 10
2.248958333333332
 20
3.232188585069443
 30
0.0
 10
2.072569444444444
 20
2.256537543402775
 30
0.0
 10
1.720480685763888
 20
1.715657552083333
 30
0.0
 10
1.368391927083333
 20
1.174088541666665
 30
0.0
 10
0.8929687499999998
 20
0.9039930555555551
 30
0.0
 10
0.2942111545138888
 20
0.9039930555555551
 30
0.0
 10
0.2942111545138888
 20
0.9039930555555551
 30
0.0
 10
-2.645833333333333
 20
0.9039930555555551
 30
0.0
 10
-2.645833333333333
 20
0.9039930555555551
 30
0.0
  0
SPLINE
  5
33AE
330
33AC
100
AcDbEntity
  8
LAYER_1
 62
     7
100
AcDbSpline
210
0.0
220
0.0
230
1.0
 70
    11
 71
     3
 72
    68
 73
    64
 74
     0
 42
0.0000000001
 43
0.0000000001
 40
0.0
 40
0.0
 40
0.0
 40
0.0
 40
1.0
 40
1.0
 40
1.0
 40
2.0
 40
2.0
 40
2.0
 40
3.0
 40
3.0
 40
3.0
 40
4.0
 40
4.0
 40
4.0
 40
5.0
 40
5.0
 40
5.0
 40
6.0
 40
6.0
 40
6.0
 40
7.0
 40
7.0
 40
7.0
 40
8.0
 40
8.0
 40
8.0
 40
9.0
 40
9.0
 40
9.0
 40
10.0
 40
10.0
 40
10.0
 40
11.0
 40
11.0
 40
11.0
 40
12.0
 40
12.0
 40
12.0
 40
13.0
 40
13.0
 40
13.0
 40
14.0
 40
14.0
 40
14.0
 40
15.0
 40
15.0
 40
15.0
 40
16.0
 40
16.0
 40
16.0
 40
17.0
 40
17.0
 40
17.0
 40
18.0
 40
18.0
 40
18.0
 40
19.0
 40
19.0
 40
19.0
 40
20.0
 40
20.0
 40
20.0
 40
21.0
 40
21.0
 40
21.0
 40
21.0
 10
-3.968749999999998
 20
-10.7376736111111
 30
0.0
 10
-3.968749999999998
 20
-10.7376736111111
 30
0.0
 10
-2.645833333333333
 20
-10.7376736111111
 30
0.0
 10
-2.645833333333333
 20
-10.7376736111111
 30
0.0
 10
-2.645833333333333
 20
-10.7376736111111
 30
0.0
 10
-2.645833333333333
 20
-1.521354166666665
 30
0.0
 10
-2.645833333333333
 20
-1.521354166666665
 30
0.0
 10
-2.645833333333333
 20
-1.521354166666665
 30
0.0
 10
0.2390896267361111
 20
-1.521354166666665
 30
0.0
 10
0.2390896267361111
 20
-1.521354166666665
 30
0.0
 10
0.7599880642361111
 20
-1.521354166666665
 30
0.0
 10
1.143771701388887
 20
-1.65295681423611
 30
0.0
 10
1.390440538194444
 20
-1.916162109374999
 30
0.0
 10
1.816254340277773
 20
-2.39434136284722
 30
0.0
 10
2.04363064236111
 20
-3.335541449652775
 30
0.0
 10
2.072569444444444
 20
-4.739762369791666
 30
0.0
 10
2.072569444444444
 20
-4.739762369791666
 30
0.0
 10
2.160763888888888
 20
-8.324039713541665
 30
0.0
 10
2.160763888888888
 20
-8.324039713541665
 30
0.0
 10
2.18005642361111
 20
-9.163264973958332
 30
0.0
 10
2.202794053819443
 20
-9.728949652777775
 30
0.0
 10
2.227598741319444
 20
-10.02109374999998
 30
0.0
 10
2.252403428819443
 20
-10.31392686631944
 30
0.0
 10
2.28892144097222
 20
-10.55301649305555
 30
0.0
 10
2.33853081597222
 20
-10.7376736111111
 30
0.0
 10
2.33853081597222
 20
-10.7376736111111
 30
0.0
 10
3.968749999999998
 20
-10.7376736111111
 30
0.0
 10
3.968749999999998
 20
-10.7376736111111
 30
0.0
 10
3.968749999999998
 20
-10.7376736111111
 30
0.0
 10
3.968749999999998
 20
-10.25260416666666
 30
0.0
 10
3.968749999999998
 20
-10.25260416666666
 30
0.0
 10
3.766867404513888
 20
-10.05830078125
 30
0.0
 10
3.625618489583333
 20
-9.621462673611112
 30
0.0
 10
3.545692274305555
 20
-8.942089843749997
 30
0.0
 10
3.49470486111111
 20
-8.543836805555555
 30
0.0
 10
3.459564887152775
 20
-7.937499999999999
 30
0.0
 10
3.439583333333333
 20
-7.121701388888887
 30
0.0
 10
3.439583333333333
 20
-7.121701388888887
 30
0.0
 10
3.395486111111106
 20
-4.232644314236106
 30
0.0
 10
3.395486111111106
 20
-4.232644314236106
 30
0.0
 10
3.375504557291666
 20
-2.981385633680555
 30
0.0
 10
3.26870659722222
 20
-2.077392578125
 30
0.0
 10
3.075781249999999
 20
-1.522043185763888
 30
0.0
 10
2.882166883680555
 20
-0.9666937934027776
 30
0.0
 10
2.592089843749999
 20
-0.5188313802083333
 30
0.0
 10
2.204861111111104
 20
-0.1770779079861111
 30
0.0
 10
2.63618706597222
 20
0.3197048611111111
 30
0.0
 10
2.971739366319443
 20
0.9770290798611107
 30
0.0
 10
3.211518012152775
 20
1.79558376736111
 30
0.0
 10
3.451296657986107
 20
2.613449435763888
 30
0.0
 10
3.571874999999999
 20
3.66558159722222
 30
0.0
 10
3.571874999999999
 20
4.951291232638888
 30
0.0
 10
3.571874999999999
 20
7.415912543402777
 30
0.0
 10
3.124701605902775
 20
9.106076388888887
 30
0.0
 10
2.231043836805555
 20
10.02178276909722
 30
0.0
 10
1.759754774305553
 20
10.498583984375
 30
0.0
 10
1.163753255208332
 20
10.7376736111111
 30
0.0
 10
0.443039279513889
 20
10.7376736111111
 30
0.0
 10
0.443039279513889
 20
10.7376736111111
 30
0.0
 10
-3.968749999999998
 20
10.7376736111111
 30
0.0
 10
-3.968749999999998
 20
10.7376736111111
 30
0.0
 10
-3.968749999999998
 20
10.7376736111111
 30
0.0
 10
-3.968749999999998
 20
-10.7376736111111
 30
0.0
 10
-3.968749999999998
 20
-10.7376736111111
 30
0.0
  0
ENDBLK
  5
33B0
330
33AC
100
AcDbEntity
  8
0
100
AcDbBlockEnd
  0
BLOCK
  5
33B4
330
33B1
100
AcDbEntity
  8
0
 62
     7
100
AcDbBlockBegin
  2
AI9-BLK3
 70
     0
 10
0.0
 20
0.0
 30
0.0
  3
AI9-BLK3
  1

  0
LWPOLYLINE
  5
33B2
330
33B1
100
AcDbEntity
  8
LAYER_1
 62
     7
100
AcDbPolyline
 90
        4
 70
     1
 43
0.0
 10
-0.6613722059461809
 20
10.7376736111111
 10
0.6613722059461809
 20
10.7376736111111
 10
0.6613722059461809
 20
-10.7376736111111
 10
-0.6613722059461809
 20
-10.7376736111111
  0
HATCH
  5
33B3
330
33B1
100
AcDbEntity
  8
LAYER_1
 62
     7
100
AcDbHatch
 10
0.0
 20
0.0
 30
0.0
210
0.0
220
0.0
230
1.0
  2
SOLID
 70
     1
 71
     0
 91
        1
 92
        3
 72
     0
 73
     1
 93
        4
 10
-0.6613722059461809
 20
10.7376736111111
 10
0.6613722059461809
 20
10.7376736111111
 10
0.6613722059461809
 20
-10.7376736111111
 10
-0.6613722059461809
 20
-10.7376736111111
 97
        0
 75
     2
 76
     1
 98
        1
 10
0.0
 20
0.0
  0
ENDBLK
  5
33B5
330
33B1
100
AcDbEntity
  8
0
100
AcDbBlockEnd
  0
BLOCK
  5
33B9
330
33B6
100
AcDbEntity
  8
0
 62
     7
100
AcDbBlockBegin
  2
AI9-BLK2
 70
     0
 10
0.0
 20
0.0
 30
0.0
  3
AI9-BLK2
  1

  0
LWPOLYLINE
  5
33B7
330
33B6
100
AcDbEntity
  8
LAYER_1
 62
     7
100
AcDbPolyline
 90
        7
 70
     1
 43
0.0
 10
-2.785704210069443
 20
10.7376736111111
 10
0.0
 20
-7.550960286458332
 10
2.771234809027776
 20
10.7376736111111
 10
4.233333333333331
 20
10.7376736111111
 10
0.6910861545138888
 20
-10.7376736111111
 10
-0.7055555555555558
 20
-10.7376736111111
 10
-4.233333333333331
 20
10.7376736111111
  0
HATCH
  5
33B8
330
33B6
100
AcDbEntity
  8
LAYER_1
 62
     7
100
AcDbHatch
 10
0.0
 20
0.0
 30
0.0
210
0.0
220
0.0
230
1.0
  2
SOLID
 70
     1
 71
     0
 91
        1
 92
        3
 72
     0
 73
     1
 93
        7
 10
-2.785704210069443
 20
10.7376736111111
 10
0.0
 20
-7.550960286458332
 10
2.771234809027776
 20
10.7376736111111
 10
4.233333333333331
 20
10.7376736111111
 10
0.6910861545138888
 20
-10.7376736111111
 10
-0.7055555555555558
 20
-10.7376736111111
 10
-4.233333333333331
 20
10.7376736111111
 97
        0
 75
     2
 76
     1
 98
        1
 10
0.0
 20
0.0
  0
ENDBLK
  5
33BA
330
33B6
100
AcDbEntity
  8
0
100
AcDbBlockEnd
  0
BLOCK
  5
33BE
330
33BB
100
AcDbEntity
  8
0
 62
     7
100
AcDbBlockBegin
  2
AI9-BLK1
 70
     0
 10
0.0
 20
0.0
 30
0.0
  3
AI9-BLK1
  1

  0
LWPOLYLINE
  5
33BC
330
33BB
100
AcDbEntity
  8
LAYER_1
 62
     7
100
AcDbPolyline
 90
       12
 70
     1
 43
0.0
 10
-3.571874999999999
 20
10.7376736111111
 10
3.483680555555555
 20
10.7376736111111
 10
3.483680555555555
 20
8.091840277777777
 10
-2.248958333333332
 20
8.091840277777777
 10
-2.248958333333332
 20
1.565451388888888
 10
3.042708333333333
 20
1.565451388888888
 10
3.042708333333333
 20
-0.9039930555555551
 10
-2.248958333333332
 20
-0.9039930555555551
 10
-2.248958333333332
 20
-8.180034722222217
 10
3.571874999999999
 20
-8.180034722222217
 10
3.571874999999999
 20
-10.7376736111111
 10
-3.571874999999999
 20
-10.7376736111111
  0
HATCH
  5
33BD
330
33BB
100
AcDbEntity
  8
LAYER_1
 62
     7
100
AcDbHatch
 10
0.0
 20
0.0
 30
0.0
210
0.0
220
0.0
230
1.0
  2
SOLID
 70
     1
 71
     0
 91
        1
 92
        3
 72
     0
 73
     1
 93
       12
 10
-3.571874999999999
 20
10.7376736111111
 10
3.483680555555555
 20
10.7376736111111
 10
3.483680555555555
 20
8.091840277777777
 10
-2.248958333333332
 20
8.091840277777777
 10
-2.248958333333332
 20
1.565451388888888
 10
3.042708333333333
 20
1.565451388888888
 10
3.042708333333333
 20
-0.9039930555555551
 10
-2.248958333333332
 20
-0.9039930555555551
 10
-2.248958333333332
 20
-8.180034722222217
 10
3.571874999999999
 20
-8.180034722222217
 10
3.571874999999999
 20
-10.7376736111111
 10
-3.571874999999999
 20
-10.7376736111111
 97
        0
 75
     2
 76
     1
 98
        1
 10
0.0
 20
0.0
  0
ENDBLK
  5
33BF
330
33BB
100
AcDbEntity
  8
0
100
AcDbBlockEnd
  0
BLOCK
  5
33E3
330
33C0
100
AcDbEntity
  8
0
100
AcDbBlockBegin
  2
HD_LLC_logo_OT5
 70
     0
 10
0.0
 20
0.0
 30
0.0
  3
HD_LLC_logo_OT5
  1

  0
SPLINE
  5
33C1
102
{ACAD_REACTORS
330
33E1
102
}
330
33C0
100
AcDbEntity
  8
LAYER_1
 62
     7
100
AcDbSpline
210
0.0
220
0.0
230
1.0
 70
    11
 71
     3
 72
   113
 73
   109
 74
     0
 42
0.0000000001
 43
0.0000000001
 40
0.0
 40
0.0
 40
0.0
 40
0.0
 40
1.0
 40
1.0
 40
1.0
 40
2.0
 40
2.0
 40
2.0
 40
3.0
 40
3.0
 40
3.0
 40
4.0
 40
4.0
 40
4.0
 40
5.0
 40
5.0
 40
5.0
 40
6.0
 40
6.0
 40
6.0
 40
7.0
 40
7.0
 40
7.0
 40
8.0
 40
8.0
 40
8.0
 40
9.0
 40
9.0
 40
9.0
 40
10.0
 40
10.0
 40
10.0
 40
11.0
 40
11.0
 40
11.0
 40
12.0
 40
12.0
 40
12.0
 40
13.0
 40
13.0
 40
13.0
 40
14.0
 40
14.0
 40
14.0
 40
15.0
 40
15.0
 40
15.0
 40
16.0
 40
16.0
 40
16.0
 40
17.0
 40
17.0
 40
17.0
 40
18.0
 40
18.0
 40
18.0
 40
19.0
 40
19.0
 40
19.0
 40
20.0
 40
20.0
 40
20.0
 40
21.0
 40
21.0
 40
21.0
 40
22.0
 40
22.0
 40
22.0
 40
23.0
 40
23.0
 40
23.0
 40
24.0
 40
24.0
 40
24.0
 40
25.0
 40
25.0
 40
25.0
 40
26.0
 40
26.0
 40
26.0
 40
27.0
 40
27.0
 40
27.0
 40
28.0
 40
28.0
 40
28.0
 40
29.0
 40
29.0
 40
29.0
 40
30.0
 40
30.0
 40
30.0
 40
31.0
 40
31.0
 40
31.0
 40
32.0
 40
32.0
 40
32.0
 40
33.0
 40
33.0
 40
33.0
 40
34.0
 40
34.0
 40
34.0
 40
35.0
 40
35.0
 40
35.0
 40
36.0
 40
36.0
 40
36.0
 40
36.0
 10
193.3039632161458
 20
186.1548733181423
 30
0.0
 10
193.3039632161458
 20
186.1860514322916
 30
0.0
 10
193.3039632161458
 20
219.6932223849826
 30
0.0
 10
193.3039632161458
 20
219.6932223849826
 30
0.0
 10
193.3039632161458
 20
219.6932223849826
 30
0.0
 10
193.2974175347219
 20
219.7488606770833
 30
0.0
 10
193.2974175347219
 20
219.7488606770833
 30
0.0
 10
191.5293945312499
 20
235.455740017361
 30
0.0
 10
175.1458984374999
 20
235.2467949761284
 30
0.0
 10
174.9808783637151
 20
235.2428331163193
 30
0.0
 10
174.9808783637151
 20
235.2428331163193
 30
0.0
 10
125.8827555338541
 20
235.2430053710937
 30
0.0
 10
125.8827555338541
 20
235.2430053710937
 30
0.0
 10
125.8827555338541
 20
235.2430053710937
 30
0.0
 10
125.8827555338541
 20
255.5278998480901
 30
0.0
 10
125.8827555338541
 20
255.5278998480901
 30
0.0
 10
125.8827555338541
 20
255.5278998480901
 30
0.0
 10
84.5626247829861
 20
255.5278998480901
 30
0.0
 10
84.5626247829861
 20
255.5278998480901
 30
0.0
 10
84.5626247829861
 20
255.5278998480901
 30
0.0
 10
84.55711263020829
 20
233.7919311523436
 30
0.0
 10
84.55711263020829
 20
233.7919311523436
 30
0.0
 10
84.55711263020829
 20
233.7919311523436
 30
0.0
 10
64.42052951388888
 20
233.7919311523436
 30
0.0
 10
64.42052951388888
 20
233.7919311523436
 30
0.0
 10
64.42052951388888
 20
233.7919311523436
 30
0.0
 10
64.41501736111111
 20
255.5278998480901
 30
0.0
 10
64.41501736111111
 20
255.5278998480901
 30
0.0
 10
64.41501736111111
 20
255.5278998480901
 30
0.0
 10
23.91757541232637
 20
255.5278998480901
 30
0.0
 10
23.91757541232637
 20
255.5278998480901
 30
0.0
 10
23.91757541232637
 20
255.5278998480901
 30
0.0
 10
23.91757541232637
 20
233.2393378363715
 30
0.0
 10
23.91757541232637
 20
233.2393378363715
 30
0.0
 10
23.91757541232637
 20
233.2393378363715
 30
0.0
 10
43.65624999999999
 20
233.2393378363715
 30
0.0
 10
43.65624999999999
 20
233.2393378363715
 30
0.0
 10
43.65624999999999
 20
233.2393378363715
 30
0.0
 10
43.65624999999999
 20
211.5188720703125
 30
0.0
 10
43.65624999999999
 20
211.5188720703125
 30
0.0
 10
43.65624999999999
 20
211.5188720703125
 30
0.0
 10
23.91757541232637
 20
211.5188720703125
 30
0.0
 10
23.91757541232637
 20
211.5188720703125
 30
0.0
 10
23.91757541232637
 20
211.5188720703125
 30
0.0
 10
23.91757541232637
 20
189.2303100585936
 30
0.0
 10
23.91757541232637
 20
189.2303100585936
 30
0.0
 10
23.91757541232637
 20
189.2303100585936
 30
0.0
 10
64.41501736111111
 20
189.2303100585936
 30
0.0
 10
64.41501736111111
 20
189.2303100585936
 30
0.0
 10
64.41501736111111
 20
189.2303100585936
 30
0.0
 10
64.42052951388888
 20
211.069976128472
 30
0.0
 10
64.42052951388888
 20
211.069976128472
 30
0.0
 10
64.42052951388888
 20
211.069976128472
 30
0.0
 10
84.55711263020829
 20
211.069976128472
 30
0.0
 10
84.55711263020829
 20
211.069976128472
 30
0.0
 10
84.55711263020829
 20
211.069976128472
 30
0.0
 10
84.5626247829861
 20
189.2303100585936
 30
0.0
 10
84.5626247829861
 20
189.2303100585936
 30
0.0
 10
84.5626247829861
 20
189.2303100585936
 30
0.0
 10
125.8827555338541
 20
189.2303100585936
 30
0.0
 10
125.8827555338541
 20
189.2303100585936
 30
0.0
 10
125.8827555338541
 20
189.2303100585936
 30
0.0
 10
125.8827555338541
 20
211.5188720703125
 30
0.0
 10
125.8827555338541
 20
211.5188720703125
 30
0.0
 10
125.8827555338541
 20
211.5188720703125
 30
0.0
 10
105.3213921440971
 20
211.5188720703125
 30
0.0
 10
105.3213921440971
 20
211.5188720703125
 30
0.0
 10
105.3213921440971
 20
211.5188720703125
 30
0.0
 10
105.3213921440971
 20
233.2393378363715
 30
0.0
 10
105.3213921440971
 20
233.2393378363715
 30
0.0
 10
105.3213921440971
 20
233.2393378363715
 30
0.0
 10
175.0046495225693
 20
233.243127441406
 30
0.0
 10
175.0046495225693
 20
233.243127441406
 30
0.0
 10
175.6268337673611
 20
233.2560465494791
 30
0.0
 10
189.7165852864583
 20
233.3962619357638
 30
0.0
 10
191.3037407769094
 20
219.5690266927083
 30
0.0
 10
191.3037407769094
 20
219.4332899305555
 30
0.0
 10
191.3037407769094
 20
186.1142211914062
 30
0.0
 10
191.3037407769094
 20
186.1142211914062
 30
0.0
 10
191.3037407769094
 20
186.1142211914062
 30
0.0
 10
191.3051188151039
 20
186.0880384657115
 30
0.0
 10
191.3051188151039
 20
186.0880384657115
 30
0.0
 10
191.3054633246526
 20
186.0787367078991
 30
0.0
 10
191.3109754774304
 20
185.9566080729166
 30
0.0
 10
191.3109754774304
 20
185.7399115668401
 30
0.0
 10
191.3109754774304
 20
184.2090833875865
 30
0.0
 10
191.0488037109374
 20
177.9643310546874
 30
0.0
 10
186.9866916232638
 20
173.5652886284722
 30
0.0
 10
184.2540418836804
 20
170.6064683702255
 30
0.0
 10
180.3224989149304
 20
169.0308539496526
 30
0.0
 10
175.300927734375
 20
168.8825425889756
 30
0.0
 10
175.300927734375
 20
168.8825425889756
 30
0.0
 10
107.0094889322916
 20
168.8828870985243
 30
0.0
 10
107.0094889322916
 20
168.8828870985243
 30
0.0
 10
107.0094889322916
 20
168.8828870985243
 30
0.0
 10
107.0094889322916
 20
166.8830091688368
 30
0.0
 10
107.0094889322916
 20
166.8830091688368
 30
0.0
 10
107.0094889322916
 20
166.8830091688368
 30
0.0
 10
175.3305555555555
 20
166.8830091688368
 30
0.0
 10
175.3305555555555
 20
166.8830091688368
 30
0.0
 10
180.9467502170138
 20
167.0485460069444
 30
0.0
 10
185.3571614583333
 20
168.8448187934026
 30
0.0
 10
188.4687717013888
 20
172.2223904079861
 30
0.0
 10
192.9649658203124
 20
177.1034016927083
 30
0.0
 10
193.3136094835069
 20
183.7202243381076
 30
0.0
 10
193.3136094835069
 20
185.6520616319443
 30
0.0
 10
193.3136094835069
 20
185.9247409396701
 30
0.0
 10
193.3070638020833
 20
186.0868326822916
 30
0.0
 10
193.3039632161458
 20
186.1548733181423
 30
0.0
  0
INSERT
  5
33C2
102
{ACAD_REACTORS
330
33E2
102
}
330
33C0
100
AcDbEntity
  8
LAYER_1
 62
     7
100
AcDbBlockReference
  2
AI9-BLK14
 10
159.5625257703993
 20
200.5118781195744
 30
0.0
  0
INSERT
  5
33C3
330
33C0
100
AcDbEntity
  8
LAYER_1
 62
     7
100
AcDbBlockReference
  2
AI9-BLK13
 10
27.69615614149305
 20
179.2145562065971
 30
0.0
 42
0.9200000000000001
  0
INSERT
  5
33C4
102
{ACAD_REACTORS
330
33CF
102
}
330
33C0
100
AcDbEntity
  8
LAYER_1
 62
     7
100
AcDbBlockReference
  2
AI9-BLK11
 10
44.76591525607638
 20
179.2145562065971
 30
0.0
 42
0.9200000000000001
  0
INSERT
  5
33C5
102
{ACAD_REACTORS
330
33DD
102
}
330
33C0
100
AcDbEntity
  8
LAYER_1
 62
     7
100
AcDbBlockReference
  2
AI9-BLK10
 10
54.04665798611111
 20
179.2145562065971
 30
0.0
 42
0.9200000000000001
  0
INSERT
  5
33C6
102
{ACAD_REACTORS
330
33DC
102
}
330
33C0
100
AcDbEntity
  8
LAYER_1
 62
     7
100
AcDbBlockReference
  2
AI9-BLK9
 10
62.79013807508679
 20
179.2145562065971
 30
0.0
 42
0.9
  0
INSERT
  5
33C7
330
33C0
100
AcDbEntity
  8
LAYER_1
 62
     7
100
AcDbBlockReference
  2
AI9-BLK8
 10
71.03046196831595
 20
179.2145562065971
 30
0.0
 42
0.9200000000000001
  0
INSERT
  5
33C8
330
33C0
100
AcDbEntity
  8
LAYER_1
 62
     7
100
AcDbBlockReference
  2
AI9-BLK7
 10
76.93793945312498
 20
179.2145562065971
 30
0.0
 42
0.9200000000000001
  0
INSERT
  5
33C9
102
{ACAD_REACTORS
330
33D0
102
}
330
33C0
100
AcDbEntity
  8
LAYER_1
 62
     7
100
AcDbBlockReference
  2
AI9-BLK6
 10
82.55602891710069
 20
179.2145562065971
 30
0.0
 42
0.9
  0
INSERT
  5
33CA
102
{ACAD_REACTORS
330
33DE
102
}
330
33C0
100
AcDbEntity
  8
LAYER_1
 62
     7
100
AcDbBlockReference
  2
AI9-BLK5
 10
94.32430284288193
 20
179.2145562065971
 30
0.0
 42
0.9200000000000001
  0
INSERT
  5
33CB
102
{ACAD_REACTORS
330
33DF
102
}
330
33C0
100
AcDbEntity
  8
LAYER_1
 62
     7
100
AcDbBlockReference
  2
AI9-BLK4
 10
103.2081705729166
 20
179.2145562065971
 30
0.0
 42
0.9200000000000001
  0
INSERT
  5
33CC
330
33C0
100
AcDbEntity
  8
LAYER_1
 62
     7
100
AcDbBlockReference
  2
AI9-BLK3
 10
108.850978597005
 20
179.2145562065971
 30
0.0
 42
0.9200000000000001
  0
INSERT
  5
33CD
330
33C0
100
AcDbEntity
  8
LAYER_1
 62
     7
100
AcDbBlockReference
  2
AI9-BLK2
 10
114.2045708550346
 20
179.2145562065971
 30
0.0
 42
0.9200000000000001
  0
INSERT
  5
33CE
330
33C0
100
AcDbEntity
  8
LAYER_1
 62
     7
100
AcDbBlockReference
  2
AI9-BLK1
 10
122.4125108506944
 20
179.2145562065971
 30
0.0
 42
0.9200000000000001
  0
HATCH
  5
33CF
330
33C0
100
AcDbEntity
  8
0
  6
Continuous
100
AcDbHatch
 10
0.0
 20
0.0
 30
0.0
210
0.0
220
0.0
230
1.0
  2
SOLID
 70
     1
 71
     1
 91
        2
 92
       16
 93
        1
 72
     4
 94
        3
 73
     0
 74
     0
 95
       26
 96
       22
 40
0.0
 40
0.0
 40
0.0
 40
0.0
 40
1.0
 40
1.0
 40
1.0
 40
2.0
 40
2.0
 40
2.0
 40
3.0
 40
3.0
 40
3.0
 40
4.0
 40
4.0
 40
4.0
 40
5.0
 40
5.0
 40
5.0
 40
6.0
 40
6.0
 40
6.0
 40
7.0
 40
7.0
 40
7.0
 40
7.0
 10
42.12008192274304
 20
180.0462298177081
 10
42.12008192274304
 20
180.0462298177081
 10
42.12008192274304
 20
186.7401881510414
 10
42.12008192274304
 20
186.7401881510414
 10
42.12008192274304
 20
186.7401881510414
 10
45.23100314670138
 20
186.7401881510414
 10
45.23100314670138
 20
186.7401881510414
 10
45.66853027343749
 20
186.7401881510414
 10
46.01579589843749
 20
186.6064357638887
 10
46.27280002170138
 20
186.3401987847219
 10
46.76751573350694
 20
185.8330807291664
 10
47.01487358940972
 20
184.8822343749997
 10
47.01487358940972
 20
183.4863919270832
 10
47.01487358940972
 20
182.188169704861
 10
46.83848470052082
 20
181.2905707465276
 10
46.48639594184028
 20
180.7929611545137
 10
46.13430718315971
 20
180.2947176649304
 10
45.65888400607638
 20
180.0462298177081
 10
45.06012641059028
 20
180.0462298177081
 10
45.06012641059028
 20
180.0462298177081
 10
42.12008192274304
 20
180.0462298177081
 10
42.12008192274304
 20
180.0462298177081
 97
        1
330
33C4
 92
        1
 93
        1
 72
     4
 94
        3
 73
     0
 74
     0
 95
       68
 96
       64
 40
0.0
 40
0.0
 40
0.0
 40
0.0
 40
1.0
 40
1.0
 40
1.0
 40
2.0
 40
2.0
 40
2.0
 40
3.0
 40
3.0
 40
3.0
 40
4.0
 40
4.0
 40
4.0
 40
5.0
 40
5.0
 40
5.0
 40
6.0
 40
6.0
 40
6.0
 40
7.0
 40
7.0
 40
7.0
 40
8.0
 40
8.0
 40
8.0
 40
9.0
 40
9.0
 40
9.0
 40
10.0
 40
10.0
 40
10.0
 40
11.0
 40
11.0
 40
11.0
 40
12.0
 40
12.0
 40
12.0
 40
13.0
 40
13.0
 40
13.0
 40
14.0
 40
14.0
 40
14.0
 40
15.0
 40
15.0
 40
15.0
 40
16.0
 40
16.0
 40
16.0
 40
17.0
 40
17.0
 40
17.0
 40
18.0
 40
18.0
 40
18.0
 40
19.0
 40
19.0
 40
19.0
 40
20.0
 40
20.0
 40
20.0
 40
21.0
 40
21.0
 40
21.0
 40
21.0
 10
40.79716525607638
 20
169.3358964843748
 10
40.79716525607638
 20
169.3358964843748
 10
42.12008192274304
 20
169.3358964843748
 10
42.12008192274304
 20
169.3358964843748
 10
42.12008192274304
 20
169.3358964843748
 10
42.12008192274304
 20
177.8149103732637
 10
42.12008192274304
 20
177.8149103732637
 10
42.12008192274304
 20
177.8149103732637
 10
45.00500488281249
 20
177.8149103732637
 10
45.00500488281249
 20
177.8149103732637
 10
45.52590332031249
 20
177.8149103732637
 10
45.90968695746528
 20
177.6938359374998
 10
46.15635579427083
 20
177.451687065972
 10
46.58216959635415
 20
177.0117621527776
 10
46.80954589843749
 20
176.1458580729164
 10
46.83848470052082
 20
174.8539748263887
 10
46.83848470052082
 20
174.8539748263887
 10
46.92667914496527
 20
171.5564396701386
 10
46.92667914496527
 20
171.5564396701386
 10
46.94597167968749
 20
170.7843524305554
 10
46.96870930989581
 20
170.2639225260415
 10
46.99351399739582
 20
169.9951499565971
 10
47.01831868489581
 20
169.7257434895831
 10
47.0548366970486
 20
169.5057810329859
 10
47.10444607204859
 20
169.3358964843748
 10
47.10444607204859
 20
169.3358964843748
 10
48.73466525607638
 20
169.3358964843748
 10
48.73466525607638
 20
169.3358964843748
 10
48.73466525607638
 20
169.3358964843748
 10
48.73466525607638
 20
169.7821603732636
 10
48.73466525607638
 20
169.7821603732636
 10
48.53278266059028
 20
169.9609194878471
 10
48.39153374565971
 20
170.3628105468748
 10
48.31160753038194
 20
170.9878335503471
 10
48.26062011718749
 20
171.3542263454858
 10
48.22548014322915
 20
171.9120562065971
 10
48.20549858940971
 20
172.6625909288193
 10
48.20549858940971
 20
172.6625909288193
 10
48.16140136718749
 20
175.3205234374999
 10
48.16140136718749
 20
175.3205234374999
 10
48.14141981336803
 20
176.4716814236109
 10
48.03462185329859
 20
177.3033550347219
 10
47.84169650607638
 20
177.8142764756942
 10
47.64808213975693
 20
178.3251979166665
 10
47.35800509982638
 20
178.7372313368054
 10
46.97077636718749
 20
179.0516445312498
 10
47.4021023220486
 20
179.5086846788193
 10
47.73765462239582
 20
180.1134229600693
 10
47.97743326822915
 20
180.8664932725692
 10
48.21721191406249
 20
181.6189296874999
 10
48.33779025607638
 20
182.5868912760414
 10
48.33779025607638
 20
183.7697441406248
 10
48.33779025607638
 20
186.0371957465275
 10
47.89061686197914
 20
187.5921464843749
 10
46.99695909288194
 20
188.4345963541665
 10
46.52567003038194
 20
188.8732534722221
 10
45.92966851128472
 20
189.0932159288193
 10
45.20895453559027
 20
189.0932159288193
 10
45.20895453559027
 20
189.0932159288193
 10
40.79716525607638
 20
189.0932159288193
 10
40.79716525607638
 20
189.0932159288193
 10
40.79716525607638
 20
189.0932159288193
 10
40.79716525607638
 20
169.3358964843748
 10
40.79716525607638
 20
169.3358964843748
 97
        0
 75
     0
 76
     1
 98
        0
  0
HATCH
  5
33D0
330
33C0
100
AcDbEntity
  8
0
  6
Continuous
100
AcDbHatch
 10
0.0
 20
0.0
 30
0.0
210
0.0
220
0.0
230
1.0
  2
SOLID
 70
     1
 71
     1
 91
        1
 92
        1
 93
        1
 72
     4
 94
        3
 73
     0
 74
     0
 95
       59
 96
       55
 40
0.0
 40
0.0
 40
0.0
 40
0.0
 40
1.0
 40
1.0
 40
1.0
 40
2.0
 40
2.0
 40
2.0
 40
3.0
 40
3.0
 40
3.0
 40
4.0
 40
4.0
 40
4.0
 40
5.0
 40
5.0
 40
5.0
 40
6.0
 40
6.0
 40
6.0
 40
7.0
 40
7.0
 40
7.0
 40
8.0
 40
8.0
 40
8.0
 40
9.0
 40
9.0
 40
9.0
 40
10.0
 40
10.0
 40
10.0
 40
11.0
 40
11.0
 40
11.0
 40
12.0
 40
12.0
 40
12.0
 40
13.0
 40
13.0
 40
13.0
 40
14.0
 40
14.0
 40
14.0
 40
15.0
 40
15.0
 40
15.0
 40
16.0
 40
16.0
 40
16.0
 40
17.0
 40
17.0
 40
17.0
 40
18.0
 40
18.0
 40
18.0
 40
18.0
 10
85.61871880425345
 20
187.4658355034721
 10
86.29120144314233
 20
186.1797124565971
 10
86.66671685112847
 20
184.7193364800346
 10
86.7452650282118
 20
183.0840874565969
 10
86.7452650282118
 20
183.0840874565969
 10
85.42234836154511
 20
183.0840874565969
 10
85.42234836154511
 20
183.0840874565969
 10
85.27696533203123
 20
184.315640190972
 10
84.99171142578125
 20
185.2917046440971
 10
84.56589762369791
 20
186.0122808159719
 10
84.14008382161458
 20
186.7322368706595
 10
83.53994818793401
 20
187.092524956597
 10
82.76617974175344
 20
187.092524956597
 10
81.81740044487847
 20
187.092524956597
 10
81.05258924696178
 20
186.4240386284721
 10
80.47243516710068
 20
185.0883062065971
 10
79.89159206814234
 20
183.7525737847219
 10
79.6015150282118
 20
181.7049468315971
 10
79.6015150282118
 20
178.9454253472221
 10
79.6015150282118
 20
176.684478081597
 10
79.86265326605901
 20
174.8514116753471
 10
80.38561876085069
 20
173.4456060112846
 10
80.90789523654512
 20
172.0391802300345
 10
81.69199896918403
 20
171.3365874565971
 10
82.73724093967013
 20
171.3365874565971
 10
83.69497748480901
 20
171.3365874565971
 10
84.42120361328125
 20
172.0794878472221
 10
84.91523030598958
 20
173.566528862847
 10
85.18601481119791
 20
174.349116753472
 10
85.38445231119791
 20
175.3785112847221
 10
85.51054280598959
 20
176.6547124565971
 10
85.51054280598959
 20
176.6547124565971
 10
86.83345947265625
 20
176.6547124565971
 10
86.83345947265625
 20
176.6547124565971
 10
86.72597249348957
 20
174.6157671440971
 10
86.35114610460069
 20
172.9061040581596
 10
85.70760226779514
 20
171.526343315972
 10
84.93727891710069
 20
169.8650493706596
 10
83.90375027126735
 20
169.0347124565971
 10
82.60701633029514
 20
169.0347124565971
 10
81.48598225911458
 20
169.0347124565971
 10
80.54547119140625
 20
169.7143608940971
 10
79.78479410807292
 20
171.0742778862845
 10
78.78020426432292
 20
172.8726177300345
 10
78.27859836154512
 20
175.6495024956596
 10
78.27859836154512
 20
179.4049321831595
 10
78.27859836154512
 20
182.2562310112846
 10
78.65342475043402
 20
184.594692925347
 10
79.40445556640622
 20
186.4196978081596
 10
80.22301025390625
 20
188.4028325737846
 10
81.34955647786458
 20
189.3943999565971
 10
82.78271620008679
 20
189.3943999565971
 10
84.00090196397568
 20
189.3943999565971
 10
84.94623616536458
 20
188.7513384331595
 10
85.61871880425345
 20
187.4658355034721
 97
        1
330
33C9
 75
     0
 76
     1
 98
        1
 10
0.0
 20
0.0
  0
LINE
  5
33D1
102
{ACAD_REACTORS
330
33E0
102
}
330
33C0
100
AcDbEntity
  8
LAYER_1
 62
     7
100
AcDbLine
 10
34.65766059027778
 20
177.4497853732638
 30
0.0
 11
36.19830729166666
 21
186.1658769531249
 31
0.0
  0
LINE
  5
33D2
102
{ACAD_REACTORS
330
33E0
102
}
330
33C0
100
AcDbEntity
  8
LAYER_1
 62
     7
100
AcDbLine
 10
36.19830729166666
 20
186.1658769531249
 30
0.0
 11
37.67556423611111
 21
177.4497853732638
 31
0.0
  0
LINE
  5
33D3
102
{ACAD_REACTORS
330
33E0
102
}
330
33C0
100
AcDbEntity
  8
LAYER_1
 62
     7
100
AcDbLine
 10
37.67556423611111
 20
177.4497853732638
 30
0.0
 11
34.65766059027778
 21
177.4497853732638
 31
0.0
  0
LINE
  5
33D4
102
{ACAD_REACTORS
330
33E0
102
}
330
33C0
100
AcDbEntity
  8
LAYER_1
 62
     7
100
AcDbLine
 10
31.83957248263888
 20
169.3358964843748
 30
0.0
 11
33.22450086805555
 21
169.3358964843748
 31
0.0
  0
LINE
  5
33D5
102
{ACAD_REACTORS
330
33E0
102
}
330
33C0
100
AcDbEntity
  8
LAYER_1
 62
     7
100
AcDbLine
 10
33.22450086805555
 20
169.3358964843748
 30
0.0
 11
34.27043185763887
 21
175.2590353732638
 31
0.0
  0
LINE
  5
33D6
102
{ACAD_REACTORS
330
33E0
102
}
330
33C0
100
AcDbEntity
  8
LAYER_1
 62
     7
100
AcDbLine
 10
34.27043185763887
 20
175.2590353732638
 30
0.0
 11
38.04694552951389
 21
175.2590353732638
 31
0.0
  0
LINE
  5
33D7
102
{ACAD_REACTORS
330
33E0
102
}
330
33C0
100
AcDbEntity
  8
LAYER_1
 62
     7
100
AcDbLine
 10
38.04694552951389
 20
175.2590353732638
 30
0.0
 11
39.05015733506942
 21
169.3358964843748
 31
0.0
  0
LINE
  5
33D8
102
{ACAD_REACTORS
330
33E0
102
}
330
33C0
100
AcDbEntity
  8
LAYER_1
 62
     7
100
AcDbLine
 10
39.05015733506942
 20
169.3358964843748
 30
0.0
 11
40.43508572048611
 21
169.3358964843748
 31
0.0
  0
LINE
  5
33D9
102
{ACAD_REACTORS
330
33E0
102
}
330
33C0
100
AcDbEntity
  8
LAYER_1
 62
     7
100
AcDbLine
 10
40.43508572048611
 20
169.3358964843748
 30
0.0
 11
36.952783203125
 21
189.0932159288193
 31
0.0
  0
LINE
  5
33DA
102
{ACAD_REACTORS
330
33E0
102
}
330
33C0
100
AcDbEntity
  8
LAYER_1
 62
     7
100
AcDbLine
 10
36.952783203125
 20
189.0932159288193
 30
0.0
 11
35.47828233506943
 21
189.0932159288193
 31
0.0
  0
LINE
  5
33DB
102
{ACAD_REACTORS
330
33E0
102
}
330
33C0
100
AcDbEntity
  8
LAYER_1
 62
     7
100
AcDbLine
 10
35.47828233506943
 20
189.0932159288193
 30
0.0
 11
31.83957248263888
 21
169.3358964843748
 31
0.0
  0
HATCH
  5
33DC
330
33C0
100
AcDbEntity
  8
0
  6
Continuous
100
AcDbHatch
 10
0.0
 20
0.0
 30
0.0
210
0.0
220
0.0
230
1.0
  2
SOLID
 70
     1
 71
     1
 91
        2
 92
       16
 93
        1
 72
     4
 94
        3
 73
     0
 74
     0
 95
       29
 96
       25
 40
0.0
 40
0.0
 40
0.0
 40
0.0
 40
1.0
 40
1.0
 40
1.0
 40
2.0
 40
2.0
 40
2.0
 40
3.0
 40
3.0
 40
3.0
 40
4.0
 40
4.0
 40
4.0
 40
5.0
 40
5.0
 40
5.0
 40
6.0
 40
6.0
 40
6.0
 40
7.0
 40
7.0
 40
7.0
 40
8.0
 40
8.0
 40
8.0
 40
8.0
 10
62.85697292751734
 20
171.3365874565971
 10
61.88338894314235
 20
171.3365874565971
 10
61.18058946397566
 20
172.0714263237844
 10
60.74857449001735
 20
173.5411040581595
 10
60.31587049696178
 20
175.0107817925344
 10
60.10020751953123
 20
176.8165630425344
 10
60.10020751953123
 20
178.9578276909721
 10
60.10020751953123
 20
181.6342534722221
 10
60.35101047092013
 20
183.6589360894095
 10
60.85261637369789
 20
185.032495659722
 10
61.35422227647566
 20
186.4054351128471
 10
62.00741238064235
 20
187.092524956597
 10
62.81218668619789
 20
187.092524956597
 10
63.6369425455729
 20
187.092524956597
 10
64.28806559244789
 20
186.3992339409721
 10
64.76486680772568
 20
185.0126519097221
 10
65.24166802300347
 20
183.6260698784719
 10
65.48006863064235
 20
181.7961040581595
 10
65.48006863064235
 20
179.5239946831596
 10
65.48006863064235
 20
177.3734282769096
 10
65.27336290147568
 20
175.471528862847
 10
64.86132948133678
 20
173.8176763237846
 10
64.4492960611979
 20
172.1632036675345
 10
63.78094753689235
 20
171.3365874565971
 10
62.85697292751734
 20
171.3365874565971
 97
        1
330
33C6
 92
        1
 93
        1
 72
     4
 94
        3
 73
     0
 74
     0
 95
       29
 96
       25
 40
0.0
 40
0.0
 40
0.0
 40
0.0
 40
1.0
 40
1.0
 40
1.0
 40
2.0
 40
2.0
 40
2.0
 40
3.0
 40
3.0
 40
3.0
 40
4.0
 40
4.0
 40
4.0
 40
5.0
 40
5.0
 40
5.0
 40
6.0
 40
6.0
 40
6.0
 40
7.0
 40
7.0
 40
7.0
 40
8.0
 40
8.0
 40
8.0
 40
8.0
 10
62.76119927300346
 20
189.4340874565971
 10
61.47273356119789
 20
189.4340874565971
 10
60.50121663411457
 20
188.239741753472
 10
59.84733751085068
 20
185.8516704644094
 10
59.3395304361979
 20
183.9900786675345
 10
59.08597140842012
 20
181.7514556206596
 10
59.08597140842012
 20
179.1351812065971
 10
59.08597140842012
 20
176.2379937065971
 10
59.38362765842011
 20
173.8412407769095
 10
59.97894015842011
 20
171.9449224175346
 10
60.64246554904511
 20
169.9779106987846
 10
61.56023898654511
 20
168.9950249565971
 10
62.7315714518229
 20
168.9950249565971
 10
63.9904093424479
 20
168.9950249565971
 10
64.95641411675345
 20
170.118677300347
 10
65.63027479383679
 20
172.3659819878471
 10
66.20629475911457
 20
174.279663628472
 10
66.49430474175345
 20
176.6813774956594
 10
66.49430474175345
 20
179.5698833550345
 10
66.49430474175345
 20
182.2388677300344
 10
66.24005669487845
 20
184.4291216362844
 10
65.73293863932289
 20
186.141265190972
 10
65.08870578342011
 20
188.336480034722
 10
64.09789632161457
 20
189.4340874565971
 10
62.76119927300346
 20
189.4340874565971
 97
        0
 75
     0
 76
     1
 98
        0
  0
HATCH
  5
33DD
330
33C0
100
AcDbEntity
  8
0
  6
Continuous
100
AcDbHatch
 10
0.0
 20
0.0
 30
0.0
210
0.0
220
0.0
230
1.0
  2
SOLID
 70
     1
 71
     1
 91
        1
 92
        1
 93
        1
 72
     4
 94
        3
 73
     0
 74
     0
 95
       59
 96
       55
 40
0.0
 40
0.0
 40
0.0
 40
0.0
 40
1.0
 40
1.0
 40
1.0
 40
2.0
 40
2.0
 40
2.0
 40
3.0
 40
3.0
 40
3.0
 40
4.0
 40
4.0
 40
4.0
 40
5.0
 40
5.0
 40
5.0
 40
6.0
 40
6.0
 40
6.0
 40
7.0
 40
7.0
 40
7.0
 40
8.0
 40
8.0
 40
8.0
 40
9.0
 40
9.0
 40
9.0
 40
10.0
 40
10.0
 40
10.0
 40
11.0
 40
11.0
 40
11.0
 40
12.0
 40
12.0
 40
12.0
 40
13.0
 40
13.0
 40
13.0
 40
14.0
 40
14.0
 40
14.0
 40
15.0
 40
15.0
 40
15.0
 40
16.0
 40
16.0
 40
16.0
 40
17.0
 40
17.0
 40
17.0
 40
18.0
 40
18.0
 40
18.0
 40
18.0
 10
49.39440104166666
 20
189.0932159288193
 10
49.39440104166666
 20
189.0932159288193
 10
51.24786241319444
 20
189.0932159288193
 10
51.24786241319444
 20
189.0932159288193
 10
51.24786241319444
 20
189.0932159288193
 10
54.04665798611111
 20
172.3887471788193
 10
54.04665798611111
 20
172.3887471788193
 10
54.04665798611111
 20
172.3887471788193
 10
56.83994140624999
 20
189.0932159288193
 10
56.83994140624999
 20
189.0932159288193
 10
56.83994140624999
 20
189.0932159288193
 10
58.69891493055554
 20
189.0932159288193
 10
58.69891493055554
 20
189.0932159288193
 10
58.69891493055554
 20
189.0932159288193
 10
58.69891493055554
 20
169.3358964843748
 10
58.69891493055554
 20
169.3358964843748
 10
58.69891493055554
 20
169.3358964843748
 10
57.46419270833333
 20
169.3358964843748
 10
57.46419270833333
 20
169.3358964843748
 10
57.46419270833333
 20
169.3358964843748
 10
57.46419270833333
 20
180.9964422743054
 10
57.46419270833333
 20
180.9964422743054
 10
57.46419270833333
 20
181.3996011284721
 10
57.47108289930555
 20
182.0677291666664
 10
57.48624131944444
 20
183.0001924913193
 10
57.50071072048609
 20
183.9326558159721
 10
57.50828993055554
 20
184.932312282986
 10
57.50828993055554
 20
185.9997957899304
 10
57.50828993055554
 20
185.9997957899304
 10
54.700537109375
 20
169.3358964843748
 10
54.700537109375
 20
169.3358964843748
 10
54.700537109375
 20
169.3358964843748
 10
53.38382161458333
 20
169.3358964843748
 10
53.38382161458333
 20
169.3358964843748
 10
53.38382161458333
 20
169.3358964843748
 10
50.58502604166665
 20
185.9997957899304
 10
50.58502604166665
 20
185.9997957899304
 10
50.58502604166665
 20
185.9997957899304
 10
50.58502604166665
 20
185.3944236111109
 10
50.58502604166665
 20
185.3944236111109
 10
50.58502604166665
 20
184.9101258680554
 10
50.59191623263888
 20
184.1729029947915
 10
50.60707465277777
 20
183.1821210937498
 10
50.62154405381943
 20
182.1913391927082
 10
50.62912326388889
 20
181.4629908854165
 10
50.62912326388889
 20
180.9964422743054
 10
50.62912326388889
 20
180.9964422743054
 10
50.62912326388889
 20
169.3358964843748
 10
50.62912326388889
 20
169.3358964843748
 10
50.62912326388889
 20
169.3358964843748
 10
49.39440104166666
 20
169.3358964843748
 10
49.39440104166666
 20
169.3358964843748
 10
49.39440104166666
 20
169.3358964843748
 10
49.39440104166666
 20
189.0932159288193
 10
49.39440104166666
 20
189.0932159288193
 97
        1
330
33C5
 75
     0
 76
     1
 98
        1
 10
0.0
 20
0.0
  0
HATCH
  5
33DE
330
33C0
100
AcDbEntity
  8
0
  6
Continuous
100
AcDbHatch
 10
0.0
 20
0.0
 30
0.0
210
0.0
220
0.0
230
1.0
  2
SOLID
 70
     1
 71
     1
 91
        2
 92
       16
 93
        1
 72
     4
 94
        3
 73
     0
 74
     0
 95
       32
 96
       28
 40
0.0
 40
0.0
 40
0.0
 40
0.0
 40
1.0
 40
1.0
 40
1.0
 40
2.0
 40
2.0
 40
2.0
 40
3.0
 40
3.0
 40
3.0
 40
4.0
 40
4.0
 40
4.0
 40
5.0
 40
5.0
 40
5.0
 40
6.0
 40
6.0
 40
6.0
 40
7.0
 40
7.0
 40
7.0
 40
8.0
 40
8.0
 40
8.0
 40
9.0
 40
9.0
 40
9.0
 40
9.0
 10
91.70051812065969
 20
171.6077853732636
 10
91.70051812065969
 20
171.6077853732636
 10
91.70051812065969
 20
186.7401881510414
 10
91.70051812065969
 20
186.7401881510414
 10
91.70051812065969
 20
186.7401881510414
 10
93.98668348524305
 20
186.7401881510414
 10
93.98668348524305
 20
186.7401881510414
 10
95.02159016927082
 20
186.7401881510414
 10
95.77331000434028
 20
186.0644533420137
 10
96.24322102864582
 20
184.7142515190969
 10
96.71313205295138
 20
183.3640496961804
 10
96.94808756510417
 20
181.4680620659721
 10
96.94808756510417
 20
179.026288628472
 10
96.94808756510417
 20
178.3911232638887
 10
96.91432562934028
 20
177.7027105034721
 10
96.84749077690971
 20
176.9604164496525
 10
96.7324245876736
 20
175.7167094184025
 10
96.55052354600693
 20
174.6974021267359
 10
96.30109863281248
 20
173.9018606770831
 10
95.98414984809028
 20
172.9091770833332
 10
95.57693956163193
 20
172.2378795572914
 10
95.07877875434026
 20
171.8892358940971
 10
94.79076877170138
 20
171.7016022135415
 10
94.43178982204859
 20
171.6077853732636
 10
94.00115288628471
 20
171.6077853732636
 10
94.00115288628471
 20
171.6077853732636
 10
91.70051812065969
 20
171.6077853732636
 10
91.70051812065969
 20
171.6077853732636
 97
        1
330
33CA
 92
        1
 93
        1
 72
     4
 94
        3
 73
     0
 74
     0
 95
       26
 96
       22
 40
0.0
 40
0.0
 40
0.0
 40
0.0
 40
1.0
 40
1.0
 40
1.0
 40
2.0
 40
2.0
 40
2.0
 40
3.0
 40
3.0
 40
3.0
 40
4.0
 40
4.0
 40
4.0
 40
5.0
 40
5.0
 40
5.0
 40
6.0
 40
6.0
 40
6.0
 40
7.0
 40
7.0
 40
7.0
 40
7.0
 10
90.37760145399305
 20
169.3358964843748
 10
90.37760145399305
 20
169.3358964843748
 10
94.22990722656248
 20
169.3358964843748
 10
94.22990722656248
 20
169.3358964843748
 10
95.87115071614581
 20
169.3358964843748
 10
97.03008083767359
 20
170.8331625434026
 10
97.70600857204859
 20
173.8283285590275
 10
98.08221299913194
 20
175.5227367621525
 10
98.27100423177082
 20
177.4187243923609
 10
98.27100423177082
 20
179.5169253472221
 10
98.27100423177082
 20
182.233810329861
 10
97.94716525607638
 20
184.4619602864582
 10
97.30086534288195
 20
186.2013752170136
 10
96.57601725260416
 20
188.1290577256942
 10
95.5576470269097
 20
189.0932159288193
 10
94.24437662760416
 20
189.0932159288193
 10
94.24437662760416
 20
189.0932159288193
 10
90.37760145399305
 20
189.0932159288193
 10
90.37760145399305
 20
189.0932159288193
 10
90.37760145399305
 20
189.0932159288193
 10
90.37760145399305
 20
169.3358964843748
 10
90.37760145399305
 20
169.3358964843748
 97
        0
 75
     0
 76
     1
 98
        0
  0
HATCH
  5
33DF
330
33C0
100
AcDbEntity
  8
0
  6
Continuous
100
AcDbHatch
 10
0.0
 20
0.0
 30
0.0
210
0.0
220
0.0
230
1.0
  2
SOLID
 70
     1
 71
     1
 91
        2
 92
       16
 93
        1
 72
     4
 94
        3
 73
     0
 74
     0
 95
       26
 96
       22
 40
0.0
 40
0.0
 40
0.0
 40
0.0
 40
1.0
 40
1.0
 40
1.0
 40
2.0
 40
2.0
 40
2.0
 40
3.0
 40
3.0
 40
3.0
 40
4.0
 40
4.0
 40
4.0
 40
5.0
 40
5.0
 40
5.0
 40
6.0
 40
6.0
 40
6.0
 40
7.0
 40
7.0
 40
7.0
 40
7.0
 10
100.5623372395832
 20
180.0462298177081
 10
100.5623372395832
 20
180.0462298177081
 10
100.5623372395832
 20
186.7401881510414
 10
100.5623372395832
 20
186.7401881510414
 10
100.5623372395832
 20
186.7401881510414
 10
103.6732584635416
 20
186.7401881510414
 10
103.6732584635416
 20
186.7401881510414
 10
104.1107855902777
 20
186.7401881510414
 10
104.4580512152777
 20
186.6064357638887
 10
104.7150553385415
 20
186.3401987847219
 10
105.2097710503471
 20
185.8330807291664
 10
105.4571289062498
 20
184.8822343749997
 10
105.4571289062498
 20
183.4863919270832
 10
105.4571289062498
 20
182.188169704861
 10
105.280740017361
 20
181.2905707465276
 10
104.9286512586804
 20
180.7929611545137
 10
104.5765624999999
 20
180.2947176649304
 10
104.1011393229166
 20
180.0462298177081
 10
103.5023817274304
 20
180.0462298177081
 10
103.5023817274304
 20
180.0462298177081
 10
100.5623372395832
 20
180.0462298177081
 10
100.5623372395832
 20
180.0462298177081
 97
        1
330
33CB
 92
        1
 93
        1
 72
     4
 94
        3
 73
     0
 74
     0
 95
       68
 96
       64
 40
0.0
 40
0.0
 40
0.0
 40
0.0
 40
1.0
 40
1.0
 40
1.0
 40
2.0
 40
2.0
 40
2.0
 40
3.0
 40
3.0
 40
3.0
 40
4.0
 40
4.0
 40
4.0
 40
5.0
 40
5.0
 40
5.0
 40
6.0
 40
6.0
 40
6.0
 40
7.0
 40
7.0
 40
7.0
 40
8.0
 40
8.0
 40
8.0
 40
9.0
 40
9.0
 40
9.0
 40
10.0
 40
10.0
 40
10.0
 40
11.0
 40
11.0
 40
11.0
 40
12.0
 40
12.0
 40
12.0
 40
13.0
 40
13.0
 40
13.0
 40
14.0
 40
14.0
 40
14.0
 40
15.0
 40
15.0
 40
15.0
 40
16.0
 40
16.0
 40
16.0
 40
17.0
 40
17.0
 40
17.0
 40
18.0
 40
18.0
 40
18.0
 40
19.0
 40
19.0
 40
19.0
 40
20.0
 40
20.0
 40
20.0
 40
21.0
 40
21.0
 40
21.0
 40
21.0
 10
99.23942057291661
 20
169.3358964843748
 10
99.23942057291661
 20
169.3358964843748
 10
100.5623372395832
 20
169.3358964843748
 10
100.5623372395832
 20
169.3358964843748
 10
100.5623372395832
 20
169.3358964843748
 10
100.5623372395832
 20
177.8149103732637
 10
100.5623372395832
 20
177.8149103732637
 10
100.5623372395832
 20
177.8149103732637
 10
103.4472601996527
 20
177.8149103732637
 10
103.4472601996527
 20
177.8149103732637
 10
103.9681586371527
 20
177.8149103732637
 10
104.3519422743053
 20
177.6938359374998
 10
104.5986111111109
 20
177.451687065972
 10
105.0244249131943
 20
177.0117621527776
 10
105.2518012152777
 20
176.1458580729164
 10
105.280740017361
 20
174.8539748263887
 10
105.280740017361
 20
174.8539748263887
 10
105.3689344618053
 20
171.5564396701386
 10
105.3689344618053
 20
171.5564396701386
 10
105.3882269965277
 20
170.7843524305554
 10
105.4109646267359
 20
170.2639225260415
 10
105.4357693142359
 20
169.9951499565971
 10
105.4605740017359
 20
169.7257434895831
 10
105.4970920138888
 20
169.5057810329859
 10
105.5467013888887
 20
169.3358964843748
 10
105.5467013888887
 20
169.3358964843748
 10
107.1769205729166
 20
169.3358964843748
 10
107.1769205729166
 20
169.3358964843748
 10
107.1769205729166
 20
169.3358964843748
 10
107.1769205729166
 20
169.7821603732636
 10
107.1769205729166
 20
169.7821603732636
 10
106.9750379774303
 20
169.9609194878471
 10
106.8337890624998
 20
170.3628105468748
 10
106.7538628472221
 20
170.9878335503471
 10
106.7028754340275
 20
171.3542263454858
 10
106.6677354600692
 20
171.9120562065971
 10
106.6477539062498
 20
172.6625909288193
 10
106.6477539062498
 20
172.6625909288193
 10
106.6036566840277
 20
175.3205234374999
 10
106.6036566840277
 20
175.3205234374999
 10
106.5836751302082
 20
176.4716814236109
 10
106.4768771701387
 20
177.3033550347219
 10
106.2839518229166
 20
177.8142764756942
 10
106.0903374565971
 20
178.3251979166665
 10
105.8002604166666
 20
178.7372313368054
 10
105.4130316840276
 20
179.0516445312498
 10
105.8443576388887
 20
179.5086846788193
 10
106.179909939236
 20
180.1134229600693
 10
106.4196885850692
 20
180.8664932725692
 10
106.6594672309027
 20
181.6189296874999
 10
106.7800455729166
 20
182.5868912760414
 10
106.7800455729166
 20
183.7697441406248
 10
106.7800455729166
 20
186.0371957465275
 10
106.3328721788193
 20
187.5921464843749
 10
105.4392144097221
 20
188.4345963541665
 10
104.9679253472221
 20
188.8732534722221
 10
104.3719238281249
 20
189.0932159288193
 10
103.6512098524303
 20
189.0932159288193
 10
103.6512098524303
 20
189.0932159288193
 10
99.23942057291661
 20
189.0932159288193
 10
99.23942057291661
 20
189.0932159288193
 10
99.23942057291661
 20
189.0932159288193
 10
99.23942057291661
 20
169.3358964843748
 10
99.23942057291661
 20
169.3358964843748
 97
        0
 75
     0
 76
     1
 98
        0
  0
HATCH
  5
33E0
330
33C0
100
AcDbEntity
  8
0
  6
Continuous
100
AcDbHatch
 10
0.0
 20
0.0
 30
0.0
210
0.0
220
0.0
230
1.0
  2
SOLID
 70
     1
 71
     1
 91
        2
 92
        1
 93
        8
 72
     1
 10
35.47828233506943
 20
189.0932159288193
 11
31.83957248263888
 21
169.3358964843748
 72
     1
 10
31.83957248263888
 20
169.3358964843748
 11
33.22450086805555
 21
169.3358964843748
 72
     1
 10
33.22450086805555
 20
169.3358964843748
 11
34.27043185763887
 21
175.2590353732638
 72
     1
 10
34.27043185763887
 20
175.2590353732638
 11
38.04694552951389
 21
175.2590353732638
 72
     1
 10
38.04694552951389
 20
175.2590353732638
 11
39.05015733506942
 21
169.3358964843748
 72
     1
 10
39.05015733506942
 20
169.3358964843748
 11
40.43508572048611
 21
169.3358964843748
 72
     1
 10
40.43508572048611
 20
169.3358964843748
 11
36.952783203125
 21
189.0932159288193
 72
     1
 10
36.952783203125
 20
189.0932159288193
 11
35.47828233506943
 21
189.0932159288193
 97
        8
330
33DB
330
33D4
330
33D5
330
33D6
330
33D7
330
33D8
330
33D9
330
33DA
 92
       16
 93
        3
 72
     1
 10
37.67556423611111
 20
177.4497853732638
 11
34.65766059027778
 21
177.4497853732638
 72
     1
 10
34.65766059027778
 20
177.4497853732638
 11
36.19830729166666
 21
186.1658769531249
 72
     1
 10
36.19830729166666
 20
186.1658769531249
 11
37.67556423611111
 21
177.4497853732638
 97
        3
330
33D3
330
33D1
330
33D2
 75
     0
 76
     1
 98
        1
 10
0.0
 20
0.0
  0
HATCH
  5
33E1
330
33C0
100
AcDbEntity
  8
0
  6
Continuous
100
AcDbHatch
 10
0.0
 20
0.0
 30
0.0
210
0.0
220
0.0
230
1.0
  2
SOLID
 70
     1
 71
     1
 91
        1
 92
        1
 93
        1
 72
     4
 94
        3
 73
     0
 74
     0
 95
      113
 96
      109
 40
0.0
 40
0.0
 40
0.0
 40
0.0
 40
1.0
 40
1.0
 40
1.0
 40
2.0
 40
2.0
 40
2.0
 40
3.0
 40
3.0
 40
3.0
 40
4.0
 40
4.0
 40
4.0
 40
5.0
 40
5.0
 40
5.0
 40
6.0
 40
6.0
 40
6.0
 40
7.0
 40
7.0
 40
7.0
 40
8.0
 40
8.0
 40
8.0
 40
9.0
 40
9.0
 40
9.0
 40
10.0
 40
10.0
 40
10.0
 40
11.0
 40
11.0
 40
11.0
 40
12.0
 40
12.0
 40
12.0
 40
13.0
 40
13.0
 40
13.0
 40
14.0
 40
14.0
 40
14.0
 40
15.0
 40
15.0
 40
15.0
 40
16.0
 40
16.0
 40
16.0
 40
17.0
 40
17.0
 40
17.0
 40
18.0
 40
18.0
 40
18.0
 40
19.0
 40
19.0
 40
19.0
 40
20.0
 40
20.0
 40
20.0
 40
21.0
 40
21.0
 40
21.0
 40
22.0
 40
22.0
 40
22.0
 40
23.0
 40
23.0
 40
23.0
 40
24.0
 40
24.0
 40
24.0
 40
25.0
 40
25.0
 40
25.0
 40
26.0
 40
26.0
 40
26.0
 40
27.0
 40
27.0
 40
27.0
 40
28.0
 40
28.0
 40
28.0
 40
29.0
 40
29.0
 40
29.0
 40
30.0
 40
30.0
 40
30.0
 40
31.0
 40
31.0
 40
31.0
 40
32.0
 40
32.0
 40
32.0
 40
33.0
 40
33.0
 40
33.0
 40
34.0
 40
34.0
 40
34.0
 40
35.0
 40
35.0
 40
35.0
 40
36.0
 40
36.0
 40
36.0
 40
36.0
 10
193.3039632161458
 20
186.1548733181423
 10
193.3039632161458
 20
186.1860514322916
 10
193.3039632161458
 20
219.6932223849826
 10
193.3039632161458
 20
219.6932223849826
 10
193.3039632161458
 20
219.6932223849826
 10
193.2974175347219
 20
219.7488606770833
 10
193.2974175347219
 20
219.7488606770833
 10
191.5293945312499
 20
235.455740017361
 10
175.1458984374999
 20
235.2467949761284
 10
174.9808783637151
 20
235.2428331163193
 10
174.9808783637151
 20
235.2428331163193
 10
125.8827555338541
 20
235.2430053710937
 10
125.8827555338541
 20
235.2430053710937
 10
125.8827555338541
 20
235.2430053710937
 10
125.8827555338541
 20
255.5278998480901
 10
125.8827555338541
 20
255.5278998480901
 10
125.8827555338541
 20
255.5278998480901
 10
84.5626247829861
 20
255.5278998480901
 10
84.5626247829861
 20
255.5278998480901
 10
84.5626247829861
 20
255.5278998480901
 10
84.55711263020829
 20
233.7919311523436
 10
84.55711263020829
 20
233.7919311523436
 10
84.55711263020829
 20
233.7919311523436
 10
64.42052951388888
 20
233.7919311523436
 10
64.42052951388888
 20
233.7919311523436
 10
64.42052951388888
 20
233.7919311523436
 10
64.41501736111111
 20
255.5278998480901
 10
64.41501736111111
 20
255.5278998480901
 10
64.41501736111111
 20
255.5278998480901
 10
23.91757541232637
 20
255.5278998480901
 10
23.91757541232637
 20
255.5278998480901
 10
23.91757541232637
 20
255.5278998480901
 10
23.91757541232637
 20
233.2393378363715
 10
23.91757541232637
 20
233.2393378363715
 10
23.91757541232637
 20
233.2393378363715
 10
43.65624999999999
 20
233.2393378363715
 10
43.65624999999999
 20
233.2393378363715
 10
43.65624999999999
 20
233.2393378363715
 10
43.65624999999999
 20
211.5188720703125
 10
43.65624999999999
 20
211.5188720703125
 10
43.65624999999999
 20
211.5188720703125
 10
23.91757541232637
 20
211.5188720703125
 10
23.91757541232637
 20
211.5188720703125
 10
23.91757541232637
 20
211.5188720703125
 10
23.91757541232637
 20
189.2303100585936
 10
23.91757541232637
 20
189.2303100585936
 10
23.91757541232637
 20
189.2303100585936
 10
64.41501736111111
 20
189.2303100585936
 10
64.41501736111111
 20
189.2303100585936
 10
64.41501736111111
 20
189.2303100585936
 10
64.42052951388888
 20
211.069976128472
 10
64.42052951388888
 20
211.069976128472
 10
64.42052951388888
 20
211.069976128472
 10
84.55711263020829
 20
211.069976128472
 10
84.55711263020829
 20
211.069976128472
 10
84.55711263020829
 20
211.069976128472
 10
84.5626247829861
 20
189.2303100585936
 10
84.5626247829861
 20
189.2303100585936
 10
84.5626247829861
 20
189.2303100585936
 10
125.8827555338541
 20
189.2303100585936
 10
125.8827555338541
 20
189.2303100585936
 10
125.8827555338541
 20
189.2303100585936
 10
125.8827555338541
 20
211.5188720703125
 10
125.8827555338541
 20
211.5188720703125
 10
125.8827555338541
 20
211.5188720703125
 10
105.3213921440971
 20
211.5188720703125
 10
105.3213921440971
 20
211.5188720703125
 10
105.3213921440971
 20
211.5188720703125
 10
105.3213921440971
 20
233.2393378363715
 10
105.3213921440971
 20
233.2393378363715
 10
105.3213921440971
 20
233.2393378363715
 10
175.0046495225693
 20
233.243127441406
 10
175.0046495225693
 20
233.243127441406
 10
175.6268337673611
 20
233.2560465494791
 10
189.7165852864583
 20
233.3962619357638
 10
191.3037407769094
 20
219.5690266927083
 10
191.3037407769094
 20
219.4332899305555
 10
191.3037407769094
 20
186.1142211914062
 10
191.3037407769094
 20
186.1142211914062
 10
191.3037407769094
 20
186.1142211914062
 10
191.3051188151039
 20
186.0880384657115
 10
191.3051188151039
 20
186.0880384657115
 10
191.3054633246526
 20
186.0787367078991
 10
191.3109754774304
 20
185.9566080729166
 10
191.3109754774304
 20
185.7399115668401
 10
191.3109754774304
 20
184.2090833875865
 10
191.0488037109374
 20
177.9643310546874
 10
186.9866916232638
 20
173.5652886284722
 10
184.2540418836804
 20
170.6064683702255
 10
180.3224989149304
 20
169.0308539496526
 10
175.300927734375
 20
168.8825425889756
 10
175.300927734375
 20
168.8825425889756
 10
107.0094889322916
 20
168.8828870985243
 10
107.0094889322916
 20
168.8828870985243
 10
107.0094889322916
 20
168.8828870985243
 10
107.0094889322916
 20
166.8830091688368
 10
107.0094889322916
 20
166.8830091688368
 10
107.0094889322916
 20
166.8830091688368
 10
175.3305555555555
 20
166.8830091688368
 10
175.3305555555555
 20
166.8830091688368
 10
180.9467502170138
 20
167.0485460069444
 10
185.3571614583333
 20
168.8448187934026
 10
188.4687717013888
 20
172.2223904079861
 10
192.9649658203124
 20
177.1034016927083
 10
193.3136094835069
 20
183.7202243381076
 10
193.3136094835069
 20
185.6520616319443
 10
193.3136094835069
 20
185.9247409396701
 10
193.3070638020833
 20
186.0868326822916
 10
193.3039632161458
 20
186.1548733181423
 97
        1
330
33C1
 75
     0
 76
     1
 98
        1
 10
0.0
 20
0.0
  0
HATCH
  5
33E2
330
33C0
100
AcDbEntity
  8
0
  6
Continuous
100
AcDbHatch
 10
0.0
 20
0.0
 30
0.0
210
0.0
220
0.0
230
1.0
  2
SOLID
 70
     1
 71
     1
 91
        2
 92
        1
 93
        1
 72
     4
 94
        3
 73
     0
 74
     0
 95
       23
 96
       19
 40
0.0
 40
0.0
 40
0.0
 40
0.0
 40
1.0
 40
1.0
 40
1.0
 40
2.0
 40
2.0
 40
2.0
 40
3.0
 40
3.0
 40
3.0
 40
4.0
 40
4.0
 40
4.0
 40
5.0
 40
5.0
 40
5.0
 40
6.0
 40
6.0
 40
6.0
 40
6.0
 10
148.6593153211804
 20
211.3929538302948
 10
148.6593153211804
 20
211.3929538302948
 10
148.6593153211804
 20
189.6308024088539
 10
148.6593153211804
 20
189.6308024088539
 10
148.6593153211804
 20
189.6308024088539
 10
161.3152180989583
 20
189.6308024088539
 10
161.3152180989583
 20
189.6308024088539
 10
162.8431179470484
 20
189.6308024088539
 10
170.4657362196179
 20
190.1880466037322
 10
170.4657362196179
 20
201.1911648220483
 10
170.4657362196179
 20
211.1288872612844
 10
162.3356553819444
 20
211.3914035373261
 10
162.2536621093749
 20
211.3927815755205
 10
162.2536621093749
 20
211.3927815755205
 10
149.6594265407986
 20
211.3929538302948
 10
149.6594265407986
 20
211.3929538302948
 10
149.6594265407986
 20
211.3929538302948
 10
148.6593153211804
 20
211.3929538302948
 10
148.6593153211804
 20
211.3929538302948
 97
        1
330
33C2
 92
       16
 93
        1
 72
     4
 94
        3
 73
     0
 74
     0
 95
       20
 96
       16
 40
0.0
 40
0.0
 40
0.0
 40
0.0
 40
1.0
 40
1.0
 40
1.0
 40
2.0
 40
2.0
 40
2.0
 40
3.0
 40
3.0
 40
3.0
 40
4.0
 40
4.0
 40
4.0
 40
5.0
 40
5.0
 40
5.0
 40
5.0
 10
162.2354031032985
 20
209.3930759006072
 10
162.467947048611
 20
209.3861857096351
 10
168.4655137803819
 20
209.1283203124997
 10
168.4655137803819
 20
201.1911648220483
 10
168.4655137803819
 20
192.3202162000865
 10
162.9926350911458
 20
191.6306803385413
 10
161.3152180989583
 20
191.6306803385413
 10
161.3152180989583
 20
191.6306803385413
 10
152.3310980902776
 20
191.6306803385413
 10
150.6595377604166
 20
191.6306803385413
 10
150.6595377604166
 20
193.3373806423608
 10
150.6595377604166
 20
207.6863755967879
 10
150.6595377604166
 20
209.3930759006072
 10
152.353835720486
 20
209.3930759006072
 10
162.2354031032985
 20
209.3930759006072
 10
162.2354031032985
 20
209.3930759006072
 97
        0
 75
     0
 76
     1
 98
        0
  0
ENDBLK
  5
33E4
330
33C0
100
AcDbEntity
  8
0
100
AcDbBlockEnd
  0
BLOCK
  5
33E7
330
33E5
100
AcDbEntity
  8
0
100
AcDbBlockBegin
  2
HD logo-new
 70
     0
 10
0.0
 20
0.0
 30
0.0
  3
HD logo-new
  1

  0
INSERT
  5
33E6
330
33E5
100
AcDbEntity
  8
0
 62
     3
100
AcDbBlockReference
  2
HD_LLC_logo_OT5
 10
-27.1607188578505
 20
-68.37367811463031
 30
0.0
 41
0.2999999999999971
 42
0.3000000000000007
 43
0.3
  0
ENDBLK
  5
33E8
330
33E5
100
AcDbEntity
  8
0
100
AcDbBlockEnd
  0
BLOCK
  5
33EB
330
33E9
100
AcDbEntity
  8
0
100
AcDbBlockBegin
  2
HD Logo
 70
     0
 10
0.0
 20
0.0
 30
0.0
  3
HD Logo
  1

  0
INSERT
  5
33EA
330
33E9
100
AcDbEntity
  8
0
100
AcDbBlockReference
  2
HD logo-new
 10
0.9700256734946606
 20
7.273795608420527
 30
0.0
  0
ENDBLK
  5
33EC
330
33E9
100
AcDbEntity
  8
0
100
AcDbBlockEnd
  0
BLOCK
  5
3403
330
3401
100
AcDbEntity
  8
0
100
AcDbBlockBegin
  2
Harmonic Drive LLC
 70
     0
 10
0.0
 20
0.0
 30
0.0
  3
Harmonic Drive LLC
  1

  0
MTEXT
  5
3402
330
3401
100
AcDbEntity
  8
0
100
AcDbMText
 10
189.3064368747374
 20
-164.4147342669637
 30
0.0
 40
3.5
 41
76.932
 71
     5
 72
     5
  1
Harmonic Drive LLC\P800-921-3332\Pwww.harmonicdrive.net
 73
     1
 44
1.0
  0
ENDBLK
  5
3404
330
3401
100
AcDbEntity
  8
0
100
AcDbBlockEnd
  0
BLOCK
  5
3415
330
3412
100
AcDbEntity
  8
0
100
AcDbBlockBegin
  2
NTC
 70
     0
 10
0.0
 20
0.0
 30
0.0
  3
NTC
  1

  0
LWPOLYLINE
  5
3413
330
3412
100
AcDbEntity
  8
0
100
AcDbPolyline
 90
        8
 70
     1
 43
0.0
 10
4.581008201925953
 20
-10.78862239032818
 10
319.3921777697513
 20
-10.78862239032818
 42
-0.4142135623730951
 10
324.9046777697513
 20
-16.30112239032816
 10
324.9046777697513
 20
-117.4075202476924
 42
-0.4142135623730951
 10
319.3921777697513
 20
-122.9200202476925
 10
4.581008201925838
 20
-122.9200202476925
 42
-0.4142135623730951
 10
-0.9314917980741483
 20
-117.4075202476924
 10
-0.9314917980740915
 20
-16.30112239032816
 42
-0.4142135623730951
  0
MTEXT
  5
3414
330
3412
100
AcDbEntity
  8
0
  6
Continuous
370
    30
100
AcDbMText
 10
21.65307678143926
 20
-17.4535155144544
 30
0.0
 40
8.75
 41
294.5432999999998
 71
     1
 72
     5
  3
{\fTxt|b1|i0|c0|p2;Notice:\P\Ftxt.shx;\H0.5714x;All specifications and dimensions shown in the drawing are subject to change without notice. This drawing is the property of Harmonic Drive LLC.   This data is believed to be accurate, however, Harmonic
  1
 Drive LLC assumes no liability for any errors or omissions in the specifications, models, or drawings.\P\PHarmonic Drive LLC\PTel: 800-921-3332\Pwww.harmonicdrive.net}
 73
     1
 44
1.0
  0
ENDBLK
  5
3416
330
3412
100
AcDbEntity
  8
0
100
AcDbBlockEnd
  0
ENDSEC
  0
SECTION
  2
ENTITIES
  0
LINE
  5
317B
330
315B
100
AcDbEntity
  8
0
 62
     7
100
AcDbLine
 10
179.3371978621919
 20
193.5359504245747
 30
0.0
 11
179.3371978621919
 21
191.465950455666
 31
0.0
  0
LINE
  5
317C
330
315B
100
AcDbEntity
  8
0
 62
     7
100
AcDbLine
 10
178.3171978775149
 20
193.5359504246255
 30
0.0
 11
179.6371978576876
 21
193.5359504245747
 31
0.0
  0
LINE
  5
317D
330
315B
100
AcDbEntity
  8
0
 62
     7
100
AcDbLine
 10
178.4471978755645
 20
192.4771854047714
 30
0.0
 11
178.3171978775149
 21
193.5359504246255
 31
0.0
  0
LINE
  5
317E
330
315B
100
AcDbEntity
  8
0
 62
     7
100
AcDbLine
 10
178.4471978755595
 20
191.465950455666
 30
0.0
 11
178.4471978755645
 21
192.4771854047714
 31
0.0
  0
LINE
  5
317F
330
315B
100
AcDbEntity
  8
0
 62
     7
100
AcDbLine
 10
179.6371978576876
 20
191.465950455666
 30
0.0
 11
178.4471978755595
 21
191.465950455666
 31
0.0
  0
LINE
  5
3180
330
315B
100
AcDbEntity
  8
0
 62
     7
100
AcDbLine
 10
179.3371978621919
 20
220.8959500136584
 30
0.0
 11
179.3371978621919
 21
222.9659499825745
 31
0.0
  0
LINE
  5
3181
330
315B
100
AcDbEntity
  8
0
 62
     7
100
AcDbLine
 10
178.3171978775149
 20
220.8959500136125
 30
0.0
 11
179.6371978576876
 21
220.8959500136584
 31
0.0
  0
LINE
  5
3182
330
315B
100
AcDbEntity
  8
0
 62
     7
100
AcDbLine
 10
178.4471978755645
 20
221.9547150334564
 30
0.0
 11
178.3171978775149
 21
220.8959500136125
 31
0.0
  0
LINE
  5
3183
330
315B
100
AcDbEntity
  8
0
 62
     7
100
AcDbLine
 10
178.4471978755595
 20
222.9659499825745
 30
0.0
 11
178.4471978755645
 21
221.9547150334564
 31
0.0
  0
LINE
  5
3184
330
315B
100
AcDbEntity
  8
0
 62
     7
100
AcDbLine
 10
179.6371978576876
 20
222.9659499825745
 30
0.0
 11
178.4471978755595
 21
222.9659499825745
 31
0.0
  0
LINE
  5
3185
330
315B
100
AcDbEntity
  8
0
 62
     7
100
AcDbLine
 10
177.889697883946
 20
190.8299504652113
 30
0.0
 11
177.889697883946
 21
193.8809504194096
 31
0.0
  0
LINE
  5
3186
330
315B
100
AcDbEntity
  8
0
 62
     7
100
AcDbLine
 10
183.9846977923865
 20
190.8299504651605
 30
0.0
 11
183.9846977923917
 21
193.8809504194096
 31
0.0
  0
LINE
  5
3187
330
315B
100
AcDbEntity
  8
0
 62
     7
100
AcDbLine
 10
183.8621977942434
 20
193.8809504194096
 30
0.0
 11
181.6675853955312
 21
193.8809504194096
 31
0.0
  0
LINE
  5
3188
330
315B
100
AcDbEntity
  8
0
 62
     7
100
AcDbLine
 10
184.1121977904776
 20
194.1309504156033
 30
0.0
 11
183.8621977942434
 21
193.8809504194096
 31
0.0
  0
LINE
  5
3189
330
315B
100
AcDbEntity
  8
0
 62
     7
100
AcDbLine
 10
184.1121977904776
 20
194.4809504103708
 30
0.0
 11
184.1121977904776
 21
194.1309504156033
 31
0.0
  0
LINE
  5
318A
330
315B
100
AcDbEntity
  8
0
 62
     7
100
AcDbLine
 10
183.9121977934794
 20
194.6809504073661
 30
0.0
 11
184.1121977904776
 21
194.4809504103708
 31
0.0
  0
LINE
  5
318B
330
315B
100
AcDbEntity
  8
0
 62
     7
100
AcDbLine
 10
177.9621978828405
 20
194.6809504073917
 30
0.0
 11
183.9121977934794
 21
194.6809504073661
 31
0.0
  0
LINE
  5
318C
330
315B
100
AcDbEntity
  8
0
 62
     7
100
AcDbLine
 10
177.762197885845
 20
194.4809504103708
 30
0.0
 11
177.9621978828405
 21
194.6809504073917
 31
0.0
  0
LINE
  5
318D
330
315B
100
AcDbEntity
  8
0
 62
     7
100
AcDbLine
 10
177.762197885845
 20
194.1309504156541
 30
0.0
 11
177.762197885845
 21
194.4809504103708
 31
0.0
  0
LINE
  5
318E
330
315B
100
AcDbEntity
  8
0
 62
     7
100
AcDbLine
 10
178.0121978821146
 20
193.8809504194096
 30
0.0
 11
177.762197885845
 21
194.1309504156541
 31
0.0
  0
LINE
  5
318F
330
315B
100
AcDbEntity
  8
0
 62
     7
100
AcDbLine
 10
180.2068102808129
 20
193.8809504194096
 30
0.0
 11
178.0121978821146
 21
193.8809504194096
 31
0.0
  0
LINE
  5
3190
330
315B
100
AcDbEntity
  8
0
 62
     7
100
AcDbLine
 10
183.7846977953962
 20
191.0299504622068
 30
0.0
 11
181.6022045950132
 21
191.0299504622068
 31
0.0
  0
LINE
  5
3191
330
315B
100
AcDbEntity
  8
0
 62
     7
100
AcDbLine
 10
183.9846977923865
 20
190.8299504651605
 30
0.0
 11
183.7846977953962
 21
191.0299504622068
 31
0.0
  0
LINE
  5
3192
330
315B
100
AcDbEntity
  8
0
 62
     7
100
AcDbLine
 10
183.9846977924039
 20
190.4988905779228
 30
0.0
 11
183.9846977923865
 21
190.8299504651605
 31
0.0
  0
LINE
  5
3193
330
315B
100
AcDbEntity
  8
0
 62
     7
100
AcDbLine
 10
183.5846977984006
 20
190.2679504737271
 30
0.0
 11
183.9846977924039
 21
190.4988905779228
 31
0.0
  0
LINE
  5
3194
330
315B
100
AcDbEntity
  8
0
 62
     7
100
AcDbLine
 10
178.2896978779371
 20
190.2679504737271
 30
0.0
 11
183.5846977984006
 21
190.2679504737271
 31
0.0
  0
LINE
  5
3195
330
315B
100
AcDbEntity
  8
0
 62
     7
100
AcDbLine
 10
177.889697883946
 20
190.4988905779228
 30
0.0
 11
178.2896978779371
 21
190.2679504737271
 31
0.0
  0
LINE
  5
3196
330
315B
100
AcDbEntity
  8
0
 62
     7
100
AcDbLine
 10
177.889697883946
 20
190.8299504652113
 30
0.0
 11
177.889697883946
 21
190.4988905779228
 31
0.0
  0
LINE
  5
3197
330
315B
100
AcDbEntity
  8
0
 62
     7
100
AcDbLine
 10
178.0896978809414
 20
191.0299504622068
 30
0.0
 11
177.889697883946
 21
190.8299504652113
 31
0.0
  0
LINE
  5
3198
330
315B
100
AcDbEntity
  8
0
 62
     7
100
AcDbLine
 10
180.2721910813093
 20
191.0299504622068
 30
0.0
 11
178.0896978809414
 21
191.0299504622068
 31
0.0
  0
LINE
  5
3199
330
315B
100
AcDbEntity
  8
0
 62
     7
100
AcDbLine
 10
177.889697883946
 20
223.6019499730268
 30
0.0
 11
177.889697883946
 21
220.5509500188308
 31
0.0
  0
LINE
  5
319A
330
315B
100
AcDbEntity
  8
0
 62
     7
100
AcDbLine
 10
183.9846977923865
 20
223.6019499730751
 30
0.0
 11
183.9846977923917
 21
220.5509500188308
 31
0.0
  0
LINE
  5
319B
330
315B
100
AcDbEntity
  8
0
 62
     7
100
AcDbLine
 10
183.8621977942434
 20
220.5509500188308
 30
0.0
 11
181.6675853955312
 21
220.5509500188308
 31
0.0
  0
LINE
  5
319C
330
315B
100
AcDbEntity
  8
0
 62
     7
100
AcDbLine
 10
184.1121977904776
 20
220.3009500226399
 30
0.0
 11
183.8621977942434
 21
220.5509500188308
 31
0.0
  0
LINE
  5
319D
330
315B
100
AcDbEntity
  8
0
 62
     7
100
AcDbLine
 10
184.1121977904776
 20
219.9509500278596
 30
0.0
 11
184.1121977904776
 21
220.3009500226399
 31
0.0
  0
LINE
  5
319E
330
315B
100
AcDbEntity
  8
0
 62
     7
100
AcDbLine
 10
183.9121977934794
 20
219.7509500308691
 30
0.0
 11
184.1121977904776
 21
219.9509500278596
 31
0.0
  0
LINE
  5
319F
330
315B
100
AcDbEntity
  8
0
 62
     7
100
AcDbLine
 10
177.9621978828405
 20
219.7509500308464
 30
0.0
 11
183.9121977934794
 21
219.7509500308691
 31
0.0
  0
LINE
  5
31A0
330
315B
100
AcDbEntity
  8
0
 62
     7
100
AcDbLine
 10
177.762197885845
 20
219.9509500278596
 30
0.0
 11
177.9621978828405
 21
219.7509500308464
 31
0.0
  0
LINE
  5
31A1
330
315B
100
AcDbEntity
  8
0
 62
     7
100
AcDbLine
 10
177.762197885845
 20
220.3009500225916
 30
0.0
 11
177.762197885845
 21
219.9509500278596
 31
0.0
  0
LINE
  5
31A2
330
315B
100
AcDbEntity
  8
0
 62
     7
100
AcDbLine
 10
178.0121978821146
 20
220.5509500188308
 30
0.0
 11
177.762197885845
 21
220.3009500225916
 31
0.0
  0
LINE
  5
31A3
330
315B
100
AcDbEntity
  8
0
 62
     7
100
AcDbLine
 10
180.2068102808129
 20
220.5509500188308
 30
0.0
 11
178.0121978821146
 21
220.5509500188308
 31
0.0
  0
LINE
  5
31A4
330
315B
100
AcDbEntity
  8
0
 62
     7
100
AcDbLine
 10
183.7846977953962
 20
223.4019499760364
 30
0.0
 11
181.6022045950132
 21
223.4019499760364
 31
0.0
  0
LINE
  5
31A5
330
315B
100
AcDbEntity
  8
0
 62
     7
100
AcDbLine
 10
183.9846977923865
 20
223.6019499730751
 30
0.0
 11
183.7846977953962
 21
223.4019499760364
 31
0.0
  0
LINE
  5
31A6
330
315B
100
AcDbEntity
  8
0
 62
     7
100
AcDbLine
 10
183.9846977924039
 20
223.9330098603072
 30
0.0
 11
183.9846977923865
 21
223.6019499730751
 31
0.0
  0
LINE
  5
31A7
330
315B
100
AcDbEntity
  8
0
 62
     7
100
AcDbLine
 10
183.5846977984006
 20
224.1639499645158
 30
0.0
 11
183.9846977924039
 21
223.9330098603072
 31
0.0
  0
LINE
  5
31A8
330
315B
100
AcDbEntity
  8
0
 62
     7
100
AcDbLine
 10
178.2896978779371
 20
224.1639499645158
 30
0.0
 11
183.5846977984006
 21
224.1639499645158
 31
0.0
  0
LINE
  5
31A9
330
315B
100
AcDbEntity
  8
0
 62
     7
100
AcDbLine
 10
177.889697883946
 20
223.9330098603072
 30
0.0
 11
178.2896978779371
 21
224.1639499645158
 31
0.0
  0
LINE
  5
31AA
330
315B
100
AcDbEntity
  8
0
 62
     7
100
AcDbLine
 10
177.889697883946
 20
223.6019499730268
 30
0.0
 11
177.889697883946
 21
223.9330098603072
 31
0.0
  0
LINE
  5
31AB
330
315B
100
AcDbEntity
  8
0
 62
     7
100
AcDbLine
 10
178.0896978809414
 20
223.4019499760364
 30
0.0
 11
177.889697883946
 21
223.6019499730268
 31
0.0
  0
LINE
  5
31AC
330
315B
100
AcDbEntity
  8
0
 62
     7
100
AcDbLine
 10
180.2721910813093
 20
223.4019499760364
 30
0.0
 11
178.0896978809414
 21
223.4019499760364
 31
0.0
  0
LINE
  5
31AD
330
315B
100
AcDbEntity
  8
0
 62
     7
100
AcDbLine
 10
264.7758276819676
 20
198.9326170102239
 30
0.0
 11
264.7758276819676
 21
199.8821075042664
 31
0.0
  0
LINE
  5
31AE
330
315B
100
AcDbEntity
  8
0
 62
     7
100
AcDbLine
 10
266.782494318487
 20
198.4659503505564
 30
0.0
 11
265.2424943416114
 21
198.4659503505564
 31
0.0
  0
LINE
  5
31AF
330
315B
100
AcDbEntity
  8
0
 62
     7
100
AcDbLine
 10
266.782494318487
 20
200.2434666019969
 30
0.0
 11
266.782494318487
 21
198.4659503505564
 31
0.0
  0
LINE
  5
31B0
330
315B
100
AcDbEntity
  8
0
 62
     7
100
AcDbLine
 10
269.2558276146704
 20
198.9326170102239
 30
0.0
 11
269.2558276146704
 21
199.8821075042664
 31
0.0
  0
LINE
  5
31B1
330
315B
100
AcDbEntity
  8
0
 62
     7
100
AcDbLine
 10
267.2491609781431
 20
198.4659503505564
 30
0.0
 11
268.7891609550208
 21
198.4659503505564
 31
0.0
  0
LINE
  5
31B2
330
315B
100
AcDbEntity
  8
0
 62
     7
100
AcDbLine
 10
267.2491609781431
 20
200.2434666019969
 30
0.0
 11
267.2491609781431
 21
198.4659503505564
 31
0.0
  0
LINE
  5
31B7
330
315B
100
AcDbEntity
  8
1
  6
CENTER
 62
     3
100
AcDbLine
 10
171.2810306626192
 20
207.2159502191126
 30
0.0
 11
191.0371978381608
 21
207.2159502191126
 31
0.0
  0
LINE
  5
31B8
330
315B
100
AcDbEntity
  8
1
  6
PHANTOM
 62
     4
100
AcDbLine
 10
169.1371977839093
 20
188.2159502191127
 30
0.0
 11
163.9371977839093
 21
188.2159502191127
 31
0.0
  0
LINE
  5
31B9
330
315B
100
AcDbEntity
  8
1
  6
PHANTOM
 62
     4
100
AcDbLine
 10
163.9371977839782
 20
188.2159502191127
 30
0.0
 11
163.9371977839782
 21
183.2159502191125
 31
0.0
  0
LINE
  5
31BA
330
315B
100
AcDbEntity
  8
1
  6
PHANTOM
 62
     4
100
AcDbLine
 10
162.7371978381612
 20
191.7159502191123
 30
0.0
 11
162.7371978381612
 21
183.215992880625
 31
0.0
  0
LINE
  5
31BB
330
315B
100
AcDbEntity
  8
1
  6
PHANTOM
 62
     4
100
AcDbLine
 10
167.5371978381611
 20
191.7159502191123
 30
0.0
 11
162.7371978381612
 21
191.7159502191123
 31
0.0
  0
LINE
  5
31BC
330
315B
100
AcDbEntity
  8
1
  6
CENTER
 62
     3
100
AcDbLine
 10
257.3283276481908
 20
190.4367080205744
 30
0.0
 11
254.7033276481907
 21
185.8900746507061
 31
0.0
  0
LINE
  5
31BD
330
315B
100
AcDbEntity
  8
1
  6
CENTER
 62
     3
100
AcDbLine
 10
257.328327648191
 20
223.995192417651
 30
0.0
 11
254.7033276481907
 21
228.5418257875192
 31
0.0
  0
LINE
  5
31BE
330
315B
100
AcDbEntity
  8
0
 62
     7
100
AcDbLine
 10
163.0871978719499
 20
216.0877804796637
 30
0.0
 11
163.0871978719499
 21
189.6219504833435
 31
0.0
  0
LINE
  5
31BF
330
315B
100
AcDbEntity
  8
1
  6
PHANTOM
 62
     4
100
AcDbLine
 10
163.9371977839093
 20
226.2159502191126
 30
0.0
 11
169.1371977839093
 21
226.2159502191126
 31
0.0
  0
LINE
  5
31C0
330
315B
100
AcDbEntity
  8
1
  6
PHANTOM
 62
     4
100
AcDbLine
 10
163.9371977839782
 20
231.2159502191128
 30
0.0
 11
163.9371977839782
 21
226.2159502191126
 31
0.0
  0
LINE
  5
31C1
330
315B
100
AcDbEntity
  8
1
  6
PHANTOM
 62
     4
100
AcDbLine
 10
162.7371978381612
 20
222.7159502191127
 30
0.0
 11
167.5371978381611
 21
222.7159502191127
 31
0.0
  0
LINE
  5
31C2
330
315B
100
AcDbEntity
  8
0
 62
     7
100
AcDbLine
 10
162.7371978381612
 20
231.2159075576004
 30
0.0
 11
161.4371978379987
 21
231.215938908801
 31
0.0
  0
LINE
  5
31C3
330
315B
100
AcDbEntity
  8
1
  6
PHANTOM
 62
     4
100
AcDbLine
 10
162.7371978381612
 20
231.2159075576004
 30
0.0
 11
162.7371978381612
 21
222.7159502191127
 31
0.0
  0
LINE
  5
31C4
330
315B
100
AcDbEntity
  8
1
 62
     7
100
AcDbLine
 10
161.0371978381611
 20
231.2159503092375
 30
0.0
 11
161.0371978381611
 21
231.6159617101614
 31
0.0
  0
LINE
  5
31C5
330
315B
100
AcDbEntity
  8
0
 62
     7
100
AcDbLine
 10
161.0371978381611
 20
183.2159501289879
 30
0.0
 11
161.0371978381611
 21
231.2159503092375
 31
0.0
  0
LINE
  5
31C6
330
315B
100
AcDbEntity
  8
1
 62
     7
100
AcDbLine
 10
161.4371978379987
 20
231.215938908801
 30
0.0
 11
161.0371978381611
 21
231.6159617101614
 31
0.0
  0
LINE
  5
31C7
330
315B
100
AcDbEntity
  8
1
 62
     7
100
AcDbLine
 10
161.0371978381611
 20
182.815938728064
 30
0.0
 11
161.0371978381611
 21
183.2159501289879
 31
0.0
  0
LINE
  5
31C8
330
315B
100
AcDbEntity
  8
1
 62
     7
100
AcDbLine
 10
161.4371978379987
 20
183.2159615294243
 30
0.0
 11
161.0371978381611
 21
182.815938728064
 31
0.0
  0
LINE
  5
31C9
330
315B
100
AcDbEntity
  8
1
 62
     7
100
AcDbLine
 10
161.0371978381611
 20
236.8159502191124
 30
0.0
 11
161.4371978381611
 21
237.2159502191127
 31
0.0
  0
LINE
  5
31CA
330
315B
100
AcDbEntity
  8
1
 62
     7
100
AcDbLine
 10
161.0371978381611
 20
236.7159502266264
 30
0.0
 11
161.0371978381611
 21
236.8159502191124
 31
0.0
  0
LINE
  5
31CB
330
315B
100
AcDbEntity
  8
1
 62
     7
100
AcDbLine
 10
161.5371978306459
 20
237.2159502191127
 30
0.0
 11
161.4371978381611
 21
237.2159502191127
 31
0.0
  0
LINE
  5
31CC
330
315B
100
AcDbEntity
  8
1
 62
     7
100
AcDbLine
 10
163.0371978381784
 20
237.2158960670506
 30
0.0
 11
163.4371978381784
 21
236.8158960670506
 31
0.0
  0
LINE
  5
31CD
330
315B
100
AcDbEntity
  8
1
 62
     7
100
AcDbLine
 10
162.9371978456964
 20
237.2158960670506
 30
0.0
 11
163.0371978381784
 21
237.2158960670506
 31
0.0
  0
LINE
  5
31CE
330
315B
100
AcDbEntity
  8
0
 62
     7
100
AcDbLine
 10
163.4371978381784
 20
236.7158960745518
 30
0.0
 11
163.4371978381613
 21
224.9099499548818
 31
0.0
  0
LINE
  5
31CF
330
315B
100
AcDbEntity
  8
1
 62
     7
100
AcDbLine
 10
163.4371978381784
 20
236.7158960745518
 30
0.0
 11
163.4371978381784
 21
236.8158960670506
 31
0.0
  0
LINE
  5
31D0
330
315B
100
AcDbEntity
  8
1
 62
     7
100
AcDbLine
 10
163.4371978381784
 20
177.6160043711748
 30
0.0
 11
163.0371978381784
 21
177.2160043711748
 31
0.0
  0
LINE
  5
31D1
330
315B
100
AcDbEntity
  8
0
 62
     7
100
AcDbLine
 10
163.4371978381784
 20
177.7160043636737
 30
0.0
 11
163.4371978381613
 21
177.7160043636737
 31
0.0
  0
LINE
  5
31D2
330
315B
100
AcDbEntity
  8
1
 62
     7
100
AcDbLine
 10
163.4371978381784
 20
177.7160043636737
 30
0.0
 11
163.4371978381784
 21
177.6160043711748
 31
0.0
  0
LINE
  5
31D3
330
315B
100
AcDbEntity
  8
1
 62
     7
100
AcDbLine
 10
162.9371978456964
 20
177.2160043711748
 30
0.0
 11
163.0371978381784
 21
177.2160043711748
 31
0.0
  0
LINE
  5
31D4
330
315B
100
AcDbEntity
  8
1
 62
     7
100
AcDbLine
 10
161.4371978381611
 20
177.2159502191128
 30
0.0
 11
161.0371978381611
 21
177.6159502191128
 31
0.0
  0
LINE
  5
31D5
330
315B
100
AcDbEntity
  8
1
 62
     7
100
AcDbLine
 10
161.5371978306459
 20
177.2159502191128
 30
0.0
 11
161.4371978381611
 21
177.2159502191128
 31
0.0
  0
LINE
  5
31D6
330
315B
100
AcDbEntity
  8
1
 62
     7
100
AcDbLine
 10
161.0371978381611
 20
177.715950211599
 30
0.0
 11
161.0371978381611
 21
177.6159502191128
 31
0.0
  0
LINE
  5
31D7
330
315B
100
AcDbEntity
  8
0
 62
     7
100
AcDbLine
 10
161.0371978381611
 20
177.715950211599
 30
0.0
 11
161.0371978381611
 21
182.815938728064
 31
0.0
  0
LINE
  5
31D8
330
315B
100
AcDbEntity
  8
1
 62
     7
100
AcDbLine
 10
161.0371978381611
 20
181.9659470267494
 30
0.0
 11
163.4371978381613
 21
181.966001178824
 31
0.0
  0
LINE
  5
31D9
330
315B
100
AcDbEntity
  8
1
 62
     7
100
AcDbLine
 10
161.0371978381611
 20
178.4659539733619
 30
0.0
 11
163.4371978381613
 21
178.4660081254367
 31
0.0
  0
LINE
  5
31DA
330
315B
100
AcDbEntity
  8
1
  6
CENTER
 62
     3
100
AcDbLine
 10
160.8121978415405
 20
180.2159503017136
 30
0.0
 11
163.6621978347818
 21
180.2160044537883
 31
0.0
  0
LINE
  5
31DB
330
315B
100
AcDbEntity
  8
0
 62
     7
100
AcDbLine
 10
163.4371978381613
 20
189.5219504833434
 30
0.0
 11
163.4371978381784
 21
177.7160043636737
 31
0.0
  0
LINE
  5
31DC
330
315B
100
AcDbEntity
  8
0
 62
     7
100
AcDbLine
 10
163.0871978719556
 20
183.466004277302
 30
0.0
 11
163.0871978719498
 21
189.617950483484
 31
0.0
  0
LINE
  5
31DD
330
315B
100
AcDbEntity
  8
0
 62
     7
100
AcDbLine
 10
161.5371978306459
 20
177.2159502191128
 30
0.0
 11
162.9371978456964
 21
177.2160043711748
 31
0.0
  0
LINE
  5
31DE
330
315B
100
AcDbEntity
  8
0
 62
     7
100
AcDbLine
 10
161.4371978379987
 20
183.2159615294243
 30
0.0
 11
162.8371978757118
 21
183.2160042810627
 31
0.0
  0
LINE
  5
31DF
330
315B
100
AcDbEntity
  8
0
 62
     7
100
AcDbLine
 10
161.0371978381611
 20
231.6159617101614
 30
0.0
 11
161.0371978381611
 21
236.7159502266264
 31
0.0
  0
LINE
  5
31E0
330
315B
100
AcDbEntity
  8
0
 62
     7
100
AcDbLine
 10
163.0871978719499
 20
224.8099499548818
 30
0.0
 11
163.0871978719499
 21
216.013190107848
 31
0.0
  0
LINE
  5
31E1
330
315B
100
AcDbEntity
  8
1
  6
CENTER
 62
     3
100
AcDbLine
 10
279.3283276484388
 20
185.8900746507061
 30
0.0
 11
276.7033276484387
 21
190.4367080205744
 31
0.0
  0
LINE
  5
31E2
330
315B
100
AcDbEntity
  8
1
  6
CENTER
 62
     3
100
AcDbLine
 10
279.3283276484388
 20
228.5418257875192
 30
0.0
 11
276.7033276484387
 21
223.995192417651
 31
0.0
  0
LINE
  5
31E3
330
315B
100
AcDbEntity
  8
1
 62
     7
100
AcDbLine
 10
163.4371978381613
 20
232.4658981109738
 30
0.0
 11
161.0371978381611
 21
232.4659522630483
 31
0.0
  0
LINE
  5
31E4
330
315B
100
AcDbEntity
  8
1
 62
     7
100
AcDbLine
 10
163.4371978381613
 20
235.9658987452919
 30
0.0
 11
161.0371978381611
 21
235.9659528973665
 31
0.0
  0
LINE
  5
31E5
330
315B
100
AcDbEntity
  8
1
  6
CENTER
 62
     3
100
AcDbLine
 10
163.6621978347818
 20
234.2158959844371
 30
0.0
 11
160.8121978415405
 21
234.215950136512
 31
0.0
  0
LINE
  5
31E6
330
315B
100
AcDbEntity
  8
0
 62
     7
100
AcDbLine
 10
163.4371978381613
 20
236.7158960745518
 30
0.0
 11
163.4371978381784
 21
236.7158960745518
 31
0.0
  0
LINE
  5
31E7
330
315B
100
AcDbEntity
  8
0
 62
     7
100
AcDbLine
 10
184.5371977838954
 20
189.4659504856603
 30
0.0
 11
184.0085983942564
 21
189.4659504856613
 31
0.0
  0
LINE
  5
31E8
330
315B
100
AcDbEntity
  8
0
 62
     7
100
AcDbLine
 10
184.5371977838578
 20
224.9659499525699
 30
0.0
 11
176.5371978139044
 21
224.9659499525699
 31
0.0
  0
LINE
  5
31E9
330
315B
100
AcDbEntity
  8
0
 62
     7
100
AcDbLine
 10
184.5371977839334
 20
224.8659499540293
 30
0.0
 11
184.5371977839523
 21
227.4659502191128
 31
0.0
  0
LINE
  5
31EA
330
315B
100
AcDbEntity
  8
0
 62
     7
100
AcDbLine
 10
184.5371977837894
 20
182.6159505885136
 30
0.0
 11
184.5371977838007
 21
183.5159502191128
 31
0.0
  0
LINE
  5
31EB
330
315B
100
AcDbEntity
  8
0
 62
     7
100
AcDbLine
 10
176.5371978139299
 20
224.8659499540293
 30
0.0
 11
176.5371978139552
 21
225.9159499382759
 31
0.0
  0
LINE
  5
31EC
330
315B
100
AcDbEntity
  8
0
 62
     7
100
AcDbLine
 10
176.5371978138283
 20
188.5159504999568
 30
0.0
 11
176.5371978138028
 21
189.5659504842088
 31
0.0
  0
LINE
  5
31ED
330
315B
100
AcDbEntity
  8
0
 62
     7
100
AcDbLine
 10
176.8371978092959
 20
188.2159505045143
 30
0.0
 11
176.5371978138283
 21
188.5159504999568
 31
0.0
  0
LINE
  5
31EE
330
315B
100
AcDbEntity
  8
0
 62
     7
100
AcDbLine
 10
178.2371977882899
 20
188.2159505045143
 30
0.0
 11
176.8371978092959
 21
188.2159505045143
 31
0.0
  0
LINE
  5
31EF
330
315B
100
AcDbEntity
  8
0
 62
     7
100
AcDbLine
 10
178.5371977837579
 20
182.6159505885136
 30
0.0
 11
178.5371977837703
 21
183.5159502191128
 31
0.0
  0
LINE
  5
31F0
330
315B
100
AcDbEntity
  8
0
 62
     7
100
AcDbLine
 10
178.9371977777235
 20
182.2159505945735
 30
0.0
 11
178.5371977837579
 21
182.6159505885136
 31
0.0
  0
LINE
  5
31F1
330
315B
100
AcDbEntity
  8
0
 62
     7
100
AcDbLine
 10
184.137197789828
 20
182.2159505946235
 30
0.0
 11
178.9371977777235
 21
182.2159505945735
 31
0.0
  0
LINE
  5
31F2
330
315B
100
AcDbEntity
  8
0
 62
     7
100
AcDbLine
 10
184.5371977837894
 20
182.6159505885136
 30
0.0
 11
184.137197789828
 21
182.2159505946235
 31
0.0
  0
LINE
  5
31F3
330
315B
100
AcDbEntity
  8
0
 62
     7
100
AcDbLine
 10
176.8371978092959
 20
189.8659504797275
 30
0.0
 11
176.5371978138028
 21
189.5659504842088
 31
0.0
  0
LINE
  5
31F4
330
315B
100
AcDbEntity
  8
0
 62
     7
100
AcDbLine
 10
184.2371977883283
 20
189.8659504797275
 30
0.0
 11
176.8371978092959
 21
189.8659504797275
 31
0.0
  0
LINE
  5
31F5
330
315B
100
AcDbEntity
  8
0
 62
     7
100
AcDbLine
 10
184.5371977838192
 20
189.5659504842088
 30
0.0
 11
184.2371977883283
 21
189.8659504797275
 31
0.0
  0
LINE
  5
31F6
330
315B
100
AcDbEntity
  8
0
 62
     7
100
AcDbLine
 10
176.837197809474
 20
226.2159499338073
 30
0.0
 11
176.5371978139552
 21
225.9159499382759
 31
0.0
  0
LINE
  5
31F7
330
315B
100
AcDbEntity
  8
0
 62
     7
100
AcDbLine
 10
178.2371977884676
 20
226.2159499338073
 30
0.0
 11
176.837197809474
 21
226.2159499338073
 31
0.0
  0
LINE
  5
31F8
330
315B
100
AcDbEntity
  8
0
 62
     7
100
AcDbLine
 10
178.5371977839865
 20
231.8159498497271
 30
0.0
 11
178.5371977839739
 21
230.9159502191127
 31
0.0
  0
LINE
  5
31F9
330
315B
100
AcDbEntity
  8
0
 62
     7
100
AcDbLine
 10
178.9371977779266
 20
232.2159498437533
 30
0.0
 11
178.5371977839865
 21
231.8159498497271
 31
0.0
  0
LINE
  5
31FA
330
315B
100
AcDbEntity
  8
0
 62
     7
100
AcDbLine
 10
184.1371977900038
 20
232.215949843708
 30
0.0
 11
178.9371977779266
 21
232.2159498437533
 31
0.0
  0
LINE
  5
31FB
330
315B
100
AcDbEntity
  8
0
 62
     7
100
AcDbLine
 10
184.5371977839635
 20
231.8159498497271
 30
0.0
 11
184.1371977900038
 21
232.215949843708
 31
0.0
  0
LINE
  5
31FC
330
315B
100
AcDbEntity
  8
0
 62
     7
100
AcDbLine
 10
176.8371978094231
 20
224.5659499585893
 30
0.0
 11
176.5371978139299
 21
224.8659499540293
 31
0.0
  0
LINE
  5
31FD
330
315B
100
AcDbEntity
  8
0
 62
     7
100
AcDbLine
 10
184.2371977884381
 20
224.5659499585893
 30
0.0
 11
176.8371978094231
 21
224.5659499585893
 31
0.0
  0
LINE
  5
31FE
330
315B
100
AcDbEntity
  8
0
 62
     7
100
AcDbLine
 10
184.5371977839334
 20
224.8659499540293
 30
0.0
 11
184.2371977884381
 21
224.5659499585893
 31
0.0
  0
LINE
  5
31FF
330
315B
100
AcDbEntity
  8
0
 62
     7
100
AcDbLine
 10
184.5371977838578
 20
190.1537209232571
 30
0.0
 11
184.5371977839334
 21
192.2257369459443
 31
0.0
  0
LINE
  5
3200
330
315B
100
AcDbEntity
  8
0
 62
     7
100
AcDbLine
 10
184.5371977838578
 20
224.395929207413
 30
0.0
 11
184.5371977838578
 21
222.0089160321334
 31
0.0
  0
LINE
  5
3201
330
315B
100
AcDbEntity
  8
0
 62
     7
100
AcDbLine
 10
163.0871978719499
 20
224.8139499547415
 30
0.0
 11
163.0871978719556
 21
230.9658961609235
 31
0.0
  0
LINE
  5
3202
330
315B
100
AcDbEntity
  8
0
 62
     7
100
AcDbLine
 10
184.2371977882882
 20
190.2679504737271
 30
0.0
 11
163.8371978321528
 21
190.2679504737018
 31
0.0
  0
LINE
  5
3203
330
315B
100
AcDbEntity
  8
0
 62
     7
100
AcDbLine
 10
184.4441734327464
 20
190.2534773267923
 30
0.0
 11
184.2371977882882
 21
190.2679504737271
 31
0.0
  0
LINE
  5
3204
330
315B
100
AcDbEntity
  8
0
 62
     7
100
AcDbLine
 10
184.5371977838578
 20
190.0359712308324
 30
0.0
 11
184.5371977838578
 21
190.1537209232571
 31
0.0
  0
LINE
  5
3205
330
315B
100
AcDbEntity
  8
0
 62
     7
100
AcDbLine
 10
177.5371977991509
 20
189.4659504857108
 30
0.0
 11
184.1634590801674
 21
189.4659504856603
 31
0.0
  0
LINE
  5
3206
330
315B
100
AcDbEntity
  8
0
 62
     7
100
AcDbLine
 10
167.1871980446086
 20
189.9219504773473
 30
0.0
 11
172.2205779996058
 21
189.9219504772966
 31
0.0
  0
LINE
  5
3207
330
315B
100
AcDbEntity
  8
0
 62
     7
100
AcDbLine
 10
162.9371978456964
 20
237.2158960670506
 30
0.0
 11
161.5371978306459
 21
237.2159502191127
 31
0.0
  0
LINE
  5
3208
330
315B
100
AcDbEntity
  8
0
 62
     7
100
AcDbLine
 10
184.2371977882882
 20
224.1639499645158
 30
0.0
 11
167.1871980446086
 21
224.1639499645158
 31
0.0
  0
LINE
  5
3209
330
315B
100
AcDbEntity
  8
0
 62
     7
100
AcDbLine
 10
184.4441734327464
 20
224.1784231114408
 30
0.0
 11
184.2371977882882
 21
224.1639499645158
 31
0.0
  0
LINE
  5
320A
330
315B
100
AcDbEntity
  8
0
 62
     7
100
AcDbLine
 10
177.5371977991509
 20
224.9659499525244
 30
0.0
 11
184.0085983942703
 21
224.9659499525699
 31
0.0
  0
LINE
  5
320B
330
315B
100
AcDbEntity
  8
0
 62
     7
100
AcDbLine
 10
167.1871980446086
 20
224.5099499608957
 30
0.0
 11
172.2205779996058
 21
224.5099499609414
 31
0.0
  0
LINE
  5
320C
330
315B
100
AcDbEntity
  8
0
 62
     7
100
AcDbLine
 10
162.8371978757118
 20
231.2158961571628
 30
0.0
 11
162.7371978381612
 21
231.2159075576004
 31
0.0
  0
LINE
  5
320D
330
315B
100
AcDbEntity
  8
0
 62
     7
100
AcDbLine
 10
189.037197791495
 20
204.21595026418
 30
0.0
 11
189.5371977839941
 21
203.7159502716915
 31
0.0
  0
LINE
  5
320E
330
315B
100
AcDbEntity
  8
0
 62
     7
100
AcDbLine
 10
172.4371979658523
 20
204.21595026418
 30
0.0
 11
189.037197791495
 21
204.21595026418
 31
0.0
  0
LINE
  5
320F
330
315B
100
AcDbEntity
  8
0
 62
     7
100
AcDbLine
 10
171.9371979733636
 20
203.7159502717164
 30
0.0
 11
172.4371979658523
 21
204.21595026418
 31
0.0
  0
LINE
  5
3210
330
315B
100
AcDbEntity
  8
0
 62
     7
100
AcDbLine
 10
189.0371977915052
 20
210.2159501740551
 30
0.0
 11
189.5371977839941
 21
210.7159501665365
 31
0.0
  0
LINE
  5
3211
330
315B
100
AcDbEntity
  8
0
 62
     7
100
AcDbLine
 10
172.4371979658014
 20
210.2159501740604
 30
0.0
 11
188.5371977029588
 21
210.215950174056
 31
0.0
  0
LINE
  5
3212
330
315B
100
AcDbEntity
  8
0
 62
     7
100
AcDbLine
 10
171.9371979734144
 20
210.715950166445
 30
0.0
 11
172.4371979658014
 21
210.2159501740604
 31
0.0
  0
LINE
  5
3213
330
315B
100
AcDbEntity
  8
0
 62
     7
100
AcDbLine
 10
184.237197788587
 20
198.5159503497828
 30
0.0
 11
184.237197788587
 21
200.2159503242447
 31
0.0
  0
LINE
  5
3214
330
315B
100
AcDbEntity
  8
0
 62
     7
100
AcDbLine
 10
183.0871978058629
 20
198.5159503497828
 30
0.0
 11
184.237197788587
 21
198.5159503497828
 31
0.0
  0
LINE
  5
3215
330
315B
100
AcDbEntity
  8
0
 62
     7
100
AcDbLine
 10
174.7371979312749
 20
199.9659503280004
 30
0.0
 11
183.0871978058629
 21
199.9659503280004
 31
0.0
  0
LINE
  5
3216
330
315B
100
AcDbEntity
  8
0
 62
     7
100
AcDbLine
 10
183.0871978058629
 20
197.2159503693123
 30
0.0
 11
183.0871978058629
 21
200.2159503242447
 31
0.0
  0
LINE
  5
3217
330
315B
100
AcDbEntity
  8
0
 62
     7
100
AcDbLine
 10
182.6371978126229
 20
197.2159503693123
 30
0.0
 11
183.0871978058629
 21
197.2159503693123
 31
0.0
  0
LINE
  5
3218
330
315B
100
AcDbEntity
  8
0
 62
     7
100
AcDbLine
 10
184.1371977901145
 20
194.6809504073918
 30
0.0
 11
184.1371977901145
 21
197.2159503693123
 31
0.0
  0
LINE
  5
3219
330
315B
100
AcDbEntity
  8
0
 62
     7
100
AcDbLine
 10
182.6371978126229
 20
196.2159503843601
 30
0.0
 11
182.6371978126229
 21
200.2159503242447
 31
0.0
  0
LINE
  5
321A
330
315B
100
AcDbEntity
  8
0
 62
     7
100
AcDbLine
 10
184.1371977901145
 20
196.2159503843601
 30
0.0
 11
182.6371978126229
 21
196.2159503843601
 31
0.0
  0
LINE
  5
321B
330
315B
100
AcDbEntity
  8
0
 62
     7
100
AcDbLine
 10
183.9121977934821
 20
194.6809504073661
 30
0.0
 11
184.1371977901145
 21
194.6809504073918
 31
0.0
  0
LINE
  5
321C
330
315B
100
AcDbEntity
  8
0
 62
     7
100
AcDbLine
 10
184.237197788587
 20
215.9159500884754
 30
0.0
 11
184.237197788587
 21
214.2159501139858
 31
0.0
  0
LINE
  5
321D
330
315B
100
AcDbEntity
  8
0
 62
     7
100
AcDbLine
 10
183.0871978058629
 20
215.9159500884754
 30
0.0
 11
184.237197788587
 21
215.9159500884754
 31
0.0
  0
LINE
  5
321E
330
315B
100
AcDbEntity
  8
0
 62
     7
100
AcDbLine
 10
171.9371979733636
 20
214.4659501102251
 30
0.0
 11
183.0871978058629
 21
214.4659501102251
 31
0.0
  0
LINE
  5
321F
330
315B
100
AcDbEntity
  8
0
 62
     7
100
AcDbLine
 10
183.0871978058629
 20
217.2159500689359
 30
0.0
 11
183.0871978058629
 21
214.2159501139858
 31
0.0
  0
LINE
  5
3220
330
315B
100
AcDbEntity
  8
0
 62
     7
100
AcDbLine
 10
182.6371978126229
 20
217.2159500689359
 30
0.0
 11
183.0871978058629
 21
217.2159500689359
 31
0.0
  0
LINE
  5
3221
330
315B
100
AcDbEntity
  8
0
 62
     7
100
AcDbLine
 10
184.1371977901145
 20
219.7509500308464
 30
0.0
 11
184.1371977901145
 21
217.2159500689359
 31
0.0
  0
LINE
  5
3222
330
315B
100
AcDbEntity
  8
0
 62
     7
100
AcDbLine
 10
182.6371978126229
 20
218.215950053911
 30
0.0
 11
182.6371978126229
 21
214.2159501139858
 31
0.0
  0
LINE
  5
3223
330
315B
100
AcDbEntity
  8
0
 62
     7
100
AcDbLine
 10
184.1371977901145
 20
218.215950053911
 30
0.0
 11
182.6371978126229
 21
218.215950053911
 31
0.0
  0
LINE
  5
3224
330
315B
100
AcDbEntity
  8
0
 62
     7
100
AcDbLine
 10
183.9121977934821
 20
219.7509500308691
 30
0.0
 11
184.1371977901145
 21
219.7509500308464
 31
0.0
  0
LINE
  5
3225
330
315B
100
AcDbEntity
  8
0
 62
     7
100
AcDbLine
 10
180.2371978486768
 20
198.7159503468039
 30
0.0
 11
177.7371978862331
 21
198.7159503468039
 31
0.0
  0
LINE
  5
3226
330
315B
100
AcDbEntity
  8
0
 62
     7
100
AcDbLine
 10
180.2371978486768
 20
195.2159503993827
 30
0.0
 11
180.2371978486768
 21
198.7159503468039
 31
0.0
  0
LINE
  5
3227
330
315B
100
AcDbEntity
  8
0
 62
     7
100
AcDbLine
 10
177.5371978892376
 20
195.2159503993827
 30
0.0
 11
180.2371978486768
 21
195.2159503993827
 31
0.0
  0
LINE
  5
3228
330
315B
100
AcDbEntity
  8
0
 62
     7
100
AcDbLine
 10
180.3371978471744
 20
199.9659503280004
 30
0.0
 11
180.3371978471744
 21
194.6809504073918
 31
0.0
  0
LINE
  5
3229
330
315B
100
AcDbEntity
  8
0
 62
     7
100
AcDbLine
 10
177.7371978862331
 20
194.6809504073918
 30
0.0
 11
177.7371978862331
 21
200.2159503242447
 31
0.0
  0
LINE
  5
322A
330
315B
100
AcDbEntity
  8
0
 62
     7
100
AcDbLine
 10
177.962197882815
 20
194.6809504073918
 30
0.0
 11
177.7371978862331
 21
194.6809504073918
 31
0.0
  0
LINE
  5
322B
330
315B
100
AcDbEntity
  8
0
 62
     7
100
AcDbLine
 10
177.5371978892376
 20
192.2159504444244
 30
0.0
 11
177.5371978892376
 21
195.2159503993827
 31
0.0
  0
LINE
  5
322C
330
315B
100
AcDbEntity
  8
0
 62
     7
100
AcDbLine
 10
174.9371979282708
 20
192.2159504444244
 30
0.0
 11
177.5371978892376
 21
192.2159504444244
 31
0.0
  0
LINE
  5
322D
330
315B
100
AcDbEntity
  8
0
 62
     7
100
AcDbLine
 10
174.9371979282708
 20
195.2159503993827
 30
0.0
 11
174.9371979282708
 21
192.2159504444244
 31
0.0
  0
LINE
  5
322E
330
315B
100
AcDbEntity
  8
0
 62
     7
100
AcDbLine
 10
174.7371979312749
 20
195.2159503993827
 30
0.0
 11
174.9371979282708
 21
195.2159503993827
 31
0.0
  0
LINE
  5
322F
330
315B
100
AcDbEntity
  8
0
 62
     7
100
AcDbLine
 10
177.7371978862331
 20
219.7509500308464
 30
0.0
 11
177.7371978862331
 21
214.2159501139858
 31
0.0
  0
LINE
  5
3230
330
315B
100
AcDbEntity
  8
0
 62
     7
100
AcDbLine
 10
177.962197882815
 20
219.7509500308464
 30
0.0
 11
177.7371978862331
 21
219.7509500308464
 31
0.0
  0
LINE
  5
3231
330
315B
100
AcDbEntity
  8
0
 62
     7
100
AcDbLine
 10
177.5371978892376
 20
219.215950038886
 30
0.0
 11
177.7371978862331
 21
219.215950038886
 31
0.0
  0
LINE
  5
3232
330
315B
100
AcDbEntity
  8
0
 62
     7
100
AcDbLine
 10
177.5371978892376
 20
222.215949993859
 30
0.0
 11
177.5371978892376
 21
219.215950038886
 31
0.0
  0
LINE
  5
3233
330
315B
100
AcDbEntity
  8
0
 62
     7
100
AcDbLine
 10
174.9371979282708
 20
222.215949993859
 30
0.0
 11
177.5371978892376
 21
222.215949993859
 31
0.0
  0
LINE
  5
3234
330
315B
100
AcDbEntity
  8
0
 62
     7
100
AcDbLine
 10
174.9371979282708
 20
219.215950038886
 30
0.0
 11
174.9371979282708
 21
222.215949993859
 31
0.0
  0
LINE
  5
3235
330
315B
100
AcDbEntity
  8
0
 62
     7
100
AcDbLine
 10
172.2371979688059
 20
219.215950038886
 30
0.0
 11
174.9371979282708
 21
219.215950038886
 31
0.0
  0
LINE
  5
3236
330
315B
100
AcDbEntity
  8
0
 62
     7
100
AcDbLine
 10
172.2371979688059
 20
215.7159500914368
 30
0.0
 11
172.2371979688059
 21
219.215950038886
 31
0.0
  0
LINE
  5
3237
330
315B
100
AcDbEntity
  8
0
 62
     7
100
AcDbLine
 10
174.7371979312749
 20
215.7159500914368
 30
0.0
 11
172.2371979688059
 21
215.7159500914368
 31
0.0
  0
LINE
  5
3238
330
315B
100
AcDbEntity
  8
0
 62
     7
100
AcDbLine
 10
174.7371979312749
 20
199.9659503280004
 30
0.0
 11
174.9371979282708
 21
199.9659503280004
 31
0.0
  0
LINE
  5
3239
330
315B
100
AcDbEntity
  8
0
 62
     7
100
AcDbLine
 10
189.5371977839941
 20
200.7159503167589
 30
0.0
 11
189.5371977839941
 21
213.7159501214868
 31
0.0
  0
LINE
  5
323A
330
315B
100
AcDbEntity
  8
0
 62
     7
100
AcDbLine
 10
189.0371977915052
 20
200.2159503242447
 30
0.0
 11
189.5371977839941
 21
200.7159503167589
 31
0.0
  0
LINE
  5
323B
330
315B
100
AcDbEntity
  8
0
 62
     7
100
AcDbLine
 10
184.2371977886379
 20
200.2159503242447
 30
0.0
 11
189.0371977915052
 21
200.2159503242447
 31
0.0
  0
LINE
  5
323C
330
315B
100
AcDbEntity
  8
0
 62
     7
100
AcDbLine
 10
184.2371977886379
 20
200.5159503197381
 30
0.0
 11
184.2371977886379
 21
200.2159503242447
 31
0.0
  0
LINE
  5
323D
330
315B
100
AcDbEntity
  8
0
 62
     7
100
AcDbLine
 10
183.0871978059134
 20
200.5159503197381
 30
0.0
 11
184.2371977886379
 21
200.5159503197381
 31
0.0
  0
LINE
  5
323E
330
315B
100
AcDbEntity
  8
0
 62
     7
100
AcDbLine
 10
183.0871978059134
 20
200.2159503242447
 30
0.0
 11
183.0871978059134
 21
200.5159503197381
 31
0.0
  0
LINE
  5
323F
330
315B
100
AcDbEntity
  8
0
 62
     7
100
AcDbLine
 10
174.737197931326
 20
200.2159503242447
 30
0.0
 11
183.0871978059134
 21
200.2159503242447
 31
0.0
  0
LINE
  5
3240
330
315B
100
AcDbEntity
  8
0
 62
     7
100
AcDbLine
 10
174.737197931326
 20
194.7159504068431
 30
0.0
 11
174.737197931326
 21
200.2159503242447
 31
0.0
  0
LINE
  5
3241
330
315B
100
AcDbEntity
  8
0
 62
     7
100
AcDbLine
 10
171.9371979733636
 20
194.7159504068431
 30
0.0
 11
174.737197931326
 21
194.7159504068431
 31
0.0
  0
LINE
  5
3242
330
315B
100
AcDbEntity
  8
0
 62
     7
100
AcDbLine
 10
189.0371977915052
 20
214.2159501139858
 30
0.0
 11
189.5371977839941
 21
213.7159501214868
 31
0.0
  0
LINE
  5
3243
330
315B
100
AcDbEntity
  8
0
 62
     7
100
AcDbLine
 10
184.2371977886379
 20
214.2159501139858
 30
0.0
 11
189.0371977915052
 21
214.2159501139858
 31
0.0
  0
LINE
  5
3244
330
315B
100
AcDbEntity
  8
0
 62
     7
100
AcDbLine
 10
184.2371977886379
 20
213.9159501184998
 30
0.0
 11
184.2371977886379
 21
214.2159501139858
 31
0.0
  0
LINE
  5
3245
330
315B
100
AcDbEntity
  8
0
 62
     7
100
AcDbLine
 10
183.0871978059134
 20
213.9159501184998
 30
0.0
 11
184.2371977886379
 21
213.9159501184998
 31
0.0
  0
LINE
  5
3246
330
315B
100
AcDbEntity
  8
0
 62
     7
100
AcDbLine
 10
183.0871978059134
 20
214.2159501139858
 30
0.0
 11
183.0871978059134
 21
213.9159501184998
 31
0.0
  0
LINE
  5
3247
330
315B
100
AcDbEntity
  8
0
 62
     7
100
AcDbLine
 10
174.737197931326
 20
214.2159501139858
 30
0.0
 11
183.0871978059134
 21
214.2159501139858
 31
0.0
  0
LINE
  5
3248
330
315B
100
AcDbEntity
  8
0
 62
     7
100
AcDbLine
 10
174.737197931326
 20
219.7159500313849
 30
0.0
 11
174.737197931326
 21
214.2159501139858
 31
0.0
  0
LINE
  5
3249
330
315B
100
AcDbEntity
  8
0
 62
     7
100
AcDbLine
 10
171.9371979733636
 20
219.7159500313849
 30
0.0
 11
174.737197931326
 21
219.7159500313849
 31
0.0
  0
LINE
  5
324A
330
315B
100
AcDbEntity
  8
0
 62
     7
100
AcDbLine
 10
171.9371979733636
 20
219.7159500313849
 30
0.0
 11
171.9371979733636
 21
194.7159504068431
 31
0.0
  0
LINE
  5
324B
330
315B
100
AcDbEntity
  8
0
 62
     7
100
AcDbLine
 10
178.5371977839739
 20
227.5159502191129
 30
0.0
 11
178.5371977839606
 21
226.5159499292471
 31
0.0
  0
LINE
  5
324C
330
315B
100
AcDbEntity
  8
0
 62
     7
100
AcDbLine
 10
184.5371977839523
 20
227.4659502191128
 30
0.0
 11
184.5371977839523
 21
230.9659502191127
 31
0.0
  0
LINE
  5
324D
330
315B
100
AcDbEntity
  8
0
 62
     7
100
AcDbLine
 10
178.5371977839739
 20
230.9159502191127
 30
0.0
 11
178.5371977839739
 21
227.5159502191129
 31
0.0
  0
LINE
  5
324E
330
315B
100
AcDbEntity
  8
0
 62
     7
100
AcDbLine
 10
184.5371977839523
 20
230.9659502191127
 30
0.0
 11
184.5371977839635
 21
231.8159498497271
 31
0.0
  0
LINE
  5
324F
330
315B
100
AcDbEntity
  8
1
  6
CENTER
 62
     3
100
AcDbLine
 10
176.9371978078023
 20
185.2159502191128
 30
0.0
 11
186.5371977536906
 21
185.2159502191128
 31
0.0
  0
LINE
  5
3250
330
315B
100
AcDbEntity
  8
1
 62
     7
100
AcDbLine
 10
178.5371977837703
 20
183.5159502191128
 30
0.0
 11
184.5371977838007
 21
183.5159502191128
 31
0.0
  0
LINE
  5
3251
330
315B
100
AcDbEntity
  8
0
 62
     7
100
AcDbLine
 10
178.5371977837703
 20
183.5159502191128
 30
0.0
 11
178.5371977837703
 21
186.9159502191128
 31
0.0
  0
LINE
  5
3252
330
315B
100
AcDbEntity
  8
0
 62
     7
100
AcDbLine
 10
184.5371977838007
 20
183.5159502191128
 30
0.0
 11
184.5371977838007
 21
186.9159502191128
 31
0.0
  0
LINE
  5
3253
330
315B
100
AcDbEntity
  8
1
 62
     7
100
AcDbLine
 10
178.5371977837703
 20
186.9159502191128
 30
0.0
 11
184.5371977838007
 21
186.9159502191128
 31
0.0
  0
LINE
  5
3254
330
315B
100
AcDbEntity
  8
0
 62
     7
100
AcDbLine
 10
178.5371977837703
 20
186.9159502191128
 30
0.0
 11
178.5371977837832
 21
187.915950508996
 31
0.0
  0
LINE
  5
3255
330
315B
100
AcDbEntity
  8
0
 62
     7
100
AcDbLine
 10
184.5371977838007
 20
186.9159502191128
 30
0.0
 11
184.5371977838192
 21
189.5659504842088
 31
0.0
  0
LINE
  5
3256
330
315B
100
AcDbEntity
  8
1
 62
     3
100
AcDbLine
 10
185.5371977029584
 20
214.2159501139858
 30
0.0
 11
185.5371977029584
 21
214.0427450332289
 31
0.0
  0
LINE
  5
3257
330
315B
100
AcDbEntity
  8
1
 62
     3
100
AcDbLine
 10
188.5371977029588
 20
214.2159501139858
 30
0.0
 11
188.5371977029588
 21
214.0427450332289
 31
0.0
  0
LINE
  5
3258
330
315B
100
AcDbEntity
  8
0
 62
     7
100
AcDbLine
 10
188.5371977029588
 20
210.215950174056
 30
0.0
 11
189.0371977915052
 21
210.2159501740551
 31
0.0
  0
LINE
  5
3259
330
315B
100
AcDbEntity
  8
1
  6
CENTER
 62
     3
100
AcDbLine
 10
187.0371977029584
 20
215.0159501019717
 30
0.0
 11
187.0371977029584
 21
204.8159502191124
 31
0.0
  0
LINE
  5
325A
330
315B
100
AcDbEntity
  8
1
 62
     3
100
AcDbLine
 10
185.8371977029588
 20
214.2159501139858
 30
0.0
 11
185.8371977029588
 21
210.215950174056
 31
0.0
  0
LINE
  5
325B
330
315B
100
AcDbEntity
  8
1
 62
     3
100
AcDbLine
 10
188.2371977029586
 20
214.2159501139858
 30
0.0
 11
188.2371977029586
 21
210.215950174056
 31
0.0
  0
LINE
  5
325C
330
315B
100
AcDbEntity
  8
1
 62
     7
100
AcDbLine
 10
185.5371977029584
 20
214.0427450332289
 30
0.0
 11
188.5371977029588
 21
214.0427450332289
 31
0.0
  0
LINE
  5
325D
330
315B
100
AcDbEntity
  8
1
 62
     7
100
AcDbLine
 10
185.5371977029584
 20
214.0427450332289
 30
0.0
 11
185.5371977029584
 21
210.5159501740561
 31
0.0
  0
LINE
  5
325E
330
315B
100
AcDbEntity
  8
1
 62
     7
100
AcDbLine
 10
188.5371977029588
 20
214.0427450332289
 30
0.0
 11
188.5371977029588
 21
210.5159501740561
 31
0.0
  0
LINE
  5
325F
330
315B
100
AcDbEntity
  8
1
 62
     7
100
AcDbLine
 10
188.5371977029588
 20
210.5159501740561
 30
0.0
 11
185.5371977029584
 21
210.5159501740561
 31
0.0
  0
LINE
  5
3260
330
315B
100
AcDbEntity
  8
1
 62
     3
100
AcDbLine
 10
188.5371977029588
 20
210.5159501740561
 30
0.0
 11
188.5371977029588
 21
210.215950174056
 31
0.0
  0
LINE
  5
3261
330
315B
100
AcDbEntity
  8
1
 62
     3
100
AcDbLine
 10
185.5371977029584
 20
210.5159501740561
 30
0.0
 11
185.5371977029584
 21
210.215950174056
 31
0.0
  0
LINE
  5
3262
330
315B
100
AcDbEntity
  8
1
 62
     7
100
AcDbLine
 10
185.5371977029584
 20
214.0427450332289
 30
0.0
 11
185.8371977029588
 21
214.2159501139858
 31
0.0
  0
LINE
  5
3263
330
315B
100
AcDbEntity
  8
1
 62
     7
100
AcDbLine
 10
188.2371977029586
 20
214.2159501139858
 30
0.0
 11
188.5371977029588
 21
214.0427450332289
 31
0.0
  0
LINE
  5
3264
330
315B
100
AcDbEntity
  8
1
 62
     7
100
AcDbLine
 10
188.5371977029588
 20
210.5159501740561
 30
0.0
 11
188.2371977029586
 21
210.215950174056
 31
0.0
  0
LINE
  5
3265
330
315B
100
AcDbEntity
  8
1
 62
     7
100
AcDbLine
 10
185.8371977029588
 20
210.215950174056
 30
0.0
 11
185.5371977029584
 21
210.5159501740561
 31
0.0
  0
LINE
  5
3266
330
315B
100
AcDbEntity
  8
1
  6
DASHED
 62
     3
100
AcDbLine
 10
265.5158276483148
 20
214.0533472771732
 30
0.0
 11
265.5158276483148
 21
209.8140263785734
 31
0.0
  0
LINE
  5
3267
330
315B
100
AcDbEntity
  8
1
  6
DASHED
 62
     3
100
AcDbLine
 10
268.5158276483148
 20
214.0533472771732
 30
0.0
 11
268.5158276483148
 21
209.8140263785734
 31
0.0
  0
LINE
  5
3268
330
315B
100
AcDbEntity
  8
1
  6
DASHED
 62
     7
100
AcDbLine
 10
265.8158276483148
 20
214.1123259723308
 30
0.0
 11
265.8158276483148
 21
209.9654955870521
 31
0.0
  0
LINE
  5
3269
330
315B
100
AcDbEntity
  8
1
  6
DASHED
 62
     7
100
AcDbLine
 10
268.2158276483148
 20
214.1123259723308
 30
0.0
 11
268.2158276483148
 21
209.9654955870521
 31
0.0
  0
LINE
  5
326A
330
315B
100
AcDbEntity
  8
1
  6
DASHED
 62
     3
100
AcDbLine
 10
269.6139038077755
 20
205.7159502191125
 30
0.0
 11
273.8532247063754
 21
205.7159502191125
 31
0.0
  0
LINE
  5
326B
330
315B
100
AcDbEntity
  8
1
  6
DASHED
 62
     3
100
AcDbLine
 10
269.6139038077755
 20
208.7159502191127
 30
0.0
 11
273.8532247063754
 21
208.7159502191127
 31
0.0
  0
LINE
  5
326C
330
315B
100
AcDbEntity
  8
1
  6
DASHED
 62
     7
100
AcDbLine
 10
269.7653730162544
 20
206.0159502191128
 30
0.0
 11
273.912203401533
 21
206.0159502191128
 31
0.0
  0
LINE
  5
326D
330
315B
100
AcDbEntity
  8
1
  6
DASHED
 62
     7
100
AcDbLine
 10
269.7653730162544
 20
208.4159502191127
 30
0.0
 11
273.912203401533
 21
208.4159502191127
 31
0.0
  0
LINE
  5
326E
330
315B
100
AcDbEntity
  8
0
 62
     7
100
AcDbLine
 10
163.8371978621908
 20
224.5099499609185
 30
0.0
 11
167.1871980446086
 21
224.5099499608957
 31
0.0
  0
LINE
  5
326F
330
315B
100
AcDbEntity
  8
0
 62
     7
100
AcDbLine
 10
163.8371978321528
 20
224.1639499645287
 30
0.0
 11
167.1871980446086
 21
224.1639499645158
 31
0.0
  0
LINE
  5
3270
330
315B
100
AcDbEntity
  8
0
 62
     7
100
AcDbLine
 10
163.8371978621964
 20
189.921950477322
 30
0.0
 11
167.1871980446086
 21
189.9219504773473
 31
0.0
  0
LINE
  5
3271
330
315B
100
AcDbEntity
  8
1
 62
     3
100
AcDbLine
 10
178.5371977839739
 20
227.7159502191127
 30
0.0
 11
184.5371977839523
 21
227.7159502191127
 31
0.0
  0
LINE
  5
3272
330
315B
100
AcDbEntity
  8
1
 62
     3
100
AcDbLine
 10
178.5371977839739
 20
230.7159502191125
 30
0.0
 11
184.5371977839523
 21
230.7159502191125
 31
0.0
  0
LINE
  5
3273
330
315B
100
AcDbEntity
  8
1
 62
     7
100
AcDbLine
 10
178.5371977839739
 20
228.0159502191128
 30
0.0
 11
184.5371977839523
 21
228.0159502191128
 31
0.0
  0
LINE
  5
3274
330
315B
100
AcDbEntity
  8
1
 62
     7
100
AcDbLine
 10
178.5371977839739
 20
230.4159502191128
 30
0.0
 11
184.5371977839523
 21
230.4159502191128
 31
0.0
  0
LINE
  5
3275
330
315B
100
AcDbEntity
  8
1
  6
CENTER
 62
     3
100
AcDbLine
 10
177.9533872331624
 20
229.2159502191128
 30
0.0
 11
185.028026277055
 21
229.2159502191128
 31
0.0
  0
LINE
  5
3276
330
315B
100
AcDbEntity
  8
1
  6
CENTER
 62
     3
100
AcDbLine
 10
159.4209698522909
 20
207.2159502191126
 30
0.0
 11
165.2304487238921
 21
207.2159502191126
 31
0.0
  0
LINE
  5
3277
330
315B
100
AcDbEntity
  8
1
 62
     7
100
AcDbLine
 10
184.5079084623531
 20
189.9652605537582
 30
0.0
 11
184.0085983942564
 21
189.4659504856613
 31
0.0
  0
LINE
  5
3278
330
315B
100
AcDbEntity
  8
0
 62
     7
100
AcDbLine
 10
184.0085983942564
 20
189.4659504856613
 30
0.0
 11
176.5371978139044
 21
189.4659504856603
 31
0.0
  0
LINE
  5
3279
330
315B
100
AcDbEntity
  8
1
 62
     7
100
AcDbLine
 10
184.5079084623531
 20
224.4666398844876
 30
0.0
 11
184.0085983942703
 21
224.9659499525699
 31
0.0
  0
LINE
  5
327A
330
315B
100
AcDbEntity
  8
0
 62
     7
100
AcDbLine
 10
184.0085983942703
 20
224.9659499525699
 30
0.0
 11
184.1634590801298
 21
224.9659499525699
 31
0.0
  0
LINE
  5
327B
330
315B
100
AcDbEntity
  8
1
  6
DIVIDE
 62
     7
100
AcDbLine
 10
185.5371977839433
 20
226.2159502191126
 30
0.0
 11
184.5371977839431
 21
226.2159502191126
 31
0.0
  0
LINE
  5
327C
330
315B
100
AcDbEntity
  8
1
  6
DIVIDE
 62
     7
100
AcDbLine
 10
185.5371977836698
 20
188.2159502191127
 30
0.0
 11
184.5371977838098
 21
188.2159502191127
 31
0.0
  0
LINE
  5
327D
330
315B
100
AcDbEntity
  8
1
  6
DIVIDE
 62
     7
100
AcDbLine
 10
185.5371977836698
 20
188.2159502191127
 30
0.0
 11
185.5371977836698
 21
193.3369284661021
 31
0.0
  0
LINE
  5
327E
330
315B
100
AcDbEntity
  8
1
  6
DIVIDE
 62
     7
100
AcDbLine
 10
185.5371977839433
 20
226.2159502191126
 30
0.0
 11
185.5371977839433
 21
222.1531729852785
 31
0.0
  0
LINE
  5
327F
330
315B
100
AcDbEntity
  8
1
  6
CENTER
 62
     3
100
AcDbLine
 10
58.74690550991623
 20
228.1639886117643
 30
0.0
 11
62.45921611114564
 21
224.4516780105348
 31
0.0
  0
LINE
  5
3280
330
315B
100
AcDbEntity
  8
1
  6
CENTER
 62
     3
100
AcDbLine
 10
58.74690550991623
 20
186.2679118264613
 30
0.0
 11
62.45921611114553
 21
189.9802224276903
 31
0.0
  0
LINE
  5
3281
330
315B
100
AcDbEntity
  8
1
  6
CENTER
 62
     3
100
AcDbLine
 10
100.6429822952191
 20
186.2679118264606
 30
0.0
 11
96.93067169398986
 21
189.9802224276903
 31
0.0
  0
LINE
  5
3282
330
315B
100
AcDbEntity
  8
1
  6
CENTER
 62
     3
100
AcDbLine
 10
100.6429822952192
 20
228.1639886117641
 30
0.0
 11
96.93067169398986
 21
224.4516780105348
 31
0.0
  0
LINE
  5
3283
330
315B
100
AcDbEntity
  8
1
  6
CENTER
 62
     3
100
AcDbLine
 10
111.6949439025677
 20
207.2159502191126
 30
0.0
 11
47.69494390256773
 21
207.2159502191126
 31
0.0
  0
LINE
  5
3284
330
315B
100
AcDbEntity
  8
1
  6
CENTER
 62
     3
100
AcDbLine
 10
79.69494390256773
 20
239.2159502191125
 30
0.0
 11
79.69494390256773
 21
175.2159502191123
 31
0.0
  0
LINE
  5
3285
330
315B
100
AcDbEntity
  8
2
  6
CENTER
 62
     3
100
AcDbLine
 10
238.5158276483148
 20
207.2159502191126
 30
0.0
 11
294.5158272357043
 21
207.2159502191126
 31
0.0
  0
LINE
  5
3286
330
315B
100
AcDbEntity
  8
2
  6
CENTER
 62
     3
100
AcDbLine
 10
267.0158276483149
 20
234.7159498059688
 30
0.0
 11
267.0158276483149
 21
179.7159506321804
 31
0.0
  0
ARC
  5
3287
330
315B
100
AcDbEntity
  8
0
 62
     7
100
AcDbCircle
 10
267.0158276483065
 20
207.2159502191138
 30
0.0
 40
15.74999976352734
100
AcDbArc
 50
79.98434781967604
 51
84.35565218547649
  0
ARC
  5
3288
330
315B
100
AcDbEntity
  8
0
 62
     7
100
AcDbCircle
 10
271.0084221491872
 20
221.4620446867034
 30
0.0
 40
1.779999973278588
100
AcDbArc
 50
134.7614411516059
 51
205.869705555116
  0
ARC
  5
3289
330
315B
100
AcDbEntity
  8
0
 62
     7
100
AcDbCircle
 10
267.0158276483149
 20
207.2159502191126
 30
0.0
 40
13.67999979459758
100
AcDbArc
 50
79.93422747506851
 51
84.40577252809751
  0
ARC
  5
328A
330
315B
100
AcDbEntity
  8
0
 62
     7
100
AcDbCircle
 10
267.0168605337597
 20
222.0109499608784
 30
0.0
 40
1.77999997287356
100
AcDbArc
 50
318.4702944505684
 51
29.57855886291075
  0
ARC
  5
328B
330
315B
100
AcDbEntity
  8
0
 62
     7
100
AcDbCircle
 10
267.0158276483121
 20
207.2159502191138
 30
0.0
 40
15.74999976345566
100
AcDbArc
 50
64.33234782022096
 51
68.70365218613975
  0
ARC
  5
328C
330
315B
100
AcDbEntity
  8
0
 62
     7
100
AcDbCircle
 10
274.7038778345896
 20
219.8565950903568
 30
0.0
 40
1.779999973292059
100
AcDbArc
 50
119.1094411537012
 51
190.2177055560569
  0
ARC
  5
328D
330
315B
100
AcDbEntity
  8
0
 62
     7
100
AcDbCircle
 10
267.0158276483292
 20
207.2159502191064
 30
0.0
 40
13.6799997945163
100
AcDbArc
 50
64.28222747571573
 51
68.75377252870355
  0
ARC
  5
328E
330
315B
100
AcDbEntity
  8
0
 62
     7
100
AcDbCircle
 10
271.0084221490703
 20
221.4620446866578
 30
0.0
 40
1.77999997287477
100
AcDbArc
 50
302.8182944494212
 51
13.92655886403687
  0
ARC
  5
328F
330
315B
100
AcDbEntity
  8
0
 62
     7
100
AcDbCircle
 10
267.0158276483026
 20
207.2159502191226
 30
0.0
 40
15.74999976346415
100
AcDbArc
 50
48.6803478199997
 51
53.05165218579819
  0
ARC
  5
3290
330
315B
100
AcDbEntity
  8
0
 62
     7
100
AcDbCircle
 10
277.8291586001772
 20
217.3136673943904
 30
0.0
 40
1.779999973282814
100
AcDbArc
 50
103.4574411522364
 51
174.5657055555964
  0
ARC
  5
3291
330
315B
100
AcDbEntity
  8
0
 62
     7
100
AcDbCircle
 10
267.0158276483288
 20
207.2159502191011
 30
0.0
 40
13.67999979449515
100
AcDbArc
 50
48.63022747552224
 51
53.10177252852888
  0
ARC
  5
3292
330
315B
100
AcDbEntity
  8
0
 62
     7
100
AcDbCircle
 10
274.7038778346378
 20
219.8565950902171
 30
0.0
 40
1.779999972873888
100
AcDbArc
 50
287.1662944489155
 51
358.2745588634796
  0
ARC
  5
3293
330
315B
100
AcDbEntity
  8
0
 62
     7
100
AcDbCircle
 10
267.0158276483192
 20
207.2159502191063
 30
0.0
 40
15.7499997634656
100
AcDbArc
 50
33.02834781975331
 51
37.39965218555102
  0
ARC
  5
3294
330
315B
100
AcDbEntity
  8
0
 62
     7
100
AcDbCircle
 10
280.1524817874295
 20
214.0218547480615
 30
0.0
 40
1.779999973302764
100
AcDbArc
 50
87.80544115322106
 51
158.9137055569929
  0
ARC
  5
3295
330
315B
100
AcDbEntity
  8
0
 62
     7
100
AcDbCircle
 10
267.0158276483264
 20
207.2159502190964
 30
0.0
 40
13.6799997945068
100
AcDbArc
 50
32.97822747511634
 51
37.44977252822414
  0
ARC
  5
3296
330
315B
100
AcDbEntity
  8
0
 62
     7
100
AcDbCircle
 10
277.8291586002484
 20
217.3136673942763
 30
0.0
 40
1.77999997287609
100
AcDbArc
 50
271.514294448428
 51
342.6225588621608
  0
ARC
  5
3297
330
315B
100
AcDbEntity
  8
0
 62
     7
100
AcDbCircle
 10
267.015827648307
 20
207.2159502191349
 30
0.0
 40
15.74999976345162
100
AcDbArc
 50
17.37634781938877
 51
21.7476521852013
  0
ARC
  5
3298
330
315B
100
AcDbEntity
  8
0
 62
     7
100
AcDbCircle
 10
281.5015409491138
 20
210.2252904447595
 30
0.0
 40
1.779999973305485
100
AcDbArc
 50
72.15344115225469
 51
143.2617055558515
  0
ARC
  5
3299
330
315B
100
AcDbEntity
  8
0
 62
     7
100
AcDbCircle
 10
267.0158276483149
 20
207.2159502191126
 30
0.0
 40
13.67999979452386
100
AcDbArc
 50
17.32622747485661
 51
21.79777252784621
  0
ARC
  5
329A
330
315B
100
AcDbEntity
  8
0
 62
     7
100
AcDbCircle
 10
280.1524817873839
 20
214.021854747899
 30
0.0
 40
1.779999972874894
100
AcDbArc
 50
255.8622944495588
 51
326.9705588631897
  0
ARC
  5
329B
330
315B
100
AcDbEntity
  8
0
 62
     7
100
AcDbCircle
 10
267.0158276483153
 20
207.2159502191064
 30
0.0
 40
15.74999976339736
100
AcDbArc
 50
1.72434781999549
 51
6.095652185826977
  0
ARC
  5
329C
330
315B
100
AcDbEntity
  8
0
 62
     7
100
AcDbCircle
 10
281.7762847484351
 20
206.2055420728117
 30
0.0
 40
1.779999973287089
100
AcDbArc
 50
56.50144115380768
 51
127.6097055568975
  0
ARC
  5
329D
330
315B
100
AcDbEntity
  8
0
 62
     7
100
AcDbCircle
 10
267.0158276483147
 20
207.2159502191161
 30
0.0
 40
13.67999979449574
100
AcDbArc
 50
1.674227475321014
 51
6.145772528352369
  0
ARC
  5
329E
330
315B
100
AcDbEntity
  8
0
 62
     7
100
AcDbCircle
 10
281.5015409490221
 20
210.2252904448179
 30
0.0
 40
1.779999972869561
100
AcDbArc
 50
240.2102944493467
 51
311.3185588635756
  0
ARC
  5
329F
330
315B
100
AcDbEntity
  8
0
 62
     7
100
AcDbCircle
 10
267.0158276483072
 20
207.2159502190761
 30
0.0
 40
15.74999976344984
100
AcDbArc
 50
346.0723478198167
 51
350.4436521856991
  0
ARC
  5
32A0
330
315B
100
AcDbEntity
  8
0
 62
     7
100
AcDbCircle
 10
280.9563371446452
 20
202.2607293956601
 30
0.0
 40
1.779999973246543
100
AcDbArc
 50
40.84944115216145
 51
111.9577055550277
  0
ARC
  5
32A1
330
315B
100
AcDbEntity
  8
0
 62
     7
100
AcDbCircle
 10
267.015827648328
 20
207.2159502191754
 30
0.0
 40
13.67999979451481
100
AcDbArc
 50
346.0222274748411
 51
350.4937725277948
  0
ARC
  5
32A2
330
315B
100
AcDbEntity
  8
0
 62
     7
100
AcDbCircle
 10
281.7762847483712
 20
206.2055420726701
 30
0.0
 40
1.779999972836951
100
AcDbArc
 50
224.5582944490807
 51
295.6665588621685
  0
ARC
  5
32A3
330
315B
100
AcDbEntity
  8
0
 62
     7
100
AcDbCircle
 10
267.015827648292
 20
207.2159502190685
 30
0.0
 40
15.74999976345035
100
AcDbArc
 50
330.4203478196503
 51
334.7916521854159
  0
ARC
  5
32A4
330
315B
100
AcDbEntity
  8
0
 62
     7
100
AcDbCircle
 10
279.102508557498
 20
198.6834146624529
 30
0.0
 40
1.779999973273356
100
AcDbArc
 50
25.1974411522474
 51
96.3057055549916
  0
ARC
  5
32A5
330
315B
100
AcDbEntity
  8
0
 62
     7
100
AcDbCircle
 10
267.0158276483479
 20
207.2159502191763
 30
0.0
 40
13.67999979449578
100
AcDbArc
 50
330.370227474514
 51
334.8417725275524
  0
ARC
  5
32A6
330
315B
100
AcDbEntity
  8
0
 62
     7
100
AcDbCircle
 10
280.9563371445477
 20
202.2607293955585
 30
0.0
 40
1.779999972876999
100
AcDbArc
 50
208.9062944484671
 51
280.0145588620828
  0
ARC
  5
32A7
330
315B
100
AcDbEntity
  8
0
 62
     7
100
AcDbCircle
 10
267.0158276482583
 20
207.215950219052
 30
0.0
 40
15.74999976344173
100
AcDbArc
 50
314.7683478193523
 51
319.1396521852812
  0
ARC
  5
32A8
330
315B
100
AcDbEntity
  8
0
 62
     7
100
AcDbCircle
 10
276.3522859363394
 20
195.7389050827501
 30
0.0
 40
1.779999973286398
100
AcDbArc
 50
9.545441151332212
 51
80.65370555522859
  0
ARC
  5
32A9
330
315B
100
AcDbEntity
  8
0
 62
     7
100
AcDbCircle
 10
267.0158276483284
 20
207.2159502191268
 30
0.0
 40
13.67999979450083
100
AcDbArc
 50
314.7182274743195
 51
319.18977252738
  0
ARC
  5
32AA
330
315B
100
AcDbEntity
  8
0
 62
     7
100
AcDbCircle
 10
279.1025085573648
 20
198.683414662373
 30
0.0
 40
1.779999972845085
100
AcDbArc
 50
193.2542944485298
 51
264.3625588623863
  0
ARC
  5
32AB
330
315B
100
AcDbEntity
  8
0
 62
     7
100
AcDbCircle
 10
267.0158276482211
 20
207.2159502190558
 30
0.0
 40
15.7499997634742
100
AcDbArc
 50
299.1163478196245
 51
303.4876521855047
  0
ARC
  5
32AC
330
315B
100
AcDbEntity
  8
0
 62
     7
100
AcDbCircle
 10
272.9096362072175
 20
193.6455766392489
 30
0.0
 40
1.779999973254883
100
AcDbArc
 50
353.8934411504298
 51
65.00170555555951
  0
ARC
  5
32AD
330
315B
100
AcDbEntity
  8
0
 62
     7
100
AcDbCircle
 10
267.0158276483149
 20
207.2159502191126
 30
0.0
 40
13.67999979451188
100
AcDbArc
 50
299.0662274744551
 51
303.5377725276513
  0
ARC
  5
32AE
330
315B
100
AcDbEntity
  8
0
 62
     7
100
AcDbCircle
 10
276.3522859363121
 20
195.7389050827771
 30
0.0
 40
1.779999972870137
100
AcDbArc
 50
177.602294448002
 51
248.7105588621913
  0
ARC
  5
32AF
330
315B
100
AcDbEntity
  8
0
 62
     7
100
AcDbCircle
 10
267.0158276480969
 20
207.2159502190517
 30
0.0
 40
15.74999976345702
100
AcDbArc
 50
283.4643478202356
 51
287.835652186066
  0
ARC
  5
32B0
330
315B
100
AcDbEntity
  8
0
 62
     7
100
AcDbCircle
 10
269.0298793128389
 20
192.5586784975999
 30
0.0
 40
1.779999973264974
100
AcDbArc
 50
338.2414411512409
 51
49.34970555507899
  0
ARC
  5
32B1
330
315B
100
AcDbEntity
  8
0
 62
     7
100
AcDbCircle
 10
267.0158276482064
 20
207.2159502190821
 30
0.0
 40
13.67999979448436
100
AcDbArc
 50
283.4142274752491
 51
287.8857725282975
  0
ARC
  5
32B2
330
315B
100
AcDbEntity
  8
0
 62
     7
100
AcDbCircle
 10
272.9096362071812
 20
193.6455766393309
 30
0.0
 40
1.779999972881276
100
AcDbArc
 50
161.950294449597
 51
233.0585588625403
  0
ARC
  5
32B3
330
315B
100
AcDbEntity
  8
0
 62
     7
100
AcDbCircle
 10
267.0158276482674
 20
207.2159502191126
 30
0.0
 40
15.74999976346101
100
AcDbArc
 50
267.812347819256
 51
272.1836521850744
  0
ARC
  5
32B4
330
315B
100
AcDbEntity
  8
0
 62
     7
100
AcDbCircle
 10
265.0007527187556
 20
192.5588191405358
 30
0.0
 40
1.779999973286749
100
AcDbArc
 50
322.5894411512668
 51
33.69770555523237
  0
ARC
  5
32B5
330
315B
100
AcDbEntity
  8
0
 62
     7
100
AcDbCircle
 10
267.0158276485638
 20
207.2159502191126
 30
0.0
 40
13.67999979447103
100
AcDbArc
 50
267.7622274733983
 51
272.2337725264184
  0
ARC
  5
32B6
330
315B
100
AcDbEntity
  8
0
 62
     7
100
AcDbCircle
 10
269.0298793126871
 20
192.5586784976414
 30
0.0
 40
1.779999972900632
100
AcDbArc
 50
146.2982944484636
 51
217.406558863735
  0
ARC
  5
32B7
330
315B
100
AcDbEntity
  8
0
 62
     7
100
AcDbCircle
 10
267.0158276483999
 20
207.2159502190888
 30
0.0
 40
15.74999976343102
100
AcDbArc
 50
252.1603478188654
 51
256.5316521847043
  0
ARC
  5
32B8
330
315B
100
AcDbEntity
  8
0
 62
     7
100
AcDbCircle
 10
261.1210717135814
 20
193.6459881375244
 30
0.0
 40
1.779999973266954
100
AcDbArc
 50
306.9374411516654
 51
18.04570555500171
  0
ARC
  5
32B9
330
315B
100
AcDbEntity
  8
0
 62
     7
100
AcDbCircle
 10
267.0158276482379
 20
207.2159502191341
 30
0.0
 40
13.67999979453708
100
AcDbArc
 50
252.1102274749015
 51
256.5817725280389
  0
ARC
  5
32BA
330
315B
100
AcDbEntity
  8
0
 62
     7
100
AcDbCircle
 10
265.0007527187419
 20
192.558819140596
 30
0.0
 40
1.779999972856096
100
AcDbArc
 50
130.6462944496916
 51
201.7545588618076
  0
ARC
  5
32BB
330
315B
100
AcDbEntity
  8
0
 62
     7
100
AcDbCircle
 10
267.0158276483383
 20
207.2159502191158
 30
0.0
 40
15.7499997634728
100
AcDbArc
 50
95.64034781833674
 51
100.0116521840582
  0
ARC
  5
32BC
330
315B
100
AcDbEntity
  8
0
 62
     7
100
AcDbCircle
 10
267.0158276482454
 20
222.0109499969615
 30
0.0
 40
1.779999973288314
100
AcDbArc
 50
150.4174411503368
 51
221.5257055542175
  0
ARC
  5
32BD
330
315B
100
AcDbEntity
  8
0
 62
     7
100
AcDbCircle
 10
267.0158276482871
 20
207.2159502191087
 30
0.0
 40
13.67999979450182
100
AcDbArc
 50
95.59022747348352
 51
100.061772526546
  0
ARC
  5
32BE
330
315B
100
AcDbEntity
  8
0
 62
     7
100
AcDbCircle
 10
263.0242277217784
 20
221.4623233874446
 30
0.0
 40
1.779999972885313
100
AcDbArc
 50
334.1262944469046
 51
45.2345588614236
  0
ARC
  5
32BF
330
315B
100
AcDbEntity
  8
0
 62
     7
100
AcDbCircle
 10
267.0158276483364
 20
207.2159502191098
 30
0.0
 40
15.74999976346705
100
AcDbArc
 50
79.98834781826339
 51
84.35965218407842
  0
ARC
  5
32C0
330
315B
100
AcDbEntity
  8
0
 62
     7
100
AcDbCircle
 10
271.0074275748084
 20
221.4623233875227
 30
0.0
 40
1.779999973276165
100
AcDbArc
 50
134.7654411506358
 51
205.8737055540458
  0
ARC
  5
32C1
330
315B
100
AcDbEntity
  8
0
 62
     7
100
AcDbCircle
 10
267.0158276483261
 20
207.2159502191111
 30
0.0
 40
13.67999979452007
100
AcDbArc
 50
79.9382274735758
 51
84.4097725266195
  0
ARC
  5
32C2
330
315B
100
AcDbEntity
  8
0
 62
     7
100
AcDbCircle
 10
267.0158276483149
 20
222.0109499969158
 30
0.0
 40
1.779999972859751
100
AcDbArc
 50
318.474294447463
 51
29.58255886088514
  0
ARC
  5
32C3
330
315B
100
AcDbEntity
  8
0
 62
     7
100
AcDbCircle
 10
261.1220190894483
 20
193.6455766393309
 30
0.0
 40
1.77999997288127
100
AcDbArc
 50
306.9414411374596
 51
18.04970555040298
  0
ARC
  5
32C4
330
315B
100
AcDbEntity
  8
0
 62
     7
100
AcDbCircle
 10
267.0158276484235
 20
207.2159502190821
 30
0.0
 40
13.67999979448437
100
AcDbArc
 50
252.1142274717024
 51
256.5857725247508
  0
ARC
  5
32C5
330
315B
100
AcDbEntity
  8
0
 62
     7
100
AcDbCircle
 10
265.0017759837908
 20
192.5586784975999
 30
0.0
 40
1.779999973264968
100
AcDbArc
 50
130.650294444921
 51
201.7585588487601
  0
ARC
  5
32C6
330
315B
100
AcDbEntity
  8
0
 62
     7
100
AcDbCircle
 10
267.0158276485328
 20
207.2159502190517
 30
0.0
 40
15.74999976345702
100
AcDbArc
 50
252.1643478139337
 51
256.5356521797641
  0
ARC
  5
32C7
330
315B
100
AcDbEntity
  8
0
 62
     7
100
AcDbCircle
 10
257.6793693603177
 20
195.7389050827771
 30
0.0
 40
1.779999972869475
100
AcDbArc
 50
291.2894411378081
 51
2.397705551997708
  0
ARC
  5
32C8
330
315B
100
AcDbEntity
  8
0
 62
     7
100
AcDbCircle
 10
267.0158276483149
 20
207.2159502191126
 30
0.0
 40
13.67999979451194
100
AcDbArc
 50
236.4622274723485
 51
240.9337725255447
  0
ARC
  5
32C9
330
315B
100
AcDbEntity
  8
0
 62
     7
100
AcDbCircle
 10
261.1220190894122
 20
193.6455766392489
 30
0.0
 40
1.779999973254893
100
AcDbArc
 50
114.9982944444404
 51
186.1065588495698
  0
ARC
  5
32CA
330
315B
100
AcDbEntity
  8
0
 62
     7
100
AcDbCircle
 10
267.0158276484085
 20
207.2159502190558
 30
0.0
 40
15.74999976347418
100
AcDbArc
 50
236.5123478144953
 51
240.8836521803749
  0
ARC
  5
32CB
330
315B
100
AcDbEntity
  8
0
 62
     7
100
AcDbCircle
 10
254.9291467392648
 20
198.683414662373
 30
0.0
 40
1.779999972845089
100
AcDbArc
 50
275.6374411376136
 51
346.7457055514699
  0
ARC
  5
32CC
330
315B
100
AcDbEntity
  8
0
 62
     7
100
AcDbCircle
 10
267.0158276483015
 20
207.2159502191268
 30
0.0
 40
13.67999979450083
100
AcDbArc
 50
220.8102274726198
 51
225.2817725256803
  0
ARC
  5
32CD
330
315B
100
AcDbEntity
  8
0
 62
     7
100
AcDbCircle
 10
257.6793693602904
 20
195.7389050827501
 30
0.0
 40
1.77999997328639
100
AcDbArc
 50
99.3462944447714
 51
170.4545588486674
  0
ARC
  5
32CE
330
315B
100
AcDbEntity
  8
0
 62
     7
100
AcDbCircle
 10
267.0158276483713
 20
207.215950219052
 30
0.0
 40
15.74999976344173
100
AcDbArc
 50
220.8603478147183
 51
225.2316521806463
  0
ARC
  5
32CF
330
315B
100
AcDbEntity
  8
0
 62
     7
100
AcDbCircle
 10
253.0753181520821
 20
202.2607293955585
 30
0.0
 40
1.779999972876986
100
AcDbArc
 50
259.9854411379171
 51
331.0937055515328
  0
ARC
  5
32D0
330
315B
100
AcDbEntity
  8
0
 62
     7
100
AcDbCircle
 10
267.015827648282
 20
207.2159502191763
 30
0.0
 40
13.67999979449574
100
AcDbArc
 50
205.1582274724473
 51
209.6297725254858
  0
ARC
  5
32D1
330
315B
100
AcDbEntity
  8
0
 62
     7
100
AcDbCircle
 10
254.9291467391318
 20
198.6834146624529
 30
0.0
 40
1.779999973274389
100
AcDbArc
 50
83.69429444500843
 51
154.8025588477524
  0
ARC
  5
32D2
330
315B
100
AcDbEntity
  8
0
 62
     7
100
AcDbCircle
 10
267.0158276483379
 20
207.2159502190685
 30
0.0
 40
15.74999976345035
100
AcDbArc
 50
205.2083478145835
 51
209.5796521803495
  0
ARC
  5
32D3
330
315B
100
AcDbEntity
  8
0
 62
     7
100
AcDbCircle
 10
252.2553705482585
 20
206.2055420726701
 30
0.0
 40
1.779999972836948
100
AcDbArc
 50
244.3334411378312
 51
315.4417055509192
  0
ARC
  5
32D4
330
315B
100
AcDbEntity
  8
0
 62
     7
100
AcDbCircle
 10
267.0158276483018
 20
207.2159502191754
 30
0.0
 40
13.67999979451482
100
AcDbArc
 50
189.5062274722048
 51
193.9777725251587
  0
ARC
  5
32D5
330
315B
100
AcDbEntity
  8
0
 62
     7
100
AcDbCircle
 10
253.0753181519844
 20
202.2607293956601
 30
0.0
 40
1.779999973246543
100
AcDbArc
 50
68.0422944449721
 51
139.1505588478385
  0
ARC
  5
32D6
330
315B
100
AcDbEntity
  8
0
 62
     7
100
AcDbCircle
 10
267.0158276483225
 20
207.2159502190761
 30
0.0
 40
15.74999976344985
100
AcDbArc
 50
189.5563478143006
 51
193.9276521801831
  0
ARC
  5
32D7
330
315B
100
AcDbEntity
  8
0
 62
     7
100
AcDbCircle
 10
252.5301143476075
 20
210.2252904448179
 30
0.0
 40
1.779999972869303
100
AcDbArc
 50
228.6814411364243
 51
299.789705550653
  0
ARC
  5
32D8
330
315B
100
AcDbEntity
  8
0
 62
     7
100
AcDbCircle
 10
267.0158276483147
 20
207.2159502191161
 30
0.0
 40
13.67999979449532
100
AcDbArc
 50
173.8542274716476
 51
178.325772524679
  0
ARC
  5
32D9
330
315B
100
AcDbEntity
  8
0
 62
     7
100
AcDbCircle
 10
252.2553705481946
 20
206.2055420728117
 30
0.0
 40
1.779999973287458
100
AcDbArc
 50
52.3902944431024
 51
123.4985588461922
  0
ARC
  5
32DA
330
315B
100
AcDbEntity
  8
0
 62
     7
100
AcDbCircle
 10
267.0158276483153
 20
207.2159502191064
 30
0.0
 40
15.74999976339823
100
AcDbArc
 50
173.904347814173
 51
178.2756521800044
  0
ARC
  5
32DB
330
315B
100
AcDbEntity
  8
0
 62
     7
100
AcDbCircle
 10
253.8791735092456
 20
214.021854747899
 30
0.0
 40
1.779999972875291
100
AcDbArc
 50
213.0294411368101
 51
284.1377055504411
  0
ARC
  5
32DC
330
315B
100
AcDbEntity
  8
0
 62
     7
100
AcDbCircle
 10
267.0158276483149
 20
207.2159502191126
 30
0.0
 40
13.67999979452381
100
AcDbArc
 50
158.2022274721538
 51
162.6737725251433
  0
ARC
  5
32DD
330
315B
100
AcDbEntity
  8
0
 62
     7
100
AcDbCircle
 10
252.5301143475159
 20
210.2252904447595
 30
0.0
 40
1.779999973306154
100
AcDbArc
 50
36.73829444414845
 51
107.8465588477452
  0
ARC
  5
32DE
330
315B
100
AcDbEntity
  8
0
 62
     7
100
AcDbCircle
 10
267.0158276483229
 20
207.2159502191349
 30
0.0
 40
15.74999976345161
100
AcDbArc
 50
158.2523478147986
 51
162.6236521806112
  0
ARC
  5
32DF
330
315B
100
AcDbEntity
  8
0
 62
     7
100
AcDbCircle
 10
256.2024966963808
 20
217.3136673942763
 30
0.0
 40
1.779999972874884
100
AcDbArc
 50
197.3774411378404
 51
268.4857055515718
  0
ARC
  5
32E0
330
315B
100
AcDbEntity
  8
0
 62
     7
100
AcDbCircle
 10
267.0158276483034
 20
207.2159502190964
 30
0.0
 40
13.6799997945068
100
AcDbArc
 50
142.5502274717758
 51
147.0217725248834
  0
ARC
  5
32E1
330
315B
100
AcDbEntity
  8
0
 62
     7
100
AcDbCircle
 10
253.8791735091998
 20
214.0218547480615
 30
0.0
 40
1.779999973301879
100
AcDbArc
 50
21.08629444300704
 51
92.19455884677895
  0
ARC
  5
32E2
330
315B
100
AcDbEntity
  8
0
 62
     7
100
AcDbCircle
 10
267.0158276483102
 20
207.2159502191063
 30
0.0
 40
15.7499997634656
100
AcDbArc
 50
142.6003478144489
 51
146.9716521802465
  0
ARC
  5
32E3
330
315B
100
AcDbEntity
  8
0
 62
     7
100
AcDbCircle
 10
259.327777461992
 20
219.8565950902171
 30
0.0
 40
1.779999972872879
100
AcDbArc
 50
181.7254411365201
 51
252.8337055510839
  0
ARC
  5
32E4
330
315B
100
AcDbEntity
  8
0
 62
     7
100
AcDbCircle
 10
267.0158276483009
 20
207.2159502191011
 30
0.0
 40
13.67999979449515
100
AcDbArc
 50
126.8982274714711
 51
131.3697725244777
  0
ARC
  5
32E5
330
315B
100
AcDbEntity
  8
0
 62
     7
100
AcDbCircle
 10
256.2024966964526
 20
217.3136673943904
 30
0.0
 40
1.779999973281394
100
AcDbArc
 50
5.434294444403586
 51
76.54255884776334
  0
ARC
  5
32E6
330
315B
100
AcDbEntity
  8
0
 62
     7
100
AcDbCircle
 10
267.0158276483271
 20
207.2159502191226
 30
0.0
 40
15.74999976346416
100
AcDbArc
 50
126.9483478142015
 51
131.3196521800003
  0
ARC
  5
32E7
330
315B
100
AcDbEntity
  8
0
 62
     7
100
AcDbCircle
 10
263.0232331475592
 20
221.4620446866578
 30
0.0
 40
1.779999972874156
100
AcDbArc
 50
166.0734411359631
 51
237.1817055505788
  0
ARC
  5
32E8
330
315B
100
AcDbEntity
  8
0
 62
     7
100
AcDbCircle
 10
267.0158276483005
 20
207.2159502191064
 30
0.0
 40
13.6799997945163
100
AcDbArc
 50
111.246227471296
 51
115.7177725242842
  0
ARC
  5
32E9
330
315B
100
AcDbEntity
  8
0
 62
     7
100
AcDbCircle
 10
259.3277774620401
 20
219.8565950903568
 30
0.0
 40
1.779999973292855
100
AcDbArc
 50
349.7822944439431
 51
60.89055884629879
  0
ARC
  5
32EA
330
315B
100
AcDbEntity
  8
0
 62
     7
100
AcDbCircle
 10
267.0158276483176
 20
207.2159502191138
 30
0.0
 40
15.74999976345566
100
AcDbArc
 50
111.2963478138602
 51
115.667652179779
  0
ARC
  5
32EB
330
315B
100
AcDbEntity
  8
0
 62
     7
100
AcDbCircle
 10
267.0158276662746
 20
221.9604499976687
 30
0.0
 40
1.587499976126123
100
AcDbArc
 50
295.9377875220491
 51
63.9726690144196
  0
ARC
  5
32EC
330
315B
100
AcDbEntity
  8
0
 62
     7
100
AcDbCircle
 10
267.0158276662746
 20
221.9604499976701
 30
0.0
 40
1.587499976159389
100
AcDbArc
 50
116.027330846455
 51
244.0622123389444
  0
ARC
  5
32ED
330
315B
100
AcDbEntity
  8
0
 62
     7
100
AcDbCircle
 10
270.9938460974178
 20
221.413683944558
 30
0.0
 40
1.58749997612401
100
AcDbArc
 50
280.2856136122878
 51
48.32049510431625
  0
ARC
  5
32EE
330
315B
100
AcDbEntity
  8
0
 62
     7
100
AcDbCircle
 10
270.9938460974178
 20
221.413683944558
 30
0.0
 40
1.58749997616162
100
AcDbArc
 50
100.3751569363414
 51
228.410038428507
  0
ARC
  5
32EF
330
315B
100
AcDbEntity
  8
0
 62
     7
100
AcDbCircle
 10
274.676833098544
 20
219.8139369317293
 30
0.0
 40
1.587499976136139
100
AcDbArc
 50
264.6334397028379
 51
32.66832119470009
  0
ARC
  5
32F0
330
315B
100
AcDbEntity
  8
0
 62
     7
100
AcDbCircle
 10
274.676833098544
 20
219.8139369317293
 30
0.0
 40
1.587499976177849
100
AcDbArc
 50
84.7229830259997
 51
212.7578645190585
  0
ARC
  5
32F1
330
315B
100
AcDbEntity
  8
0
 62
     7
100
AcDbCircle
 10
277.7916383724142
 20
217.279854876779
 30
0.0
 40
1.587499976142565
100
AcDbArc
 50
248.9812657915673
 51
17.01614728482141
  0
ARC
  5
32F2
330
315B
100
AcDbEntity
  8
0
 62
     7
100
AcDbCircle
 10
277.7916383724157
 20
217.2798548767804
 30
0.0
 40
1.587499976173868
100
AcDbArc
 50
69.07080911682101
 51
197.1056906093329
  0
ARC
  5
32F3
330
315B
100
AcDbEntity
  8
0
 62
     7
100
AcDbCircle
 10
280.10725106123
 20
213.9993790529188
 30
0.0
 40
1.587499976125223
100
AcDbArc
 50
233.3290918822423
 51
1.363973374602792
  0
ARC
  5
32F4
330
315B
100
AcDbEntity
  8
0
 62
     7
100
AcDbCircle
 10
280.10725106123
 20
213.9993790529188
 30
0.0
 40
1.587499976194487
100
AcDbArc
 50
53.41863520668764
 51
181.4535166982684
  0
ARC
  5
32F5
330
315B
100
AcDbEntity
  8
0
 62
     7
100
AcDbCircle
 10
281.4519327651701
 20
210.2158073448006
 30
0.0
 40
1.587499976119856
100
AcDbArc
 50
217.6769179725201
 51
345.7117994646361
  0
ARC
  5
32F6
330
315B
100
AcDbEntity
  8
0
 62
     7
100
AcDbCircle
 10
281.4519327651701
 20
210.2158073448006
 30
0.0
 40
1.587499976187634
100
AcDbArc
 50
37.76646129607998
 51
165.8013427888378
  0
ARC
  5
32F7
330
315B
100
AcDbEntity
  8
0
 62
     7
100
AcDbCircle
 10
281.7259545938038
 20
206.2097499571851
 30
0.0
 40
1.587499976144344
100
AcDbArc
 50
202.0247440618619
 51
330.0596255538471
  0
ARC
  5
32F8
330
315B
100
AcDbEntity
  8
0
 62
     7
100
AcDbCircle
 10
281.7259545938038
 20
206.2097499571851
 30
0.0
 40
1.587499976121628
100
AcDbArc
 50
22.11428738712263
 51
150.1491688796078
  0
ARC
  5
32F9
330
315B
100
AcDbEntity
  8
0
 62
     7
100
AcDbCircle
 10
280.9089936016279
 20
202.2783178399278
 30
0.0
 40
1.587499976099813
100
AcDbArc
 50
186.3725701520662
 51
314.4074516445559
  0
ARC
  5
32FA
330
315B
100
AcDbEntity
  8
0
 62
     7
100
AcDbCircle
 10
280.9089936016309
 20
202.2783178399265
 30
0.0
 40
1.58749997621301
100
AcDbArc
 50
6.462113475754526
 51
134.4969949678395
  0
ARC
  5
32FB
330
315B
100
AcDbEntity
  8
0
 62
     7
100
AcDbCircle
 10
279.0616400481662
 20
198.7130873279319
 30
0.0
 40
1.587499976133566
100
AcDbArc
 50
170.720396241758
 51
298.7552777341472
  0
ARC
  5
32FC
330
315B
100
AcDbEntity
  8
0
 62
     7
100
AcDbCircle
 10
279.0616400481662
 20
198.7130873279319
 30
0.0
 40
1.587499976150448
100
AcDbArc
 50
350.8099395655396
 51
118.8448210591271
  0
ARC
  5
32FD
330
315B
100
AcDbEntity
  8
0
 62
     7
100
AcDbCircle
 10
276.3209036952658
 20
195.7784752582704
 30
0.0
 40
1.587499976151431
100
AcDbArc
 50
155.0682223314765
 51
283.1031038244097
  0
ARC
  5
32FE
330
315B
100
AcDbEntity
  8
0
 62
     7
100
AcDbCircle
 10
276.3209036952681
 20
195.7784752582684
 30
0.0
 40
1.587499976152168
100
AcDbArc
 50
335.1577656572552
 51
103.1926471492121
  0
ARC
  5
32FF
330
315B
100
AcDbEntity
  8
0
 62
     7
100
AcDbCircle
 10
272.8900524200989
 20
193.6921283831555
 30
0.0
 40
1.587499976142638
100
AcDbArc
 50
139.4160484213242
 51
267.4509299138524
  0
ARC
  5
3300
330
315B
100
AcDbEntity
  8
0
 62
     7
100
AcDbCircle
 10
272.8900524200954
 20
193.6921283831638
 30
0.0
 40
1.587499976163744
100
AcDbArc
 50
319.5055917469256
 51
87.54047323831915
  0
ARC
  5
3301
330
315B
100
AcDbEntity
  8
0
 62
     7
100
AcDbCircle
 10
269.0235367665744
 20
192.6087815059154
 30
0.0
 40
1.587499976168063
100
AcDbArc
 50
123.7638745115405
 51
251.7987560044903
  0
ARC
  5
3302
330
315B
100
AcDbEntity
  8
0
 62
     7
100
AcDbCircle
 10
269.0235367665731
 20
192.6087815059228
 30
0.0
 40
1.587499976172308
100
AcDbArc
 50
303.8534178367471
 51
71.88829932942319
  0
ARC
  5
3303
330
315B
100
AcDbEntity
  8
0
 62
     7
100
AcDbCircle
 10
265.0081185123635
 20
192.6087815083684
 30
0.0
 40
1.587499976130301
100
AcDbArc
 50
108.1117006018667
 51
236.1465820951988
  0
ARC
  5
3304
330
315B
100
AcDbEntity
  8
0
 62
     7
100
AcDbCircle
 10
265.0081185123624
 20
192.6087815083604
 30
0.0
 40
1.587499976207196
100
AcDbArc
 50
288.2012439256843
 51
56.23612541828808
  0
ARC
  5
3305
330
315B
100
AcDbEntity
  8
0
 62
     7
100
AcDbCircle
 10
261.1416028601494
 20
193.6921283903284
 30
0.0
 40
1.587499976219248
100
AcDbArc
 50
303.4145541242276
 51
40.58395150703293
  0
ARC
  5
3306
330
315B
100
AcDbEntity
  8
0
 62
     7
100
AcDbCircle
 10
263.037809216486
 20
221.4136839494114
 30
0.0
 40
1.587499976182731
100
AcDbArc
 50
311.5899615005936
 51
79.62484299397442
  0
ARC
  5
3307
330
315B
100
AcDbEntity
  8
0
 62
     7
100
AcDbCircle
 10
263.037809216487
 20
221.4136839494079
 30
0.0
 40
1.587499976176588
100
AcDbArc
 50
229.9266384242406
 51
259.7143863189068
  0
ARC
  5
3308
330
315B
100
AcDbEntity
  8
0
 62
     7
100
AcDbCircle
 10
267.0158276483149
 20
221.9604499976687
 30
0.0
 40
1.587499976139624
100
AcDbArc
 50
295.9377875915856
 51
63.97266908399428
  0
ARC
  5
3309
330
315B
100
AcDbEntity
  8
0
 62
     7
100
AcDbCircle
 10
267.0158276483149
 20
221.9604499976698
 30
0.0
 40
1.587499976173674
100
AcDbArc
 50
116.0273309160092
 51
244.0622124084899
  0
ARC
  5
330A
330
315B
100
AcDbEntity
  8
0
 62
     7
100
AcDbCircle
 10
267.0158276483149
 20
207.2159502191126
 30
0.0
 40
16.94799974540335
100
AcDbArc
 50
102.2213375552568
 51
107.1587406081789
  0
ARC
  5
330B
330
315B
100
AcDbEntity
  8
0
 62
     7
100
AcDbCircle
 10
267.0158276483149
 20
207.2159502191126
 30
0.0
 40
16.94799974540335
100
AcDbArc
 50
252.8412593918209
 51
0.0
  0
ARC
  5
330C
330
315B
100
AcDbEntity
  8
0
 62
     7
100
AcDbCircle
 10
267.0158276483149
 20
207.2159502191126
 30
0.0
 40
16.18599975692366
100
AcDbArc
 50
0.0
 51
107.9934903515074
  0
ARC
  5
330D
330
315B
100
AcDbEntity
  8
0
 62
     7
100
AcDbCircle
 10
267.0158276483149
 20
207.2159502191126
 30
0.0
 40
16.18599975692366
100
AcDbArc
 50
252.0065096484924
 51
0.0
  0
ARC
  5
330E
330
315B
100
AcDbEntity
  8
0
 62
     7
100
AcDbCircle
 10
267.0158276483149
 20
207.2159502191126
 30
0.0
 40
13.33499979971825
100
AcDbArc
 50
0.0
 51
112.021416416317
  0
ARC
  5
330F
330
315B
100
AcDbEntity
  8
0
 62
     7
100
AcDbCircle
 10
267.0158276483149
 20
207.2159502191126
 30
0.0
 40
13.33499979971825
100
AcDbArc
 50
247.9785835836826
 51
0.0
  0
ARC
  5
3310
330
315B
100
AcDbEntity
  8
0
 62
     7
100
AcDbCircle
 10
267.0158276483149
 20
207.2159502191126
 30
0.0
 40
12.53499981175656
100
AcDbArc
 50
0.0
 51
113.5083762923041
  0
ARC
  5
3311
330
315B
100
AcDbEntity
  8
0
 62
     7
100
AcDbCircle
 10
267.0158276483149
 20
207.2159502191126
 30
0.0
 40
12.53499981175657
100
AcDbArc
 50
246.4916237076955
 51
0.0
  0
ARC
  5
3312
330
315B
100
AcDbEntity
  8
1
 62
     7
100
AcDbCircle
 10
267.0158276483149
 20
207.2159502191126
 30
0.0
 40
12.53499981175657
100
AcDbArc
 50
113.5083762923041
 51
246.4916237076955
  0
ARC
  5
3313
330
315B
100
AcDbEntity
  8
1
 62
     7
100
AcDbCircle
 10
267.0158276483149
 20
207.2159502191126
 30
0.0
 40
13.33499979971825
100
AcDbArc
 50
112.021416416317
 51
247.9785835836826
  0
ARC
  5
3314
330
315B
100
AcDbEntity
  8
1
 62
     7
100
AcDbCircle
 10
267.0158276483149
 20
207.2159502191126
 30
0.0
 40
16.18599975692366
100
AcDbArc
 50
107.9934903515074
 51
252.0065096484924
  0
ARC
  5
3315
330
315B
100
AcDbEntity
  8
1
 62
     7
100
AcDbCircle
 10
267.0158276483149
 20
207.2159502191126
 30
0.0
 40
16.94799974540335
100
AcDbArc
 50
102.2213375552568
 51
252.8412593918209
  0
ARC
  5
3316
330
315B
100
AcDbEntity
  8
0
 62
     7
100
AcDbCircle
 10
267.0158276483149
 20
207.2159502191126
 30
0.0
 40
16.94799974540335
100
AcDbArc
 50
0.0
 51
102.2213375552568
  0
ARC
  5
3317
330
315B
100
AcDbEntity
  8
0
 62
     7
100
AcDbCircle
 10
265.0081185300564
 20
192.6087815059228
 30
0.0
 40
1.587499976172309
100
AcDbArc
 50
108.1117006705752
 51
236.1465821632528
  0
ARC
  5
3318
330
315B
100
AcDbEntity
  8
0
 62
     7
100
AcDbCircle
 10
261.1416028765344
 20
193.6921283831638
 30
0.0
 40
1.587499976163744
100
AcDbArc
 50
92.45952676168085
 51
220.4944082530742
  0
ARC
  5
3319
330
315B
100
AcDbEntity
  8
0
 62
     7
100
AcDbCircle
 10
261.1416028765308
 20
193.6921283831555
 30
0.0
 40
1.587499976142644
100
AcDbArc
 50
272.5490700861474
 51
40.58395157867564
  0
ARC
  5
331A
330
315B
100
AcDbEntity
  8
0
 62
     7
100
AcDbCircle
 10
257.7107516013617
 20
195.7784752582684
 30
0.0
 40
1.587499976152163
100
AcDbArc
 50
76.80735285078791
 51
204.8422343427446
  0
ARC
  5
331B
330
315B
100
AcDbEntity
  8
0
 62
     7
100
AcDbCircle
 10
257.7107516013634
 20
195.7784752582704
 30
0.0
 40
1.587499976151435
100
AcDbArc
 50
256.8968961755901
 51
24.93177766852332
  0
ARC
  5
331C
330
315B
100
AcDbEntity
  8
0
 62
     7
100
AcDbCircle
 10
254.9700152484628
 20
198.7130873279319
 30
0.0
 40
1.587499976150448
100
AcDbArc
 50
61.15517894087272
 51
189.1900604344598
  0
ARC
  5
331D
330
315B
100
AcDbEntity
  8
0
 62
     7
100
AcDbCircle
 10
254.9700152484628
 20
198.7130873279319
 30
0.0
 40
1.587499976135599
100
AcDbArc
 50
241.2447222658526
 51
9.279603758241906
  0
ARC
  5
331E
330
315B
100
AcDbEntity
  8
0
 62
     7
100
AcDbCircle
 10
253.1226616949989
 20
202.2783178399265
 30
0.0
 40
1.587499976213008
100
AcDbArc
 50
45.50300503216004
 51
173.5378865242454
  0
ARC
  5
331F
330
315B
100
AcDbEntity
  8
0
 62
     7
100
AcDbCircle
 10
253.122661695002
 20
202.2783178399278
 30
0.0
 40
1.587499976099813
100
AcDbArc
 50
225.592548355444
 51
353.6274298479336
  0
ARC
  5
3320
330
315B
100
AcDbEntity
  8
0
 62
     7
100
AcDbCircle
 10
252.305700702826
 20
206.2097499571851
 30
0.0
 40
1.587499976120595
100
AcDbArc
 50
29.85083112039212
 51
157.8857126128773
  0
ARC
  5
3321
330
315B
100
AcDbEntity
  8
0
 62
     7
100
AcDbCircle
 10
252.305700702826
 20
206.2097499571851
 30
0.0
 40
1.587499976143744
100
AcDbArc
 50
209.9403744461525
 51
337.975255938138
  0
ARC
  5
3322
330
315B
100
AcDbEntity
  8
0
 62
     7
100
AcDbCircle
 10
252.5797225314597
 20
210.2158073448006
 30
0.0
 40
1.587499976187634
100
AcDbArc
 50
14.19865721116217
 51
142.23353870392
  0
ARC
  5
3323
330
315B
100
AcDbEntity
  8
0
 62
     7
100
AcDbCircle
 10
252.5797225314597
 20
210.2158073448006
 30
0.0
 40
1.587499976120905
100
AcDbArc
 50
194.2882005353635
 51
322.3230820274796
  0
ARC
  5
3324
330
315B
100
AcDbEntity
  8
0
 62
     7
100
AcDbCircle
 10
253.9244042353994
 20
213.9993790529188
 30
0.0
 40
1.587499976193059
100
AcDbArc
 50
358.5464833017312
 51
126.5813647933123
  0
ARC
  5
3325
330
315B
100
AcDbEntity
  8
0
 62
     7
100
AcDbCircle
 10
253.9244042353994
 20
213.9993790529188
 30
0.0
 40
1.587499976125514
100
AcDbArc
 50
178.6360266253971
 51
306.6709081177576
  0
ARC
  5
3326
330
315B
100
AcDbEntity
  8
0
 62
     7
100
AcDbCircle
 10
256.240016924214
 20
217.2798548767804
 30
0.0
 40
1.587499976175524
100
AcDbArc
 50
342.8943093906671
 51
110.9291908831805
  0
ARC
  5
3327
330
315B
100
AcDbEntity
  8
0
 62
     7
100
AcDbCircle
 10
256.2400169242156
 20
217.279854876779
 30
0.0
 40
1.587499976142551
100
AcDbArc
 50
162.9838527151784
 51
291.0187342084323
  0
ARC
  5
3328
330
315B
100
AcDbEntity
  8
0
 62
     7
100
AcDbCircle
 10
259.3548221980855
 20
219.8139369317293
 30
0.0
 40
1.58749997617821
100
AcDbArc
 50
327.2421354809427
 51
95.2770169740002
  0
ARC
  5
3329
330
315B
100
AcDbEntity
  8
0
 62
     7
100
AcDbCircle
 10
259.3548221980855
 20
219.8139369317293
 30
0.0
 40
1.587499976136324
100
AcDbArc
 50
147.3316788052999
 51
275.3665602971618
  0
ARC
  5
332A
330
315B
100
AcDbEntity
  8
0
 62
     7
100
AcDbCircle
 10
263.037809199212
 20
221.413683944558
 30
0.0
 40
1.587499976161175
100
AcDbArc
 50
311.5899615714926
 51
79.62484306365837
  0
ARC
  5
332B
330
315B
100
AcDbEntity
  8
0
 62
     7
100
AcDbCircle
 10
263.037809199212
 20
221.413683944558
 30
0.0
 40
1.587499976124099
100
AcDbArc
 50
131.6795048956848
 51
259.7143863877119
  0
ARC
  5
332C
330
315B
100
AcDbEntity
  8
0
 62
     7
100
AcDbCircle
 10
267.0158276483155
 20
207.6242835463275
 30
0.0
 40
7.734999883809297
100
AcDbArc
 50
232.6314383375338
 51
250.730361122028
  0
ARC
  5
332D
330
315B
100
AcDbEntity
  8
0
 62
     7
100
AcDbCircle
 10
264.3091610223032
 20
199.882107504262
 30
0.0
 40
0.4666666596643907
100
AcDbArc
 50
0.0000000005455287
 51
70.73036112249416
  0
ARC
  5
332E
330
315B
100
AcDbEntity
  8
0
 62
     7
100
AcDbCircle
 10
265.2424943416233
 20
198.9326170102239
 30
0.0
 40
0.4666666596675455
100
AcDbArc
 50
180.0
 51
269.9999999985456
  0
ARC
  5
332F
330
315B
100
AcDbEntity
  8
0
 62
     7
100
AcDbCircle
 10
267.0158276483141
 20
207.6242835463275
 30
0.0
 40
7.734999883809304
100
AcDbArc
 50
289.2696388779717
 51
89.99999999999348
  0
ARC
  5
3330
330
315B
100
AcDbEntity
  8
0
 62
     7
100
AcDbCircle
 10
269.7224942743299
 20
199.8821075042664
 30
0.0
 40
0.4666666596596735
100
AcDbArc
 50
109.2696388775027
 51
180.0
  0
ARC
  5
3331
330
315B
100
AcDbEntity
  8
0
 62
     7
100
AcDbCircle
 10
268.7891609550143
 20
198.9326170102232
 30
0.0
 40
0.4666666596669646
100
AcDbArc
 50
270.0000000008011
 51
0.00000000007328
  0
ARC
  5
3332
330
315B
100
AcDbEntity
  8
0
 62
     7
100
AcDbCircle
 10
267.0158276483155
 20
207.6242835463275
 30
0.0
 40
7.734999883809303
100
AcDbArc
 50
90.00000000000651
 51
130.2716567142278
  0
ARC
  5
3333
330
315B
100
AcDbEntity
  8
1
 62
     7
100
AcDbCircle
 10
267.0158276483155
 20
207.6242835463275
 30
0.0
 40
7.734999883809313
100
AcDbArc
 50
130.2716567142278
 51
232.6314383375338
  0
ARC
  5
3334
330
315B
100
AcDbEntity
  8
0
 62
     7
100
AcDbCircle
 10
267.0158276483155
 20
207.6242835463275
 30
0.0
 40
7.734999883809306
100
AcDbArc
 50
229.7283432857721
 51
232.6314383375338
  0
ARC
  5
3335
330
315B
100
AcDbEntity
  8
1
  6
CENTER
 62
     3
100
AcDbCircle
 10
267.0158276485638
 20
207.2159502191126
 30
0.0
 40
22.00000000000005
100
AcDbArc
 50
103.13655878761
 51
256.86344121239
  0
ARC
  5
3336
330
315B
100
AcDbEntity
  8
1
 62
     7
100
AcDbCircle
 10
267.0158276483149
 20
207.2159502191126
 30
0.0
 40
6.999999894969603
100
AcDbArc
 50
135.5846922802196
 51
224.4153077197803
  0
ARC
  5
3337
330
315B
100
AcDbEntity
  8
1
 62
     7
100
AcDbCircle
 10
267.0158276483149
 20
207.2159502191126
 30
0.0
 40
9.999999849902119
100
AcDbArc
 50
120.0000004965201
 51
239.9999995034798
  0
ARC
  5
3338
330
315B
100
AcDbEntity
  8
1
 62
     7
100
AcDbCircle
 10
267.0158276483149
 20
207.2159502191126
 30
0.0
 40
10.99999983487969
100
AcDbArc
 50
117.0356922283111
 51
242.9643077716884
  0
ARC
  5
3339
330
315B
100
AcDbEntity
  8
1
 62
     7
100
AcDbCircle
 10
267.0158276483149
 20
207.2159502191126
 30
0.0
 40
17.24999974098901
100
AcDbArc
 50
106.8492798833647
 51
253.1507201166351
  0
ARC
  5
333A
330
315B
100
AcDbEntity
  8
1
 62
     7
100
AcDbCircle
 10
267.0158276483149
 20
207.2159502191126
 30
0.0
 40
17.74999973347783
100
AcDbArc
 50
106.3611037766023
 51
253.6388962233973
  0
ARC
  5
333B
330
315B
100
AcDbEntity
  8
1
 62
     7
100
AcDbCircle
 10
267.0158276483149
 20
207.2159502191126
 30
0.0
 40
24.99999962456469
100
AcDbArc
 50
258.463040791549
 51
260.0000000005619
  0
ARC
  5
333C
330
315B
100
AcDbEntity
  8
1
 62
     7
100
AcDbCircle
 10
267.0158276485638
 20
207.2159502191126
 30
0.0
 40
24.99999962461455
100
AcDbArc
 50
101.5369592090092
 51
259.9999999999997
  0
ARC
  5
333D
330
315B
100
AcDbEntity
  8
0
 62
     7
100
AcDbCircle
 10
163.787197862191
 20
189.567950483484
 30
0.0
 40
0.7017834326486334
100
AcDbArc
 50
85.91438316326028
 51
175.91438316326
  0
ARC
  5
333E
330
315B
100
AcDbEntity
  8
0
 62
     7
100
AcDbCircle
 10
162.8371978757118
 20
183.466004277302
 30
0.0
 40
0.2499999962392927
100
AcDbArc
 50
270.0
 51
0.0
  0
ARC
  5
333F
330
315B
100
AcDbEntity
  8
0
 62
     7
100
AcDbCircle
 10
163.8371978321528
 20
189.5219504833434
 30
0.0
 40
0.3999999939935108
100
AcDbArc
 50
90.0
 51
180.0
  0
ARC
  5
3340
330
315B
100
AcDbEntity
  8
1
 62
     7
100
AcDbCircle
 10
267.0158276483149
 20
207.2159502191126
 30
0.0
 40
6.99999989496962
100
AcDbArc
 50
224.4153077197803
 51
135.5846922802196
  0
ARC
  5
3341
330
315B
100
AcDbEntity
  8
1
 62
     7
100
AcDbCircle
 10
267.0158276483149
 20
207.2159502191126
 30
0.0
 40
9.999999849902067
100
AcDbArc
 50
239.9999995034798
 51
120.0000004965201
  0
ARC
  5
3342
330
315B
100
AcDbEntity
  8
1
 62
     7
100
AcDbCircle
 10
267.0158276483149
 20
207.2159502191126
 30
0.0
 40
10.99999983487962
100
AcDbArc
 50
242.9643077716884
 51
117.0356922283111
  0
ARC
  5
3343
330
315B
100
AcDbEntity
  8
1
 62
     7
100
AcDbCircle
 10
267.0158276483149
 20
207.2159502191126
 30
0.0
 40
17.24999974098901
100
AcDbArc
 50
253.1507201166351
 51
106.8492798833647
  0
ARC
  5
3344
330
315B
100
AcDbEntity
  8
1
 62
     7
100
AcDbCircle
 10
267.0158276483149
 20
207.2159502191126
 30
0.0
 40
17.74999973347779
100
AcDbArc
 50
253.6388962233973
 51
106.3611037766023
  0
ARC
  5
3345
330
315B
100
AcDbEntity
  8
1
  6
CENTER
 62
     3
100
AcDbCircle
 10
267.0158276485638
 20
207.2159502191126
 30
0.0
 40
21.99999999999994
100
AcDbArc
 50
256.86344121239
 51
103.13655878761
  0
ARC
  5
3346
330
315B
100
AcDbEntity
  8
1
 62
     7
100
AcDbCircle
 10
267.0158276483149
 20
207.2159502191126
 30
0.0
 40
24.99999962457132
100
AcDbArc
 50
260.0000000005619
 51
101.5369592084509
  0
ARC
  5
3347
330
315B
100
AcDbEntity
  8
0
 62
     7
100
AcDbCircle
 10
178.2371977883028
 20
187.9159505090338
 30
0.0
 40
0.299999995480448
100
AcDbArc
 50
359.9999999927045
 51
90.00000000245405
  0
ARC
  5
3348
330
315B
100
AcDbEntity
  8
0
 62
     7
100
AcDbCircle
 10
178.2371977884714
 20
226.5159499292968
 30
0.0
 40
0.2999999954895109
100
AcDbArc
 50
269.9999999992507
 51
359.9999999905257
  0
ARC
  5
3349
330
315B
100
AcDbEntity
  8
0
 62
     7
100
AcDbCircle
 10
163.7871978621912
 20
224.8639499547416
 30
0.0
 40
0.7017834326469911
100
AcDbArc
 50
184.0856168367395
 51
274.0856168367395
  0
ARC
  5
334A
330
315B
100
AcDbEntity
  8
0
 62
     7
100
AcDbCircle
 10
162.8371978757118
 20
230.9658961609235
 30
0.0
 40
0.2499999962379889
100
AcDbArc
 50
0.0
 51
90.0
  0
ARC
  5
334B
330
315B
100
AcDbEntity
  8
0
 62
     7
100
AcDbCircle
 10
184.4371977854694
 20
190.1537209232484
 30
0.0
 40
0.0999999983882312
100
AcDbArc
 50
0.0000000049797817
 51
85.99999999137121
  0
ARC
  5
334C
330
315B
100
AcDbEntity
  8
0
 62
     7
100
AcDbCircle
 10
184.4371977852664
 20
190.0359712308446
 30
0.0
 40
0.0999999985401342
100
AcDbArc
 50
314.9999999999885
 51
359.9999999931946
  0
ARC
  5
334D
330
315B
100
AcDbEntity
  8
0
 62
     7
100
AcDbCircle
 10
173.3548063570092
 20
171.9242964161183
 30
0.0
 40
18.03335869084244
100
AcDbArc
 50
76.58955347839027
 51
93.6060626517894
  0
ARC
  5
334E
330
315B
100
AcDbEntity
  8
0
 62
     7
100
AcDbCircle
 10
184.4371977854596
 20
224.2781795149864
 30
0.0
 40
0.0999999983981216
100
AcDbArc
 50
274.0000000140024
 51
0.0000000012604157
  0
ARC
  5
334F
330
315B
100
AcDbEntity
  8
0
 62
     7
100
AcDbCircle
 10
173.3548063570432
 20
242.5076040221112
 30
0.0
 40
18.03335869083596
100
AcDbArc
 50
266.3939373481013
 51
283.4104465215041
  0
ARC
  5
3350
330
315B
100
AcDbEntity
  8
0
 62
     7
100
AcDbCircle
 10
163.8371978321528
 20
224.9099499548818
 30
0.0
 40
0.3999999939917984
100
AcDbArc
 50
180.0
 51
270.0
  0
ARC
  5
3351
330
315B
100
AcDbEntity
  8
0
 62
     7
100
AcDbCircle
 10
184.4371977852664
 20
224.3959292074011
 30
0.0
 40
0.0999999985401097
100
AcDbArc
 50
0.0000000068199235
 51
45.00000000001381
  0
CIRCLE
  5
3352
330
315B
100
AcDbEntity
  8
0
 62
     7
100
AcDbCircle
 10
180.9371978381612
 20
192.4714504405592
 30
0.0
 40
1.587499976158141
  0
CIRCLE
  5
3353
330
315B
100
AcDbEntity
  8
0
 62
     7
100
AcDbCircle
 10
180.9371978381612
 20
221.9604499976687
 30
0.0
 40
1.587499976158141
  0
CIRCLE
  5
3354
330
315B
100
AcDbEntity
  8
0
 62
     7
100
AcDbCircle
 10
265.7791610002273
 20
199.5859503337183
 30
0.0
 40
0.4666666596545073
  0
CIRCLE
  5
3355
330
315B
100
AcDbEntity
  8
0
 62
     7
100
AcDbCircle
 10
268.252494296406
 20
199.5859503337183
 30
0.0
 40
0.4666666596568875
  0
CIRCLE
  5
3356
330
315B
100
AcDbEntity
  8
1
 62
     7
100
AcDbCircle
 10
256.0158276481906
 20
188.1633913356394
 30
0.0
 40
1.749999999999495
  0
CIRCLE
  5
3357
330
315B
100
AcDbEntity
  8
1
 62
     7
100
AcDbCircle
 10
245.0158276480661
 20
207.2159502191126
 30
0.0
 40
1.749999999999259
  0
CIRCLE
  5
3358
330
315B
100
AcDbEntity
  8
1
 62
     7
100
AcDbCircle
 10
256.0158276481906
 20
226.2685091025856
 30
0.0
 40
1.749999999999215
  0
CIRCLE
  5
3359
330
315B
100
AcDbEntity
  8
1
 62
     7
100
AcDbCircle
 10
79.69494390256773
 20
207.2159502191126
 30
0.0
 40
16.9479997454105
  0
CIRCLE
  5
335A
330
315B
100
AcDbEntity
  8
1
  6
CENTER
 62
     3
100
AcDbCircle
 10
79.69494390256773
 20
207.2159502191126
 30
0.0
 40
27.00000000000001
  0
CIRCLE
  5
335B
330
315B
100
AcDbEntity
  8
1
 62
     7
100
AcDbCircle
 10
79.69494390256773
 20
207.2159502191126
 30
0.0
 40
24.00000000000001
  0
CIRCLE
  5
335C
330
315B
100
AcDbEntity
  8
1
 62
     7
100
AcDbCircle
 10
79.69494390256773
 20
207.2159502191126
 30
0.0
 40
30.00000000000001
  0
CIRCLE
  5
335D
330
315B
100
AcDbEntity
  8
1
 62
     7
100
AcDbCircle
 10
278.0158276484391
 20
188.1633913356394
 30
0.0
 40
1.749999999999491
  0
CIRCLE
  5
335E
330
315B
100
AcDbEntity
  8
1
 62
     7
100
AcDbCircle
 10
278.0158276484391
 20
226.2685091025856
 30
0.0
 40
1.749999999999215
  0
CIRCLE
  5
335F
330
315B
100
AcDbEntity
  8
1
 62
     7
100
AcDbCircle
 10
289.0158276485637
 20
207.2159502191126
 30
0.0
 40
1.749999999999259
  0
CIRCLE
  5
3360
330
315B
100
AcDbEntity
  8
1
 62
     7
100
AcDbCircle
 10
267.0158276483149
 20
207.2159502191126
 30
0.0
 40
2.999999955059656
  0
CIRCLE
  5
3361
330
315B
100
AcDbEntity
  8
1
 62
     3
100
AcDbCircle
 10
187.0371977029584
 20
207.2159502191126
 30
0.0
 40
1.199999999999989
  0
CIRCLE
  5
3362
330
315B
100
AcDbEntity
  8
1
 62
     7
100
AcDbCircle
 10
187.0371977029584
 20
207.2159502191126
 30
0.0
 40
1.5
  0
CIRCLE
  5
3363
330
315B
100
AcDbEntity
  8
1
 62
     3
100
AcDbCircle
 10
267.0158276485635
 20
185.2159502191128
 30
0.0
 40
1.5
  0
CIRCLE
  5
3364
330
315B
100
AcDbEntity
  8
1
 62
     7
100
AcDbCircle
 10
267.0158276485635
 20
185.2159502191128
 30
0.0
 40
1.199999999999938
  0
CIRCLE
  5
3365
330
315B
100
AcDbEntity
  8
1
 62
     7
100
AcDbCircle
 10
267.0158276485635
 20
229.2159502191128
 30
0.0
 40
1.199999999999989
  0
CIRCLE
  5
3366
330
315B
100
AcDbEntity
  8
1
 62
     3
100
AcDbCircle
 10
267.0158276485635
 20
229.2159502191128
 30
0.0
 40
1.5
  0
CIRCLE
  5
3367
330
315B
100
AcDbEntity
  8
1
 62
     7
100
AcDbCircle
 10
79.69494390256773
 20
234.2159502191127
 30
0.0
 40
1.75
  0
CIRCLE
  5
3368
330
315B
100
AcDbEntity
  8
1
 62
     7
100
AcDbCircle
 10
60.60306081053095
 20
226.3078333111494
 30
0.0
 40
1.749999999999984
  0
CIRCLE
  5
3369
330
315B
100
AcDbEntity
  8
1
 62
     7
100
AcDbCircle
 10
52.69494390256773
 20
207.2159502191126
 30
0.0
 40
1.75
  0
CIRCLE
  5
336A
330
315B
100
AcDbEntity
  8
1
 62
     7
100
AcDbCircle
 10
60.60306081053083
 20
188.1240671270759
 30
0.0
 40
1.749999999999992
  0
CIRCLE
  5
336B
330
315B
100
AcDbEntity
  8
1
 62
     7
100
AcDbCircle
 10
79.69494390256762
 20
180.2159502191127
 30
0.0
 40
1.75
  0
CIRCLE
  5
336C
330
315B
100
AcDbEntity
  8
1
 62
     7
100
AcDbCircle
 10
98.78682699460457
 20
188.1240671270759
 30
0.0
 40
1.750000000000061
  0
CIRCLE
  5
336D
330
315B
100
AcDbEntity
  8
1
 62
     7
100
AcDbCircle
 10
106.6949439025677
 20
207.2159502191126
 30
0.0
 40
1.75
  0
CIRCLE
  5
336E
330
315B
100
AcDbEntity
  8
1
 62
     7
100
AcDbCircle
 10
98.78682699460457
 20
226.3078333111494
 30
0.0
 40
1.750000000000049
  0
TEXT
  5
3373
330
315B
100
AcDbEntity
  8
1
 62
     0
100
AcDbText
 10
240.857387356562
 20
153.0227743455066
 30
0.0
 40
4.753740769401879
  1
SHF-14-XXX-2A-R.dxf
 41
0.9
100
AcDbText
  0
TEXT
  5
3374
330
315B
100
AcDbEntity
  8
1
 62
     0
100
AcDbText
 10
136.964950198493
 20
153.867620221445
 30
0.0
 40
2.767638856256123
  1
REMARKS:  M.H.C = MINIMUM HOUSING CLEARANCE
 41
0.9
 72
     1
 11
173.088864460062
 21
155.251439649573
 31
0.0
100
AcDbText
 73
     2
  0
TEXT
  5
3378
330
315B
100
AcDbEntity
  8
1
 62
     3
100
AcDbText
 10
83.85144302746628
 20
134.8129697134944
 30
0.0
 40
1.399999999999999
  1
 
 41
0.9
100
AcDbText
  0
INSERT
  5
33F4
330
315B
100
AcDbEntity
  8
AM_0
100
AcDbBlockReference
  2
HD Logo
 10
220.9599589244135
 20
102.1269664994602
 30
0.0
 41
0.7841650722692019
 42
0.7841650722692019
 43
0.7841650722692019
  0
INSERT
  5
340A
330
315B
100
AcDbEntity
  8
AM_0
100
AcDbBlockReference
  2
Harmonic Drive LLC
 10
26.8863844083059
 20
332.9483334252657
 30
0.0
 41
1.38355446840485
 42
1.38355446840485
 43
1.38355446840485
  0
INSERT
  5
341E
330
315B
100
AcDbEntity
  8
AM_0
100
AcDbBlockReference
  2
NTC
 10
28.11999894113938
 20
139.7036531121592
 30
0.0
 41
0.5
 42
0.5
 43
0.5
  0
ENDSEC
  0
SECTION
  2
OBJECTS
  0
DICTIONARY
  5
3149
330
0
100
AcDbDictionary
281
     1
  3
ACAD_GROUP
350
314A
  3
ACAD_LAYOUT
350
3156
  3
ACAD_MLINESTYLE
350
3153
  3
ACAD_PLOTSETTINGS
350
3155
  3
ACAD_PLOTSTYLENAME
350
314B
  3
AcDbVariableDictionary
350
340B
  0
DICTIONARY
  5
314A
102
{ACAD_REACTORS
330
3149
102
}
330
3149
100
AcDbDictionary
281
     1
  0
DICTIONARY
  5
3156
102
{ACAD_REACTORS
330
3149
102
}
330
3149
100
AcDbDictionary
281
     1
  3
Layout1
350
315A
  3
Model
350
315E
  0
DICTIONARY
  5
3153
102
{ACAD_REACTORS
330
3149
102
}
330
3149
100
AcDbDictionary
281
     1
  3
Standard
350
3154
  0
DICTIONARY
  5
3155
102
{ACAD_REACTORS
330
3149
102
}
330
3149
100
AcDbDictionary
281
     1
  0
ACDBDICTIONARYWDFLT
  5
314B
102
{ACAD_REACTORS
330
3149
102
}
330
3149
100
AcDbDictionary
281
     1
  3
Normal
350
314C
100
AcDbDictionaryWithDefault
340
314C
  0
DICTIONARY
  5
340B
102
{ACAD_REACTORS
330
3149
102
}
330
3149
100
AcDbDictionary
281
     1
  3
DIMASSOC
350
340C
  0
LAYOUT
  5
315A
102
{ACAD_REACTORS
330
3156
102
}
330
3156
100
AcDbPlotSettings
  1

  2
\\SERVER9\HP LaserJet 5100 PCL 5e
  4

  6

 40
0.0
 41
0.0
 42
0.0
 43
0.0
 44
0.0
 45
0.0
 46
0.0
 47
0.0
 48
0.0
 49
0.0
140
0.0
141
0.0
142
1.0
143
1.0
 70
   688
 72
     0
 73
     0
 74
     5
  7

 75
    16
147
1.0
148
0.0
149
0.0
100
AcDbLayout
  1
Layout1
 70
     1
 71
     1
 10
0.0
 20
0.0
 11
420.0
 21
297.0
 12
0.0
 22
0.0
 32
0.0
 14
1.000000000000000E+20
 24
1.000000000000000E+20
 34
1.000000000000000E+20
 15
-1.000000000000000E+20
 25
-1.000000000000000E+20
 35
-1.000000000000000E+20
146
0.0
 13
0.0
 23
0.0
 33
0.0
 16
1.0
 26
0.0
 36
0.0
 17
0.0
 27
1.0
 37
0.0
 76
     0
330
3157
  0
LAYOUT
  5
315E
102
{ACAD_REACTORS
330
3156
102
}
330
3156
100
AcDbPlotSettings
  1

  2
\\SERVER9\HP LaserJet 5100 PCL 5e
  4

  6

 40
0.0
 41
0.0
 42
0.0
 43
0.0
 44
0.0
 45
0.0
 46
0.0
 47
0.0
 48
0.0
 49
0.0
140
0.0
141
0.0
142
1.0
143
1.0
 70
  1712
 72
     0
 73
     0
 74
     0
  7

 75
     0
147
1.0
148
0.0
149
0.0
100
AcDbLayout
  1
Model
 70
     1
 71
     0
 10
0.0
 20
0.0
 11
12.0
 21
9.0
 12
0.0
 22
0.0
 32
0.0
 14
0.0
 24
0.0
 34
0.0
 15
0.0
 25
0.0
 35
0.0
146
0.0
 13
0.0
 23
0.0
 33
0.0
 16
1.0
 26
0.0
 36
0.0
 17
0.0
 27
1.0
 37
0.0
 76
     0
330
315B
  0
MLINESTYLE
  5
3154
102
{ACAD_REACTORS
330
3153
102
}
330
3153
100
AcDbMlineStyle
  2
STANDARD
 70
     0
  3

 62
   256
 51
90.0
 52
90.0
 71
     2
 49
0.5
 62
   256
  6
BYLAYER
 49
-0.5
 62
   256
  6
BYLAYER
  0
ACDBPLACEHOLDER
  5
314C
102
{ACAD_REACTORS
330
314B
102
}
330
314B
  0
DICTIONARYVAR
  5
340C
102
{ACAD_REACTORS
330
340B
102
}
330
340B
100
DictionaryVariables
280
     0
  1
1
  0
ENDSEC
  0
EOF
