  0
SECTION
  2
HEADER
  9
$ACADVER
  1
AC1015
  9
$ACADMAINTVER
 70
    13
  9
$DWGCODEPAGE
  3
ANSI_1252
  9
$INSBASE
 10
0.0
 20
0.0
 30
0.0
  9
$EXTMIN
 10
25.20562588634648
 20
2.93950288887926
 30
0.0
  9
$EXTMAX
 10
354.2839392749661
 20
227.5553589642738
 30
0.0
  9
$LIMMIN
 10
0.0
 20
0.0
  9
$LIMMAX
 10
420.0
 20
297.0
  9
$ORTHOMODE
 70
     0
  9
$REGENMODE
 70
     1
  9
$FILLMODE
 70
     1
  9
$QTEXTMODE
 70
     0
  9
$MIRRTEXT
 70
     1
  9
$LTSCALE
 40
1.0
  9
$ATTMODE
 70
     1
  9
$TEXTSIZE
 40
2.5
  9
$TRACEWID
 40
1.0
  9
$TEXTSTYLE
  7
STANDARD
  9
$CLAYER
  8
AM_0
  9
$CELTYPE
  6
ByLayer
  9
$CECOLOR
 62
   256
  9
$CELTSCALE
 40
1.0
  9
$DISPSILH
 70
     0
  9
$DIMSCALE
 40
1.0
  9
$DIMASZ
 40
2.5
  9
$DIMEXO
 40
0.625
  9
$DIMDLI
 40
3.75
  9
$DIMRND
 40
0.0
  9
$DIMDLE
 40
0.0
  9
$DIMEXE
 40
1.25
  9
$DIMTP
 40
0.0
  9
$DIMTM
 40
0.0
  9
$DIMTXT
 40
2.5
  9
$DIMCEN
 40
2.5
  9
$DIMTSZ
 40
0.0
  9
$DIMTOL
 70
     0
  9
$DIMLIM
 70
     0
  9
$DIMTIH
 70
     0
  9
$DIMTOH
 70
     0
  9
$DIMSE1
 70
     0
  9
$DIMSE2
 70
     0
  9
$DIMTAD
 70
     1
  9
$DIMZIN
 70
     8
  9
$DIMBLK
  1

  9
$DIMASO
 70
     1
  9
$DIMSHO
 70
     1
  9
$DIMPOST
  1

  9
$DIMAPOST
  1

  9
$DIMALT
 70
     0
  9
$DIMALTD
 70
     3
  9
$DIMALTF
 40
0.03937007874016
  9
$DIMLFAC
 40
1.0
  9
$DIMTOFL
 70
     1
  9
$DIMTVP
 40
0.0
  9
$DIMTIX
 70
     0
  9
$DIMSOXD
 70
     0
  9
$DIMSAH
 70
     0
  9
$DIMBLK1
  1

  9
$DIMBLK2
  1

  9
$DIMSTYLE
  2
ISO-25
  9
$DIMCLRD
 70
     0
  9
$DIMCLRE
 70
     0
  9
$DIMCLRT
 70
     0
  9
$DIMTFAC
 40
1.0
  9
$DIMGAP
 40
0.625
  9
$DIMJUST
 70
     0
  9
$DIMSD1
 70
     0
  9
$DIMSD2
 70
     0
  9
$DIMTOLJ
 70
     1
  9
$DIMTZIN
 70
     0
  9
$DIMALTZ
 70
     0
  9
$DIMALTTZ
 70
     0
  9
$DIMUPT
 70
     0
  9
$DIMDEC
 70
     4
  9
$DIMTDEC
 70
     4
  9
$DIMALTU
 70
     2
  9
$DIMALTTD
 70
     2
  9
$DIMTXSTY
  7
STANDARD
  9
$DIMAUNIT
 70
     0
  9
$DIMADEC
 70
     0
  9
$DIMALTRND
 40
0.0
  9
$DIMAZIN
 70
     0
  9
$DIMDSEP
 70
    46
  9
$DIMATFIT
 70
     3
  9
$DIMFRAC
 70
     0
  9
$DIMLDRBLK
  1

  9
$DIMLUNIT
 70
     2
  9
$DIMLWD
 70
    -2
  9
$DIMLWE
 70
    -2
  9
$DIMTMOVE
 70
     0
  9
$LUNITS
 70
     2
  9
$LUPREC
 70
     2
  9
$SKETCHINC
 40
1.0
  9
$FILLETRAD
 40
2.5
  9
$AUNITS
 70
     0
  9
$AUPREC
 70
     0
  9
$MENU
  1
.
  9
$ELEVATION
 40
0.0
  9
$PELEVATION
 40
0.0
  9
$THICKNESS
 40
0.0
  9
$LIMCHECK
 70
     0
  9
$CHAMFERA
 40
2.5
  9
$CHAMFERB
 40
2.5
  9
$CHAMFERC
 40
0.0
  9
$CHAMFERD
 40
0.0
  9
$SKPOLY
 70
     0
  9
$TDCREATE
 40
2452801.720163483
  9
$TDUCREATE
 40
2452801.886830150
  9
$TDUPDATE
 40
2453865.614013310
  9
$TDUUPDATE
 40
2453865.780679977
  9
$TDINDWG
 40
0.0586232292
  9
$TDUSRTIMER
 40
0.0586226852
  9
$USRTIMER
 70
     1
  9
$ANGBASE
 50
0.0
  9
$ANGDIR
 70
     0
  9
$PDMODE
 70
     0
  9
$PDSIZE
 40
0.0
  9
$PLINEWID
 40
0.0
  9
$SPLFRAME
 70
     0
  9
$SPLINETYPE
 70
     6
  9
$SPLINESEGS
 70
     8
  9
$HANDSEED
  5
2613
  9
$SURFTAB1
 70
     6
  9
$SURFTAB2
 70
     6
  9
$SURFTYPE
 70
     6
  9
$SURFU
 70
     6
  9
$SURFV
 70
     6
  9
$UCSBASE
  2

  9
$UCSNAME
  2

  9
$UCSORG
 10
0.0
 20
0.0
 30
0.0
  9
$UCSXDIR
 10
1.0
 20
0.0
 30
0.0
  9
$UCSYDIR
 10
0.0
 20
1.0
 30
0.0
  9
$UCSORTHOREF
  2

  9
$UCSORTHOVIEW
 70
     0
  9
$UCSORGTOP
 10
0.0
 20
0.0
 30
0.0
  9
$UCSORGBOTTOM
 10
0.0
 20
0.0
 30
0.0
  9
$UCSORGLEFT
 10
0.0
 20
0.0
 30
0.0
  9
$UCSORGRIGHT
 10
0.0
 20
0.0
 30
0.0
  9
$UCSORGFRONT
 10
0.0
 20
0.0
 30
0.0
  9
$UCSORGBACK
 10
0.0
 20
0.0
 30
0.0
  9
$PUCSBASE
  2

  9
$PUCSNAME
  2

  9
$PUCSORG
 10
0.0
 20
0.0
 30
0.0
  9
$PUCSXDIR
 10
1.0
 20
0.0
 30
0.0
  9
$PUCSYDIR
 10
0.0
 20
1.0
 30
0.0
  9
$PUCSORTHOREF
  2

  9
$PUCSORTHOVIEW
 70
     0
  9
$PUCSORGTOP
 10
0.0
 20
0.0
 30
0.0
  9
$PUCSORGBOTTOM
 10
0.0
 20
0.0
 30
0.0
  9
$PUCSORGLEFT
 10
0.0
 20
0.0
 30
0.0
  9
$PUCSORGRIGHT
 10
0.0
 20
0.0
 30
0.0
  9
$PUCSORGFRONT
 10
0.0
 20
0.0
 30
0.0
  9
$PUCSORGBACK
 10
0.0
 20
0.0
 30
0.0
  9
$USERI1
 70
     0
  9
$USERI2
 70
     0
  9
$USERI3
 70
     0
  9
$USERI4
 70
     0
  9
$USERI5
 70
     0
  9
$USERR1
 40
0.0
  9
$USERR2
 40
0.0
  9
$USERR3
 40
0.0
  9
$USERR4
 40
0.0
  9
$USERR5
 40
0.0
  9
$WORLDVIEW
 70
     1
  9
$SHADEDGE
 70
     3
  9
$SHADEDIF
 70
    70
  9
$TILEMODE
 70
     1
  9
$MAXACTVP
 70
    64
  9
$PINSBASE
 10
0.0
 20
0.0
 30
0.0
  9
$PLIMCHECK
 70
     0
  9
$PEXTMIN
 10
1.000000000000000E+20
 20
1.000000000000000E+20
 30
1.000000000000000E+20
  9
$PEXTMAX
 10
-1.000000000000000E+20
 20
-1.000000000000000E+20
 30
-1.000000000000000E+20
  9
$PLIMMIN
 10
0.0
 20
0.0
  9
$PLIMMAX
 10
420.0
 20
297.0
  9
$UNITMODE
 70
     0
  9
$VISRETAIN
 70
     1
  9
$PLINEGEN
 70
     0
  9
$PSLTSCALE
 70
     1
  9
$TREEDEPTH
 70
  3020
  9
$CMLSTYLE
  2
Standard
  9
$CMLJUST
 70
     0
  9
$CMLSCALE
 40
1.0
  9
$PROXYGRAPHICS
 70
     1
  9
$MEASUREMENT
 70
     0
  9
$CELWEIGHT
370
    -1
  9
$ENDCAPS
280
     0
  9
$JOINSTYLE
280
     0
  9
$LWDISPLAY
290
     0
  9
$INSUNITS
 70
     0
  9
$HYPERLINKBASE
  1

  9
$STYLESHEET
  1

  9
$XEDIT
290
     1
  9
$CEPSNTYPE
380
     0
  9
$PSTYLEMODE
290
     1
  9
$FINGERPRINTGUID
  2
{42DC2698-CF6F-4848-9345-D70703679EF4}
  9
$VERSIONGUID
  2
{D616F8D7-D279-4C02-86BF-5D573FAD6430}
  9
$EXTNAMES
290
     1
  9
$PSVPSCALE
 40
0.0
  9
$OLESTARTUP
290
     0
  0
ENDSEC
  0
SECTION
  2
CLASSES
  0
CLASS
  1
ACDBDICTIONARYWDFLT
  2
AcDbDictionaryWithDefault
  3
AutoCAD 2000
 90
        0
280
     0
281
     0
  0
CLASS
  1
ACDBPLACEHOLDER
  2
AcDbPlaceHolder
  3
AutoCAD 2000
 90
        0
280
     0
281
     0
  0
CLASS
  1
LAYOUT
  2
AcDbLayout
  3
AutoCAD 2000
 90
        0
280
     0
281
     0
  0
CLASS
  1
DICTIONARYVAR
  2
AcDbDictionaryVar
  3
AutoCAD 2000
 90
        0
280
     0
281
     0
  0
ENDSEC
  0
SECTION
  2
TABLES
  0
TABLE
  2
VPORT
  5
2342
330
0
100
AcDbSymbolTable
 70
     2
  0
VPORT
  5
2612
330
2342
100
AcDbSymbolTableRecord
100
AcDbViewportTableRecord
  2
*Active
 70
     0
 10
0.0
 20
0.0
 11
1.0
 21
1.0
 12
197.0704657025406
 22
145.735565478906
 13
0.0
 23
0.0
 14
2.5
 24
2.5
 15
10.0
 25
10.0
 16
0.0
 26
0.0
 36
1.0
 17
0.0
 27
0.0
 37
0.0
 40
307.7788695667691
 41
1.182835820895522
 42
50.0
 43
0.0
 44
0.0
 50
0.0
 51
0.0
 71
     0
 72
   100
 73
     1
 74
     3
 75
     0
 76
     0
 77
     0
 78
     0
281
     0
 65
     1
110
0.0
120
0.0
130
0.0
111
1.0
121
0.0
131
0.0
112
0.0
122
1.0
132
0.0
 79
     0
146
0.0
  0
ENDTAB
  0
TABLE
  2
LTYPE
  5
233F
330
0
100
AcDbSymbolTable
 70
     5
  0
LTYPE
  5
234D
330
233F
100
AcDbSymbolTableRecord
100
AcDbLinetypeTableRecord
  2
ByBlock
 70
     0
  3

 72
    65
 73
     0
 40
0.0
  0
LTYPE
  5
234E
330
233F
100
AcDbSymbolTableRecord
100
AcDbLinetypeTableRecord
  2
ByLayer
 70
     0
  3

 72
    65
 73
     0
 40
0.0
  0
LTYPE
  5
234F
330
233F
100
AcDbSymbolTableRecord
100
AcDbLinetypeTableRecord
  2
CONTINUOUS
 70
     0
  3
Solid line
 72
    65
 73
     0
 40
0.0
  0
LTYPE
  5
235E
330
233F
100
AcDbSymbolTableRecord
100
AcDbLinetypeTableRecord
  2
CENTER
 70
     0
  3
Center ____ _ ____ _ ____ _ ____ _ ____ _ ____
 72
    65
 73
     4
 40
50.8
 49
31.75
 74
     0
 49
-6.349999999999997
 74
     0
 49
6.349999999999997
 74
     0
 49
-6.349999999999997
 74
     0
  0
LTYPE
  5
235F
330
233F
100
AcDbSymbolTableRecord
100
AcDbLinetypeTableRecord
  2
DASHED
 70
     0
  3
__ __ __ __ __
 72
    65
 73
     2
 40
4.332236842105267
 49
2.888157894736842
 74
     0
 49
-1.444078947368421
 74
     0
  0
LTYPE
  5
2360
330
233F
100
AcDbSymbolTableRecord
100
AcDbLinetypeTableRecord
  2
DIVIDE
 70
     0
  3
__ . . __ . . 
 72
    65
 73
     6
 40
7.220394736842112
 49
2.888157894736842
 74
     0
 49
-1.444078947368421
 74
     0
 49
0.0
 74
     0
 49
-1.444078947368421
 74
     0
 49
0.0
 74
     0
 49
-1.444078947368421
 74
     0
  0
LTYPE
  5
2361
330
233F
100
AcDbSymbolTableRecord
100
AcDbLinetypeTableRecord
  2
PHANTOM
 70
     0
  3
_____ _ _ _____ _ _ 
 72
    65
 73
     6
 40
14.44078947368422
 49
7.220394736842112
 74
     0
 49
-1.444078947368421
 74
     0
 49
1.444078947368421
 74
     0
 49
-1.444078947368421
 74
     0
 49
1.444078947368421
 74
     0
 49
-1.444078947368421
 74
     0
  0
ENDTAB
  0
TABLE
  2
LAYER
  5
233C
330
0
100
AcDbSymbolTable
 70
     4
  0
LAYER
  5
234A
330
233C
100
AcDbSymbolTableRecord
100
AcDbLayerTableRecord
  2
0
 70
     0
 62
     7
  6
CONTINUOUS
370
    -3
390
2349
  0
LAYER
  5
235C
330
233C
100
AcDbSymbolTableRecord
100
AcDbLayerTableRecord
  2
AM_0
 70
     0
 62
     7
  6
CONTINUOUS
370
    -3
390
2349
  0
LAYER
  5
2362
330
233C
100
AcDbSymbolTableRecord
100
AcDbLayerTableRecord
  2
1
 70
     0
 62
     7
  6
CONTINUOUS
370
    -3
390
2349
  0
LAYER
  5
25E0
330
233C
100
AcDbSymbolTableRecord
100
AcDbLayerTableRecord
  2
LAYER_1
 70
     0
 62
     5
  6
CONTINUOUS
370
    -3
390
2349
  0
ENDTAB
  0
TABLE
  2
STYLE
  5
233D
330
0
100
AcDbSymbolTable
 70
     1
  0
STYLE
  5
234B
330
233D
100
AcDbSymbolTableRecord
100
AcDbTextStyleTableRecord
  2
STANDARD
 70
     0
 40
0.0
 41
1.0
 50
0.0
 71
     0
 42
2.5
  3
ISOCP.SHX
  4

  0
ENDTAB
  0
TABLE
  2
VIEW
  5
2340
330
0
100
AcDbSymbolTable
 70
     0
  0
ENDTAB
  0
TABLE
  2
UCS
  5
2341
330
0
100
AcDbSymbolTable
 70
     0
  0
ENDTAB
  0
TABLE
  2
APPID
  5
2343
330
0
100
AcDbSymbolTable
 70
    13
  0
APPID
  5
234C
330
2343
100
AcDbSymbolTableRecord
100
AcDbRegAppTableRecord
  2
ACAD
 70
     0
  0
APPID
  5
2363
330
2343
100
AcDbSymbolTableRecord
100
AcDbRegAppTableRecord
  2
GENIUS_GENDIM_13
 70
     0
  0
APPID
  5
2364
330
2343
100
AcDbSymbolTableRecord
100
AcDbRegAppTableRecord
  2
GENIUS_GENDTOL_13
 70
     0
  0
APPID
  5
2365
330
2343
100
AcDbSymbolTableRecord
100
AcDbRegAppTableRecord
  2
GENIUS_GE3DTOL_13
 70
     0
  0
APPID
  5
2366
330
2343
100
AcDbSymbolTableRecord
100
AcDbRegAppTableRecord
  2
MCAD_NO_VIS
 70
     0
  0
APPID
  5
2367
330
2343
100
AcDbSymbolTableRecord
100
AcDbRegAppTableRecord
  2
ACAD_TEMP_GRAPHIC
 70
     0
  0
APPID
  5
2368
330
2343
100
AcDbSymbolTableRecord
100
AcDbRegAppTableRecord
  2
AD_DRAW
 70
     0
  0
APPID
  5
2369
330
2343
100
AcDbSymbolTableRecord
100
AcDbRegAppTableRecord
  2
ACATTRIBSERVICES
 70
     0
  0
APPID
  5
236A
330
2343
100
AcDbSymbolTableRecord
100
AcDbRegAppTableRecord
  2
ASURF_PCURVE_APPNAME
 70
     0
  0
APPID
  5
236B
330
2343
100
AcDbSymbolTableRecord
100
AcDbRegAppTableRecord
  2
DESIGNERASSEMBLIES
 70
     0
  0
APPID
  5
236C
330
2343
100
AcDbSymbolTableRecord
100
AcDbRegAppTableRecord
  2
ACADM_DIM_EDIT
 70
     0
  0
APPID
  5
236D
330
2343
100
AcDbSymbolTableRecord
100
AcDbRegAppTableRecord
  2
G3V_ENTHND
 70
     0
  0
APPID
  5
236E
330
2343
100
AcDbSymbolTableRecord
100
AcDbRegAppTableRecord
  2
GENIUS_GENDIMSH_14
 70
     0
  0
ENDTAB
  0
TABLE
  2
DIMSTYLE
  5
2344
330
0
100
AcDbSymbolTable
 70
     2
100
AcDbDimStyleTable
 71
     0
  0
DIMSTYLE
105
236F
330
2344
100
AcDbSymbolTableRecord
100
AcDbDimStyleTableRecord
  2
ISO-25
 70
     0
 41
2.5
 42
0.625
 43
3.75
 44
1.25
 73
     0
 74
     0
 77
     1
 78
     8
140
2.5
141
2.5
143
0.03937007874016
147
0.625
171
     3
172
     1
271
     2
272
     2
274
     3
279
     2
284
     8
285
     8
286
     8
340
234B
  0
DIMSTYLE
105
25E1
330
2344
100
AcDbSymbolTableRecord
100
AcDbDimStyleTableRecord
  2
Standard
 70
     0
340
234B
  0
ENDTAB
  0
TABLE
  2
BLOCK_RECORD
  5
233B
330
0
100
AcDbSymbolTable
 70
    21
  0
BLOCK_RECORD
  5
2358
330
233B
100
AcDbSymbolTableRecord
100
AcDbBlockTableRecord
  2
*Model_Space
340
235B
  0
BLOCK_RECORD
  5
2354
330
233B
100
AcDbSymbolTableRecord
100
AcDbBlockTableRecord
  2
*Paper_Space
340
2357
  0
BLOCK_RECORD
  5
2371
330
233B
100
AcDbSymbolTableRecord
100
AcDbBlockTableRecord
  2
$MODEL_SPACE
340
0
  0
BLOCK_RECORD
  5
2374
330
233B
100
AcDbSymbolTableRecord
100
AcDbBlockTableRecord
  2
$PAPER_SPACE
340
0
  0
BLOCK_RECORD
  5
2574
330
233B
100
AcDbSymbolTableRecord
100
AcDbBlockTableRecord
  2
AI9-BLK14
340
0
310
2800000020000000200000000100080000000000000400000000000000000000000000000000000000000000000080000080000000808000800000008000800080800000C0C0C000C0DCC000F0CAA6000020400000206000002080000020A0000020C0000020E00000400000004020000040400000406000004080000040A0
310
000040C0000040E00000600000006020000060400000606000006080000060A0000060C0000060E00000800000008020000080400000806000008080000080A0000080C0000080E00000A0000000A0200000A0400000A0600000A0800000A0A00000A0C00000A0E00000C0000000C0200000C0400000C0600000C0800000C0
310
A00000C0C00000C0E00000E0000000E0200000E0400000E0600000E0800000E0A00000E0C00000E0E00040000000400020004000400040006000400080004000A0004000C0004000E00040200000402020004020400040206000402080004020A0004020C0004020E000404000004040200040404000404060004040800040
310
40A0004040C0004040E00040600000406020004060400040606000406080004060A0004060C0004060E00040800000408020004080400040806000408080004080A0004080C0004080E00040A0000040A0200040A0400040A0600040A0800040A0A00040A0C00040A0E00040C0000040C0200040C0400040C0600040C08000
310
40C0A00040C0C00040C0E00040E0000040E0200040E0400040E0600040E0800040E0A00040E0C00040E0E00080000000800020008000400080006000800080008000A0008000C0008000E00080200000802020008020400080206000802080008020A0008020C0008020E00080400000804020008040400080406000804080
310
008040A0008040C0008040E00080600000806020008060400080606000806080008060A0008060C0008060E00080800000808020008080400080806000808080008080A0008080C0008080E00080A0000080A0200080A0400080A0600080A0800080A0A00080A0C00080A0E00080C0000080C0200080C0400080C0600080C0
310
800080C0A00080C0C00080C0E00080E0000080E0200080E0400080E0600080E0800080E0A00080E0C00080E0E000C0000000C0002000C0004000C0006000C0008000C000A000C000C000C000E000C0200000C0202000C0204000C0206000C0208000C020A000C020C000C020E000C0400000C0402000C0404000C0406000C0
310
408000C040A000C040C000C040E000C0600000C0602000C0604000C0606000C0608000C060A000C060C000C060E000C0800000C0802000C0804000C0806000C0808000C080A000C080C000C080E000C0A00000C0A02000C0A04000C0A06000C0A08000C0A0A000C0A0C000C0A0E000C0C00000C0C02000C0C04000C0C06000
310
C0C08000C0C0A000F0FBFF00A4A0A000808080000000FF0000FF000000FFFF00FF000000FF00FF00FFFF0000FFFFFF00FF00FFFFFFFF00FFFFFFFFFFFFFFFFFFFFFFFFFFFFFFFFFFFFFFFFFFFFFFFFFFFF00FFFFFFFF00FFFFFFFFFFFFFFFFFFFFFFFFFFFFFFFFFFFFFFFFFFFFFFFFFFFF00FFFFFFFF00FFFFFFFFFFFFFFFF
310
FFFFFFFFFFFFFFFFFFFFFFFFFFFFFFFFFFFF00FFFFFFFF00FFFFFFFFFFFFFFFFFFFFFFFFFFFFFFFFFFFFFFFFFFFFFFFFFFFF00FFFFFFFF00FFFFFFFFFFFFFFFFFFFFFFFFFFFFFFFFFFFFFFFFFFFFFFFFFFFF00FFFFFFFF00FFFFFFFFFFFFFFFFFFFFFFFFFFFFFFFFFFFFFFFFFFFFFFFFFFFF00FFFFFFFF00FFFFFFFFFFFFFF
310
FFFFFFFFFFFFFFFFFFFFFFFFFFFFFFFFFFFFFF00FFFFFFFF00FFFFFFFFFFFFFFFFFFFFFFFFFFFFFFFFFFFFFFFFFFFFFFFFFFFF00FFFFFFFF00FFFFFFFFFFFFFFFFFFFFFFFFFFFFFFFFFFFFFFFFFFFFFFFFFFFF00FFFFFFFF00FFFFFFFFFFFFFFFFFFFFFFFFFFFFFFFFFFFFFFFFFFFFFFFFFFFF00FFFFFFFF00FFFFFFFFFFFF
310
FFFFFFFFFFFFFFFFFFFFFFFFFFFFFFFFFFFFFFFF00FFFFFFFF00FFFFFFFFFFFFFFFFFFFFFFFFFFFFFFFFFFFFFFFFFFFFFFFFFFFF00FFFFFFFF00FFFFFFFFFFFFFFFFFFFFFFFFFFFFFFFFFFFFFFFFFFFFFFFFFFFF00FFFFFFFF0000000000000000000000000000000000000000000000000000FF00FFFFFFFFFFFFFFFFFFFF
310
FFFFFFFFFFFFFFFFFFFFFFFFFFFFFFFFFFFFFFFFFF00FFFFFFFFFFFFFFFFFFFFFFFFFFFFFFFFFFFFFFFFFFFFFFFFFFFFFFFFFFFFFF00FFFFFFFFFFFFFFFFFFFFFFFFFFFFFFFFFFFFFFFFFFFFFFFFFFFFFFFFFFFFFF00FFFFFFFFFFFFFFFFFFFFFFFFFFFFFFFFFFFFFFFFFFFFFFFFFFFFFFFFFF00FF00000000000000000000
310
0000000000000000000000000000000000000000FFFFFFFFFFFFFFFFFFFFFFFFFFFFFFFFFFFFFFFFFFFFFFFFFFFFFFFFFFFFFFFFFFFFFFFFFFFFFFFFFFFFFFFFFFFFFFFFFFFFFFFFFFFFFFFFFFFFFFFFFFFFFFFFFFFFFFFFFFFFFFFFFFFFFFFFFFFFFFFFFFFFFFFFFFFFFFFFFFFFFFFFFFFFFFFFFFFFFFFFFFFFFFFFFFFFFF
310
FFFFFFFFFFFFFFFFFFFFFFFFFFFFFFFFFFFFFFFFFFFFFFFFFFFFFFFFFFFFFFFFFFFFFFFFFFFFFFFFFFFFFFFFFFFFFFFFFFFFFFFFFFFFFFFFFFFFFFFFFFFFFFFFFFFFFFFFFFFFFFFFFFFFFFFFFFFFFFFFFFFFFFFFFFFFFFFFFFFFFFFFFFFFFFFFFFFFFFFFFFFFFFFFFFFFFFFFFFFFFFFFFFFFFFFFFFFFFFFFFFFFFFFFFFFFFF
310
FFFFFFFFFFFFFFFFFFFFFFFFFFFFFFFFFFFFFFFFFFFFFFFFFFFFFFFFFFFFFFFFFFFFFFFFFFFFFFFFFFFFFFFFFFFFFFFFFFFFFFFFFFFFFFFFFFFFFFFFFFFFFFFFFFFFFFFFFFFFFFFFFFFFFFFFFFFFFFFFFFFFFFFFFFFFFFFFFFFFFFFFFFFFFFFFFFFFFFFFFFFFFFFFFFFFFFFFFFFFFFFFFFFFFFFFFFFFFFFFFFFFFFFFFFFFFF
310
FFFFFFFFFFFFFFFFFFFFFFFFFFFFFFFFFFFFFFFFFFFFFFFFFFFFFFFFFFFFFFFFFFFFFFFFFFFFFFFFFFFFFFFFFFFFFFFFFFFFFFFFFFFFFFFF
102
{BLKREFS
331
25B5
102
}
  0
BLOCK_RECORD
  5
2579
330
233B
100
AcDbSymbolTableRecord
100
AcDbBlockTableRecord
  2
AI9-BLK13
340
0
310
2800000020000000200000000100080000000000000400000000000000000000000000000000000000000000000080000080000000808000800000008000800080800000C0C0C000C0DCC000F0CAA6000020400000206000002080000020A0000020C0000020E00000400000004020000040400000406000004080000040A0
310
000040C0000040E00000600000006020000060400000606000006080000060A0000060C0000060E00000800000008020000080400000806000008080000080A0000080C0000080E00000A0000000A0200000A0400000A0600000A0800000A0A00000A0C00000A0E00000C0000000C0200000C0400000C0600000C0800000C0
310
A00000C0C00000C0E00000E0000000E0200000E0400000E0600000E0800000E0A00000E0C00000E0E00040000000400020004000400040006000400080004000A0004000C0004000E00040200000402020004020400040206000402080004020A0004020C0004020E000404000004040200040404000404060004040800040
310
40A0004040C0004040E00040600000406020004060400040606000406080004060A0004060C0004060E00040800000408020004080400040806000408080004080A0004080C0004080E00040A0000040A0200040A0400040A0600040A0800040A0A00040A0C00040A0E00040C0000040C0200040C0400040C0600040C08000
310
40C0A00040C0C00040C0E00040E0000040E0200040E0400040E0600040E0800040E0A00040E0C00040E0E00080000000800020008000400080006000800080008000A0008000C0008000E00080200000802020008020400080206000802080008020A0008020C0008020E00080400000804020008040400080406000804080
310
008040A0008040C0008040E00080600000806020008060400080606000806080008060A0008060C0008060E00080800000808020008080400080806000808080008080A0008080C0008080E00080A0000080A0200080A0400080A0600080A0800080A0A00080A0C00080A0E00080C0000080C0200080C0400080C0600080C0
310
800080C0A00080C0C00080C0E00080E0000080E0200080E0400080E0600080E0800080E0A00080E0C00080E0E000C0000000C0002000C0004000C0006000C0008000C000A000C000C000C000E000C0200000C0202000C0204000C0206000C0208000C020A000C020C000C020E000C0400000C0402000C0404000C0406000C0
310
408000C040A000C040C000C040E000C0600000C0602000C0604000C0606000C0608000C060A000C060C000C060E000C0800000C0802000C0804000C0806000C0808000C080A000C080C000C080E000C0A00000C0A02000C0A04000C0A06000C0A08000C0A0A000C0A0C000C0A0E000C0C00000C0C02000C0C04000C0C06000
310
C0C08000C0C0A000F0FBFF00A4A0A000808080000000FF0000FF000000FFFF00FF000000FF00FF00FFFF0000FFFFFF00FFFFFFFFFFFFFFFFFFFFFFFFFFFFFFFFFFFFFFFFFFFFFFFFFFFFFFFFFFFFFFFFFFFFFFFFFFFFFFFFFFFFFF0000FFFFFFFFFFFF0000FFFFFFFFFFFFFFFFFFFFFFFFFFFFFFFFFFFFFFFFFFFF0000FFFF
310
FFFFFFFF0000FFFFFFFFFFFFFFFFFFFFFFFFFFFFFFFFFFFFFFFFFFFF0000FFFFFFFFFFFF0000FFFFFFFFFFFFFFFFFFFFFFFFFFFFFFFFFFFFFFFFFFFF0000FFFFFFFFFFFF0000FFFFFFFFFFFFFFFFFFFFFFFFFFFFFFFFFFFFFFFFFFFF0000FFFFFFFFFFFF0000FFFFFFFFFFFFFFFFFFFFFFFFFFFFFFFFFFFFFFFFFFFF0000FF
310
FFFFFFFFFF0000FFFFFFFFFFFFFFFFFFFFFFFFFFFFFFFFFFFFFFFFFFFF0000FFFFFFFFFFFF0000FFFFFFFFFFFFFFFFFFFFFFFFFFFFFFFFFFFFFFFFFFFF0000FFFFFFFFFFFF0000FFFFFFFFFFFFFFFFFFFFFFFFFFFFFFFFFFFFFFFFFFFF0000FFFFFFFFFFFF0000FFFFFFFFFFFFFFFFFFFFFFFFFFFFFFFFFFFFFFFFFFFF0000
310
FFFFFFFFFFFF0000FFFFFFFFFFFFFFFFFFFFFFFFFFFFFFFFFFFFFFFFFFFF0000FFFFFFFFFFFF0000FFFFFFFFFFFFFFFFFFFFFFFFFFFFFFFFFFFFFFFFFFFF0000FFFFFFFFFFFF0000FFFFFFFFFFFFFFFFFFFFFFFFFFFFFFFFFFFFFFFFFFFF0000FFFFFFFFFFFF0000FFFFFFFFFFFFFFFFFFFFFFFFFFFFFFFFFFFFFFFFFFFF00
310
00FFFFFFFFFFFF0000FFFFFFFFFFFFFFFFFFFFFFFFFFFFFFFFFFFFFFFFFFFF00000000000000000000FFFFFFFFFFFFFFFFFFFFFFFFFFFFFFFFFFFFFFFFFFFF00FFFFFFFFFFFFFFFF00FFFFFFFFFFFFFFFFFFFFFFFFFFFFFFFFFFFFFFFFFFFF00FFFFFFFFFFFFFFFF00FFFFFFFFFFFFFFFFFFFFFFFFFFFFFFFFFFFFFFFFFFFF
310
00000000000000000000FFFFFFFFFFFFFFFFFFFFFFFFFFFFFFFFFFFFFFFFFFFF0000FFFFFFFFFFFF0000FFFFFFFFFFFFFFFFFFFFFFFFFFFFFFFFFFFFFFFFFFFF0000FFFFFFFFFFFF0000FFFFFFFFFFFFFFFFFFFFFFFFFFFFFFFFFFFFFFFFFFFF0000FFFFFFFFFFFF0000FFFFFFFFFFFFFFFFFFFFFFFFFFFFFFFFFFFFFFFFFF
310
FF0000FFFFFFFFFFFF0000FFFFFFFFFFFFFFFFFFFFFFFFFFFFFFFFFFFFFFFFFFFF0000FFFFFFFFFFFF0000FFFFFFFFFFFFFFFFFFFFFFFFFFFFFFFFFFFFFFFFFFFF0000FFFFFFFFFFFF0000FFFFFFFFFFFFFFFFFFFFFFFFFFFFFFFFFFFFFFFFFFFF0000FFFFFFFFFFFF0000FFFFFFFFFFFFFFFFFFFFFFFFFFFFFFFFFFFFFFFF
310
FFFF0000FFFFFFFFFFFF0000FFFFFFFFFFFFFFFFFFFFFFFFFFFFFFFFFFFFFFFFFFFF0000FFFFFFFFFFFF0000FFFFFFFFFFFFFFFFFFFFFFFFFFFFFFFFFFFFFFFFFFFF0000FFFFFFFFFFFF0000FFFFFFFFFFFFFFFFFFFFFFFFFFFFFFFFFFFFFFFFFFFF0000FFFFFFFFFFFF0000FFFFFFFFFFFFFFFFFFFFFFFFFFFFFFFFFFFFFF
310
FFFFFF0000FFFFFFFFFFFF0000FFFFFFFFFFFFFFFFFFFFFFFFFFFFFFFFFFFFFFFFFFFFFFFFFFFFFFFFFFFFFFFFFFFFFFFFFFFFFFFFFFFFFF
102
{BLKREFS
331
25B6
102
}
  0
BLOCK_RECORD
  5
257E
330
233B
100
AcDbSymbolTableRecord
100
AcDbBlockTableRecord
  2
AI9-BLK11
340
0
310
2800000020000000200000000100080000000000000400000000000000000000000000000000000000000000000080000080000000808000800000008000800080800000C0C0C000C0DCC000F0CAA6000020400000206000002080000020A0000020C0000020E00000400000004020000040400000406000004080000040A0
310
000040C0000040E00000600000006020000060400000606000006080000060A0000060C0000060E00000800000008020000080400000806000008080000080A0000080C0000080E00000A0000000A0200000A0400000A0600000A0800000A0A00000A0C00000A0E00000C0000000C0200000C0400000C0600000C0800000C0
310
A00000C0C00000C0E00000E0000000E0200000E0400000E0600000E0800000E0A00000E0C00000E0E00040000000400020004000400040006000400080004000A0004000C0004000E00040200000402020004020400040206000402080004020A0004020C0004020E000404000004040200040404000404060004040800040
310
40A0004040C0004040E00040600000406020004060400040606000406080004060A0004060C0004060E00040800000408020004080400040806000408080004080A0004080C0004080E00040A0000040A0200040A0400040A0600040A0800040A0A00040A0C00040A0E00040C0000040C0200040C0400040C0600040C08000
310
40C0A00040C0C00040C0E00040E0000040E0200040E0400040E0600040E0800040E0A00040E0C00040E0E00080000000800020008000400080006000800080008000A0008000C0008000E00080200000802020008020400080206000802080008020A0008020C0008020E00080400000804020008040400080406000804080
310
008040A0008040C0008040E00080600000806020008060400080606000806080008060A0008060C0008060E00080800000808020008080400080806000808080008080A0008080C0008080E00080A0000080A0200080A0400080A0600080A0800080A0A00080A0C00080A0E00080C0000080C0200080C0400080C0600080C0
310
800080C0A00080C0C00080C0E00080E0000080E0200080E0400080E0600080E0800080E0A00080E0C00080E0E000C0000000C0002000C0004000C0006000C0008000C000A000C000C000C000E000C0200000C0202000C0204000C0206000C0208000C020A000C020C000C020E000C0400000C0402000C0404000C0406000C0
310
408000C040A000C040C000C040E000C0600000C0602000C0604000C0606000C0608000C060A000C060C000C060E000C0800000C0802000C0804000C0806000C0808000C080A000C080C000C080E000C0A00000C0A02000C0A04000C0A06000C0A08000C0A0A000C0A0C000C0A0E000C0C00000C0C02000C0C04000C0C06000
310
C0C08000C0C0A000F0FBFF00A4A0A000808080000000FF0000FF000000FFFF00FF000000FF00FF00FFFF0000FFFFFF00FFFFFFFFFFFFFFFFFFFFFFFFFFFFFFFFFFFFFFFFFFFFFFFFFFFFFFFFFFFFFFFFFFFFFFFFFFFFFFFFFFFFFFFFFFFF00000000FFFFFFFFFFFFFFFFFFFFFF000000FFFFFFFFFFFFFFFFFFFFFFFFFFFF00
310
FFFF00FFFFFFFFFFFFFFFFFFFFFF00FFFFFFFFFFFFFFFFFFFFFFFFFFFFFFFF00FFFF00FFFFFFFFFFFFFFFFFFFFFF00FFFFFFFFFFFFFFFFFFFFFFFFFFFFFFFF00FFFF00FFFFFFFFFFFFFFFFFFFFFF00FFFFFFFFFFFFFFFFFFFFFFFFFFFFFFFF00FFFF00FFFFFFFFFFFFFFFFFFFFFF00FFFFFFFFFFFFFFFFFFFFFFFFFFFFFFFF
310
00FFFF00FFFFFFFFFFFFFFFFFFFFFF00FFFFFFFFFFFFFFFFFFFFFFFFFFFFFFFF00FFFF00FFFFFFFFFFFFFFFFFFFFFF00FFFFFFFFFFFFFFFFFFFFFFFFFFFFFFFF00FFFF00FFFFFFFFFFFFFFFFFFFFFF00FFFFFFFFFFFFFFFFFFFFFFFFFFFFFFFF00FFFF00FFFFFFFFFFFFFFFFFFFFFF00FFFFFFFFFFFFFFFFFFFFFFFFFFFFFF
310
FF00FFFF00FFFFFFFFFFFFFFFFFFFFFF00FFFFFFFFFFFFFFFFFFFFFFFFFFFFFFFF00FFFF00FFFFFFFFFFFFFFFFFFFFFF00FFFFFFFFFFFFFFFFFFFFFFFFFFFFFFFF00FFFF00FFFFFFFFFFFFFFFFFFFFFF00FFFFFFFFFFFFFFFFFFFFFFFFFFFFFFFF00FFFF00FFFFFFFFFFFFFFFFFFFFFF00FFFFFFFFFFFFFFFFFFFFFFFFFFFF
310
FFFF00FFFF00FFFFFFFFFFFFFFFFFFFFFF00FFFFFFFFFFFFFFFFFFFFFFFFFFFFFFFF00FFFF00FFFFFFFFFFFFFFFFFFFFFF00FFFFFFFFFFFFFFFFFFFFFFFFFFFFFFFF00FFFF00FFFFFFFFFFFFFFFFFFFFFF00FFFFFFFFFFFFFFFFFFFFFFFFFFFFFFFF00FFFF00FFFFFFFFFFFFFFFFFFFF00FFFFFFFFFFFFFFFFFFFFFFFFFFFF
310
FFFFFF00FFFF00FFFFFFFFFFFFFFFFFFFF00FFFFFFFFFFFFFFFFFFFFFFFFFFFFFFFFFF00FFFF00FFFFFFFFFFFFFFFFFFFF00FFFFFFFFFFFFFFFFFFFFFFFFFFFFFFFFFF00FFFF00FFFFFFFFFFFFFFFFFFFF00FFFFFFFFFFFFFFFFFFFFFFFFFFFFFFFFFF00FFFF00FFFFFFFFFFFFFFFFFFFF00FFFFFFFFFFFFFFFFFFFFFFFFFF
310
FFFFFFFF00FFFF00FFFFFFFFFFFFFFFFFF0000FFFF00FFFFFFFFFFFFFFFFFFFFFFFFFFFF00FFFF00FFFFFFFFFFFFFFFF0000FFFFFF00FFFFFFFFFFFFFFFFFFFFFFFFFFFF00FFFF00000000000000000000FFFFFFFF00FFFFFFFFFFFFFFFFFFFFFFFFFFFF00FFFFFFFFFFFFFFFFFFFFFFFFFFFFFF00FFFFFFFFFFFFFFFFFFFF
310
FFFFFFFFFF00FFFFFFFFFFFFFFFFFFFFFFFFFFFF00FFFFFFFFFFFFFFFFFFFFFFFFFFFFFFFF00FFFFFFFFFFFFFFFFFFFFFFFFFFFF00FFFFFFFFFFFFFFFFFFFFFFFFFFFFFFFF00FFFFFFFFFFFFFFFFFFFFFFFFFFFFFF00FFFFFFFFFFFFFFFFFFFFFFFFFFFFFF00FFFFFFFFFFFFFFFFFFFFFFFFFFFFFF00FFFFFFFFFFFFFFFFFF
310
FFFFFFFFFFFF00FFFF00000000000000000000FFFFFFFF00FFFFFFFFFFFFFFFFFFFFFFFFFFFF00FFFF00FFFFFFFFFFFFFFFFFF0000FFFF00
102
{BLKREFS
331
25B7
102
}
  0
BLOCK_RECORD
  5
2583
330
233B
100
AcDbSymbolTableRecord
100
AcDbBlockTableRecord
  2
AI9-BLK10
340
0
310
2800000020000000200000000100080000000000000400000000000000000000000000000000000000000000000080000080000000808000800000008000800080800000C0C0C000C0DCC000F0CAA6000020400000206000002080000020A0000020C0000020E00000400000004020000040400000406000004080000040A0
310
000040C0000040E00000600000006020000060400000606000006080000060A0000060C0000060E00000800000008020000080400000806000008080000080A0000080C0000080E00000A0000000A0200000A0400000A0600000A0800000A0A00000A0C00000A0E00000C0000000C0200000C0400000C0600000C0800000C0
310
A00000C0C00000C0E00000E0000000E0200000E0400000E0600000E0800000E0A00000E0C00000E0E00040000000400020004000400040006000400080004000A0004000C0004000E00040200000402020004020400040206000402080004020A0004020C0004020E000404000004040200040404000404060004040800040
310
40A0004040C0004040E00040600000406020004060400040606000406080004060A0004060C0004060E00040800000408020004080400040806000408080004080A0004080C0004080E00040A0000040A0200040A0400040A0600040A0800040A0A00040A0C00040A0E00040C0000040C0200040C0400040C0600040C08000
310
40C0A00040C0C00040C0E00040E0000040E0200040E0400040E0600040E0800040E0A00040E0C00040E0E00080000000800020008000400080006000800080008000A0008000C0008000E00080200000802020008020400080206000802080008020A0008020C0008020E00080400000804020008040400080406000804080
310
008040A0008040C0008040E00080600000806020008060400080606000806080008060A0008060C0008060E00080800000808020008080400080806000808080008080A0008080C0008080E00080A0000080A0200080A0400080A0600080A0800080A0A00080A0C00080A0E00080C0000080C0200080C0400080C0600080C0
310
800080C0A00080C0C00080C0E00080E0000080E0200080E0400080E0600080E0800080E0A00080E0C00080E0E000C0000000C0002000C0004000C0006000C0008000C000A000C000C000C000E000C0200000C0202000C0204000C0206000C0208000C020A000C020C000C020E000C0400000C0402000C0404000C0406000C0
310
408000C040A000C040C000C040E000C0600000C0602000C0604000C0606000C0608000C060A000C060C000C060E000C0800000C0802000C0804000C0806000C0808000C080A000C080C000C080E000C0A00000C0A02000C0A04000C0A06000C0A08000C0A0A000C0A0C000C0A0E000C0C00000C0C02000C0C04000C0C06000
310
C0C08000C0C0A000F0FBFF00A4A0A000808080000000FF0000FF000000FFFF00FF000000FF00FF00FFFF0000FFFFFF00FFFFFFFFFFFFFFFFFFFFFFFFFFFFFFFF00FFFFFFFFFFFFFFFFFFFFFFFF00FFFFFFFFFFFFFFFFFFFFFFFFFFFFFFFFFFFF00FFFFFFFFFFFFFFFFFFFFFF00FFFFFFFFFFFFFFFFFFFFFFFFFFFFFFFFFFFF
310
FF00FFFFFFFFFFFFFFFFFFFFFF00FFFFFFFFFFFFFFFFFFFFFFFFFFFFFFFFFFFFFF00FFFFFFFFFFFFFFFFFFFFFF00FFFFFFFFFFFFFFFFFFFFFFFFFFFFFFFFFFFFFF00FFFFFFFFFFFFFFFFFFFFFF00FFFFFFFFFFFFFFFFFFFFFFFFFFFFFFFFFFFFFF00FFFFFFFFFFFFFFFFFFFFFF00FFFFFFFFFFFFFFFFFFFFFFFFFFFFFFFFFF
310
FFFF00FFFFFFFFFFFFFFFFFFFFFF00FFFFFFFFFFFFFFFFFFFFFFFFFFFFFFFFFFFFFF00FFFFFFFFFFFFFFFFFFFF00FFFFFFFFFFFFFFFFFFFFFFFFFFFFFFFFFFFFFFFF00FFFFFFFFFFFFFFFFFFFF00FFFFFFFFFFFFFFFFFFFFFFFFFFFFFFFFFFFFFFFF00FFFFFFFFFFFFFFFFFFFF00FFFFFFFFFFFFFFFFFFFFFFFFFFFFFFFFFF
310
FFFFFF00FFFFFFFFFFFFFFFFFFFF00FFFFFFFFFFFFFFFFFFFFFFFFFFFFFFFFFFFFFFFF00FFFFFFFFFFFFFFFFFFFF00FFFFFFFFFFFFFFFFFFFFFFFFFFFFFFFFFFFFFFFF00FFFFFFFFFFFFFFFFFFFF00FFFFFFFFFFFFFFFFFFFFFFFFFFFFFFFFFFFFFFFF00FFFFFFFFFFFFFFFFFF00FFFFFFFFFFFFFFFFFFFFFFFFFFFFFFFFFF
310
FFFFFFFF00FFFFFFFFFFFFFFFFFF00FFFFFFFFFFFFFFFFFFFFFFFFFFFFFFFFFFFFFFFFFF00FFFFFFFFFFFFFFFFFF00FFFFFFFFFFFFFFFFFFFFFFFFFFFFFFFFFFFFFFFFFF0000000000000000000000FFFFFFFFFFFFFFFFFFFFFFFFFFFFFFFFFFFFFFFFFFFFFFFFFFFFFFFFFFFFFFFFFFFFFFFFFFFFFFFFFFFFFFFFFFFFFFFF
310
FFFFFFFFFFFFFFFFFFFFFFFFFFFFFFFFFFFFFFFFFFFFFFFFFFFFFFFFFFFFFFFFFFFFFFFFFFFFFFFFFFFFFFFFFFFFFFFFFFFFFFFFFFFFFFFFFFFFFFFFFFFFFFFFFFFFFFFFFFFFFFFFFFFFFFFFFFFFFFFFFFFFFFFFFFFFFFFFFFFFFFFFFFFFFFFFFFFFFFFFFFFFFFFFFFFFFFFFFFFFFFFFFFFFFFFFFFFFFFFFFFFFFFFFFFFFFF
310
FFFFFFFFFFFFFFFFFFFFFFFFFFFFFFFFFFFFFFFFFFFFFFFFFFFFFFFFFFFFFFFFFFFFFFFFFFFFFFFFFFFFFFFFFFFFFFFFFFFFFFFFFFFFFFFFFFFFFFFFFFFFFFFFFFFFFFFFFFFFFFFFFFFFFFFFFFFFFFFFFFFFFFFFFFFFFFFFFFFFFFFFFFFFFFFFFFFFFFFFFFFFFFFFFFFFFFFFFFFFFFFFFFFFFFFFFFFFFFFFFFFFFFFFFFFFFF
310
FFFFFFFFFFFFFFFFFFFFFFFFFFFFFFFFFFFFFFFFFFFFFFFFFFFFFFFFFFFFFFFFFFFFFFFFFFFFFFFFFFFFFFFFFFFFFFFFFFFFFFFFFFFFFFFFFFFFFFFFFFFFFFFFFFFFFFFFFFFFFFFFFFFFFFFFFFFFFFFFFFFFFFFFFFFFFFFFFFFFFFFFFFFFFFFFFFFFFFFFFFFFFFFFFFFFFFFFFFFFFFFFFFFFFFFFFFFFFFFFFFFFFFFFFFFFFF
310
FFFFFFFFFFFFFFFFFFFFFFFFFFFFFFFFFFFFFFFFFFFFFFFFFFFFFFFFFFFFFFFFFFFFFFFFFFFFFFFFFFFFFFFFFFFFFFFFFFFFFFFFFFFFFFFF
102
{BLKREFS
331
25B8
102
}
  0
BLOCK_RECORD
  5
2587
330
233B
100
AcDbSymbolTableRecord
100
AcDbBlockTableRecord
  2
AI9-BLK9
340
0
310
2800000020000000200000000100080000000000000400000000000000000000000000000000000000000000000080000080000000808000800000008000800080800000C0C0C000C0DCC000F0CAA6000020400000206000002080000020A0000020C0000020E00000400000004020000040400000406000004080000040A0
310
000040C0000040E00000600000006020000060400000606000006080000060A0000060C0000060E00000800000008020000080400000806000008080000080A0000080C0000080E00000A0000000A0200000A0400000A0600000A0800000A0A00000A0C00000A0E00000C0000000C0200000C0400000C0600000C0800000C0
310
A00000C0C00000C0E00000E0000000E0200000E0400000E0600000E0800000E0A00000E0C00000E0E00040000000400020004000400040006000400080004000A0004000C0004000E00040200000402020004020400040206000402080004020A0004020C0004020E000404000004040200040404000404060004040800040
310
40A0004040C0004040E00040600000406020004060400040606000406080004060A0004060C0004060E00040800000408020004080400040806000408080004080A0004080C0004080E00040A0000040A0200040A0400040A0600040A0800040A0A00040A0C00040A0E00040C0000040C0200040C0400040C0600040C08000
310
40C0A00040C0C00040C0E00040E0000040E0200040E0400040E0600040E0800040E0A00040E0C00040E0E00080000000800020008000400080006000800080008000A0008000C0008000E00080200000802020008020400080206000802080008020A0008020C0008020E00080400000804020008040400080406000804080
310
008040A0008040C0008040E00080600000806020008060400080606000806080008060A0008060C0008060E00080800000808020008080400080806000808080008080A0008080C0008080E00080A0000080A0200080A0400080A0600080A0800080A0A00080A0C00080A0E00080C0000080C0200080C0400080C0600080C0
310
800080C0A00080C0C00080C0E00080E0000080E0200080E0400080E0600080E0800080E0A00080E0C00080E0E000C0000000C0002000C0004000C0006000C0008000C000A000C000C000C000E000C0200000C0202000C0204000C0206000C0208000C020A000C020C000C020E000C0400000C0402000C0404000C0406000C0
310
408000C040A000C040C000C040E000C0600000C0602000C0604000C0606000C0608000C060A000C060C000C060E000C0800000C0802000C0804000C0806000C0808000C080A000C080C000C080E000C0A00000C0A02000C0A04000C0A06000C0A08000C0A0A000C0A0C000C0A0E000C0C00000C0C02000C0C04000C0C06000
310
C0C08000C0C0A000F0FBFF00A4A0A000808080000000FF0000FF000000FFFF00FF000000FF00FF00FFFF0000FFFFFF00FFFFFFFFFFFFFFFFFFFFFFFFFFFFFFFFFFFFFFFFFFFFFFFFFFFFFFFFFFFFFFFFFFFFFFFFFFFFFFFFFFFFFFFFFFFFFF0000FFFFFFFFFFFFFFFFFFFFFFFFFFFFFFFFFFFFFFFFFFFFFFFFFFFFFFFF0000
310
FF0000FFFFFFFFFFFFFFFFFFFFFFFFFFFFFFFFFFFFFFFFFFFFFFFFFFFFFF00FFFFFF0000FFFFFFFFFFFFFFFFFFFFFFFFFFFFFFFFFFFFFFFFFFFFFFFFFFFF00FFFFFFFF0000FFFFFFFFFFFFFFFFFFFFFFFFFFFFFFFFFFFFFFFFFFFFFFFF00FF00000000FF00FFFFFFFFFFFFFFFFFFFFFFFFFFFFFFFFFFFFFFFFFFFFFFFF0000
310
00FFFF00FF00FFFFFFFFFFFFFFFFFFFFFFFFFFFFFFFFFFFFFFFFFFFFFFFF0000FFFFFFFF0000FFFFFFFFFFFFFFFFFFFFFFFFFFFFFFFFFFFFFFFFFFFFFFFF0000FFFFFFFF0000FFFFFFFFFFFFFFFFFFFFFFFFFFFFFFFFFFFFFFFFFFFFFF00FF00FFFFFFFF00FF00FFFFFFFFFFFFFFFFFFFFFFFFFFFFFFFFFFFFFFFFFFFF0000
310
FFFFFFFFFF00FF00FFFFFFFFFFFFFFFFFFFFFFFFFFFFFFFFFFFFFFFFFFFF0000FFFFFFFFFFFF0000FFFFFFFFFFFFFFFFFFFFFFFFFFFFFFFFFFFFFFFFFFFF0000FFFFFFFFFFFF0000FFFFFFFFFFFFFFFFFFFFFFFFFFFFFFFFFFFFFFFFFFFF0000FFFFFFFFFFFF0000FFFFFFFFFFFFFFFFFFFFFFFFFFFFFFFFFFFFFFFFFFFF00
310
00FFFFFFFFFFFF0000FFFFFFFFFFFFFFFFFFFFFFFFFFFFFFFFFFFFFFFFFFFF0000FFFFFFFFFFFF0000FFFFFFFFFFFFFFFFFFFFFFFFFFFFFFFFFFFFFFFFFFFF0000FFFFFFFFFFFF0000FFFFFFFFFFFFFFFFFFFFFFFFFFFFFFFFFFFFFFFFFFFF0000FFFFFFFFFFFF0000FFFFFFFFFFFFFFFFFFFFFFFFFFFFFFFFFFFFFFFFFFFF
310
0000FFFFFFFFFFFF0000FFFFFFFFFFFFFFFFFFFFFFFFFFFFFFFFFFFFFFFFFFFF0000FFFFFFFFFFFF0000FFFFFFFFFFFFFFFFFFFFFFFFFFFFFFFFFFFFFFFFFFFF0000FFFFFFFFFFFF0000FFFFFFFFFFFFFFFFFFFFFFFFFFFFFFFFFFFFFFFFFFFF00FF00FFFFFFFF00FF00FFFFFFFFFFFFFFFFFFFFFFFFFFFFFFFFFFFFFFFFFF
310
FF00FF00FFFFFFFF00FF00FFFFFFFFFFFFFFFFFFFFFFFFFFFFFFFFFFFFFFFFFFFF00FF00FFFFFFFF00FF00FFFFFFFFFFFFFFFFFFFFFFFFFFFFFFFFFFFFFFFFFFFFFF0000FFFFFFFF0000FFFFFFFFFFFFFFFFFFFFFFFFFFFFFFFFFFFFFFFFFFFFFFFF00FF00FFFF00FF00FFFFFFFFFFFFFFFFFFFFFFFFFFFFFFFFFFFFFFFFFF
310
FFFFFF00FF00000000FF00FFFFFFFFFFFFFFFFFFFFFFFFFFFFFFFFFFFFFFFFFFFFFFFFFF00FFFFFFFF0000FFFFFFFFFFFFFFFFFFFFFFFFFFFFFFFFFFFFFFFFFFFFFFFFFF00FFFFFFFF00FFFFFFFFFFFFFFFFFFFFFFFFFFFFFFFFFFFFFFFFFFFFFFFFFFFFFF00000000FFFFFFFFFFFFFFFFFFFFFFFFFFFFFFFFFFFFFFFFFFFF
310
FFFFFFFFFFFFFF0000FFFFFFFFFFFFFFFFFFFFFFFFFFFFFFFFFFFFFFFFFFFFFFFFFFFFFFFFFFFFFFFFFFFFFFFFFFFFFFFFFFFFFFFFFFFFFF
102
{BLKREFS
331
25B9
102
}
  0
BLOCK_RECORD
  5
258C
330
233B
100
AcDbSymbolTableRecord
100
AcDbBlockTableRecord
  2
AI9-BLK8
340
0
310
2800000020000000200000000100080000000000000400000000000000000000000000000000000000000000000080000080000000808000800000008000800080800000C0C0C000C0DCC000F0CAA6000020400000206000002080000020A0000020C0000020E00000400000004020000040400000406000004080000040A0
310
000040C0000040E00000600000006020000060400000606000006080000060A0000060C0000060E00000800000008020000080400000806000008080000080A0000080C0000080E00000A0000000A0200000A0400000A0600000A0800000A0A00000A0C00000A0E00000C0000000C0200000C0400000C0600000C0800000C0
310
A00000C0C00000C0E00000E0000000E0200000E0400000E0600000E0800000E0A00000E0C00000E0E00040000000400020004000400040006000400080004000A0004000C0004000E00040200000402020004020400040206000402080004020A0004020C0004020E000404000004040200040404000404060004040800040
310
40A0004040C0004040E00040600000406020004060400040606000406080004060A0004060C0004060E00040800000408020004080400040806000408080004080A0004080C0004080E00040A0000040A0200040A0400040A0600040A0800040A0A00040A0C00040A0E00040C0000040C0200040C0400040C0600040C08000
310
40C0A00040C0C00040C0E00040E0000040E0200040E0400040E0600040E0800040E0A00040E0C00040E0E00080000000800020008000400080006000800080008000A0008000C0008000E00080200000802020008020400080206000802080008020A0008020C0008020E00080400000804020008040400080406000804080
310
008040A0008040C0008040E00080600000806020008060400080606000806080008060A0008060C0008060E00080800000808020008080400080806000808080008080A0008080C0008080E00080A0000080A0200080A0400080A0600080A0800080A0A00080A0C00080A0E00080C0000080C0200080C0400080C0600080C0
310
800080C0A00080C0C00080C0E00080E0000080E0200080E0400080E0600080E0800080E0A00080E0C00080E0E000C0000000C0002000C0004000C0006000C0008000C000A000C000C000C000E000C0200000C0202000C0204000C0206000C0208000C020A000C020C000C020E000C0400000C0402000C0404000C0406000C0
310
408000C040A000C040C000C040E000C0600000C0602000C0604000C0606000C0608000C060A000C060C000C060E000C0800000C0802000C0804000C0806000C0808000C080A000C080C000C080E000C0A00000C0A02000C0A04000C0A06000C0A08000C0A0A000C0A0C000C0A0E000C0C00000C0C02000C0C04000C0C06000
310
C0C08000C0C0A000F0FBFF00A4A0A000808080000000FF0000FF000000FFFF00FF000000FF00FF00FFFF0000FFFFFF00FFFFFFFFFFFFFFFFFFFFFFFFFFFFFFFFFFFFFFFFFFFFFFFFFFFFFFFFFFFFFFFFFFFFFFFFFFFFFFFFFFFFFF0000FFFFFFFFFFFF0000FFFFFFFFFFFFFFFFFFFFFFFFFFFFFFFFFFFFFFFFFFFF0000FFFF
310
FFFFFFFF0000FFFFFFFFFFFFFFFFFFFFFFFFFFFFFFFFFFFFFFFFFFFF0000FFFFFFFFFF00FF00FFFFFFFFFFFFFFFFFFFFFFFFFFFFFFFFFFFFFFFFFFFF0000FFFFFFFFFF00FF00FFFFFFFFFFFFFFFFFFFFFFFFFFFFFFFFFFFFFFFFFFFF0000FFFFFFFFFF00FF00FFFFFFFFFFFFFFFFFFFFFFFFFFFFFFFFFFFFFFFFFFFF0000FF
310
FFFFFF00FFFF00FFFFFFFFFFFFFFFFFFFFFFFFFFFFFFFFFFFFFFFFFFFF0000FFFFFFFF00FF0000FFFFFFFFFFFFFFFFFFFFFFFFFFFFFFFFFFFFFFFFFFFF0000FFFFFFFF00FF0000FFFFFFFFFFFFFFFFFFFFFFFFFFFFFFFFFFFFFFFFFFFF0000FFFFFFFF00000000FFFFFFFFFFFFFFFFFFFFFFFFFFFFFFFFFFFFFFFFFFFF0000
310
FFFFFF00FF000000FFFFFFFFFFFFFFFFFFFFFFFFFFFFFFFFFFFFFFFFFFFF0000FFFFFF00FF000000FFFFFFFFFFFFFFFFFFFFFFFFFFFFFFFFFFFFFFFFFFFF0000FFFFFF00FF000000FFFFFFFFFFFFFFFFFFFFFFFFFFFFFFFFFFFFFFFFFFFF0000FFFF00FF00FF0000FFFFFFFFFFFFFFFFFFFFFFFFFFFFFFFFFFFFFFFFFFFF00
310
00FFFF00FF00FF0000FFFFFFFFFFFFFFFFFFFFFFFFFFFFFFFFFFFFFFFFFFFF0000FFFF00FF00FF0000FFFFFFFFFFFFFFFFFFFFFFFFFFFFFFFFFFFFFFFFFFFF0000FF00FFFF00FF0000FFFFFFFFFFFFFFFFFFFFFFFFFFFFFFFFFFFFFFFFFFFF0000FF00FF00FFFF0000FFFFFFFFFFFFFFFFFFFFFFFFFFFFFFFFFFFFFFFFFFFF
310
0000FF00FF00FFFF0000FFFFFFFFFFFFFFFFFFFFFFFFFFFFFFFFFFFFFFFFFFFF0000FF00FF00FFFF0000FFFFFFFFFFFFFFFFFFFFFFFFFFFFFFFFFFFFFFFFFFFF000000FFFF00FFFF0000FFFFFFFFFFFFFFFFFFFFFFFFFFFFFFFFFFFFFFFFFFFF000000FF00FFFFFF0000FFFFFFFFFFFFFFFFFFFFFFFFFFFFFFFFFFFFFFFFFF
310
FF000000FF00FFFFFF0000FFFFFFFFFFFFFFFFFFFFFFFFFFFFFFFFFFFFFFFFFFFF0000FFFF00FFFFFF0000FFFFFFFFFFFFFFFFFFFFFFFFFFFFFFFFFFFFFFFFFFFF0000FFFF00FFFFFF0000FFFFFFFFFFFFFFFFFFFFFFFFFFFFFFFFFFFFFFFFFFFF00FFFF00FFFFFFFF0000FFFFFFFFFFFFFFFFFFFFFFFFFFFFFFFFFFFFFFFF
310
FFFF00FFFF00FFFFFFFF0000FFFFFFFFFFFFFFFFFFFFFFFFFFFFFFFFFFFFFFFFFFFF00FFFF00FFFFFFFF0000FFFFFFFFFFFFFFFFFFFFFFFFFFFFFFFFFFFFFFFFFFFF00FFFF00FFFFFFFF0000FFFFFFFFFFFFFFFFFFFFFFFFFFFFFFFFFFFFFFFFFFFF00FF00FFFFFFFFFF0000FFFFFFFFFFFFFFFFFFFFFFFFFFFFFFFFFFFFFF
310
FFFFFF000000FFFFFFFFFF0000FFFFFFFFFFFFFFFFFFFFFFFFFFFFFFFFFFFFFFFFFFFFFFFFFFFFFFFFFFFFFFFFFFFFFFFFFFFFFFFFFFFFFF
102
{BLKREFS
331
25BA
102
}
  0
BLOCK_RECORD
  5
2591
330
233B
100
AcDbSymbolTableRecord
100
AcDbBlockTableRecord
  2
AI9-BLK7
340
0
310
2800000020000000200000000100080000000000000400000000000000000000000000000000000000000000000080000080000000808000800000008000800080800000C0C0C000C0DCC000F0CAA6000020400000206000002080000020A0000020C0000020E00000400000004020000040400000406000004080000040A0
310
000040C0000040E00000600000006020000060400000606000006080000060A0000060C0000060E00000800000008020000080400000806000008080000080A0000080C0000080E00000A0000000A0200000A0400000A0600000A0800000A0A00000A0C00000A0E00000C0000000C0200000C0400000C0600000C0800000C0
310
A00000C0C00000C0E00000E0000000E0200000E0400000E0600000E0800000E0A00000E0C00000E0E00040000000400020004000400040006000400080004000A0004000C0004000E00040200000402020004020400040206000402080004020A0004020C0004020E000404000004040200040404000404060004040800040
310
40A0004040C0004040E00040600000406020004060400040606000406080004060A0004060C0004060E00040800000408020004080400040806000408080004080A0004080C0004080E00040A0000040A0200040A0400040A0600040A0800040A0A00040A0C00040A0E00040C0000040C0200040C0400040C0600040C08000
310
40C0A00040C0C00040C0E00040E0000040E0200040E0400040E0600040E0800040E0A00040E0C00040E0E00080000000800020008000400080006000800080008000A0008000C0008000E00080200000802020008020400080206000802080008020A0008020C0008020E00080400000804020008040400080406000804080
310
008040A0008040C0008040E00080600000806020008060400080606000806080008060A0008060C0008060E00080800000808020008080400080806000808080008080A0008080C0008080E00080A0000080A0200080A0400080A0600080A0800080A0A00080A0C00080A0E00080C0000080C0200080C0400080C0600080C0
310
800080C0A00080C0C00080C0E00080E0000080E0200080E0400080E0600080E0800080E0A00080E0C00080E0E000C0000000C0002000C0004000C0006000C0008000C000A000C000C000C000E000C0200000C0202000C0204000C0206000C0208000C020A000C020C000C020E000C0400000C0402000C0404000C0406000C0
310
408000C040A000C040C000C040E000C0600000C0602000C0604000C0606000C0608000C060A000C060C000C060E000C0800000C0802000C0804000C0806000C0808000C080A000C080C000C080E000C0A00000C0A02000C0A04000C0A06000C0A08000C0A0A000C0A0C000C0A0E000C0C00000C0C02000C0C04000C0C06000
310
C0C08000C0C0A000F0FBFF00A4A0A000808080000000FF0000FF000000FFFF00FF000000FF00FF00FFFF0000FFFFFF00FFFFFFFFFFFFFFFFFFFFFFFFFFFFFFFFFFFFFFFFFFFFFFFFFFFFFFFFFFFFFFFFFFFFFFFFFFFFFFFFFFFFFFFFFFFFFF0000FFFFFFFFFFFFFFFFFFFFFFFFFFFFFFFFFFFFFFFFFFFFFFFFFFFFFFFFFFFF
310
0000FFFFFFFFFFFFFFFFFFFFFFFFFFFFFFFFFFFFFFFFFFFFFFFFFFFFFFFFFFFF0000FFFFFFFFFFFFFFFFFFFFFFFFFFFFFFFFFFFFFFFFFFFFFFFFFFFFFFFFFFFF0000FFFFFFFFFFFFFFFFFFFFFFFFFFFFFFFFFFFFFFFFFFFFFFFFFFFFFFFFFFFF0000FFFFFFFFFFFFFFFFFFFFFFFFFFFFFFFFFFFFFFFFFFFFFFFFFFFFFFFFFF
310
FF0000FFFFFFFFFFFFFFFFFFFFFFFFFFFFFFFFFFFFFFFFFFFFFFFFFFFFFFFFFFFF0000FFFFFFFFFFFFFFFFFFFFFFFFFFFFFFFFFFFFFFFFFFFFFFFFFFFFFFFFFFFF0000FFFFFFFFFFFFFFFFFFFFFFFFFFFFFFFFFFFFFFFFFFFFFFFFFFFFFFFFFFFF0000FFFFFFFFFFFFFFFFFFFFFFFFFFFFFFFFFFFFFFFFFFFFFFFFFFFFFFFF
310
FFFF0000FFFFFFFFFFFFFFFFFFFFFFFFFFFFFFFFFFFFFFFFFFFFFFFFFFFFFFFFFFFF0000FFFFFFFFFFFFFFFFFFFFFFFFFFFFFFFFFFFFFFFFFFFFFFFFFFFFFFFFFFFF0000FFFFFFFFFFFFFFFFFFFFFFFFFFFFFFFFFFFFFFFFFFFFFFFFFFFFFFFFFFFF0000FFFFFFFFFFFFFFFFFFFFFFFFFFFFFFFFFFFFFFFFFFFFFFFFFFFFFF
310
FFFFFF0000FFFFFFFFFFFFFFFFFFFFFFFFFFFFFFFFFFFFFFFFFFFFFFFFFFFFFFFFFFFF0000FFFFFFFFFFFFFFFFFFFFFFFFFFFFFFFFFFFFFFFFFFFFFFFFFFFFFFFFFFFF0000FFFFFFFFFFFFFFFFFFFFFFFFFFFFFFFFFFFFFFFFFFFFFFFFFFFFFFFFFFFF0000FFFFFFFFFFFFFFFFFFFFFFFFFFFFFFFFFFFFFFFFFFFFFFFFFFFF
310
FFFFFFFF0000FFFFFFFFFFFFFFFFFFFFFFFFFFFFFFFFFFFFFFFFFFFFFFFFFFFFFFFFFFFF0000FFFFFFFFFFFFFFFFFFFFFFFFFFFFFFFFFFFFFFFFFFFFFFFFFFFFFFFFFFFF0000FFFFFFFFFFFFFFFFFFFFFFFFFFFFFFFFFFFFFFFFFFFFFFFFFFFFFFFFFFFF0000FFFFFFFFFFFFFFFFFFFFFFFFFFFFFFFFFFFFFFFFFFFFFFFFFF
310
FFFFFFFFFF0000FFFFFFFFFFFFFFFFFFFFFFFFFFFFFFFFFFFFFFFFFFFFFFFFFFFFFFFFFFFF0000FFFFFFFFFFFFFFFFFFFFFFFFFFFFFFFFFFFFFFFFFFFFFFFFFFFFFFFFFFFF0000FFFFFFFFFFFFFFFFFFFFFFFFFFFFFFFFFFFFFFFFFFFFFFFFFFFFFFFFFFFF0000FFFFFFFFFFFFFFFFFFFFFFFFFFFFFFFFFFFFFFFFFFFFFFFF
310
FFFFFFFFFFFF0000FFFFFFFFFFFFFFFFFFFFFFFFFFFFFFFFFFFFFFFFFFFFFFFFFFFFFFFFFFFF0000FFFFFFFFFFFFFFFFFFFFFFFFFFFFFFFFFFFFFFFFFFFFFFFFFFFFFFFFFFFF0000FFFFFFFFFFFFFFFFFFFFFFFFFFFFFFFFFFFFFFFFFFFFFFFFFFFFFFFFFFFF0000FFFFFFFFFFFFFFFFFFFFFFFFFFFFFFFFFFFFFFFFFFFFFF
310
FFFFFFFFFFFFFF0000FFFFFFFFFFFFFFFFFFFFFFFFFFFFFFFFFFFFFFFFFFFFFFFFFFFFFFFFFFFFFFFFFFFFFFFFFFFFFFFFFFFFFFFFFFFFFF
102
{BLKREFS
331
25BB
102
}
  0
BLOCK_RECORD
  5
2596
330
233B
100
AcDbSymbolTableRecord
100
AcDbBlockTableRecord
  2
AI9-BLK6
340
0
310
2800000020000000200000000100080000000000000400000000000000000000000000000000000000000000000080000080000000808000800000008000800080800000C0C0C000C0DCC000F0CAA6000020400000206000002080000020A0000020C0000020E00000400000004020000040400000406000004080000040A0
310
000040C0000040E00000600000006020000060400000606000006080000060A0000060C0000060E00000800000008020000080400000806000008080000080A0000080C0000080E00000A0000000A0200000A0400000A0600000A0800000A0A00000A0C00000A0E00000C0000000C0200000C0400000C0600000C0800000C0
310
A00000C0C00000C0E00000E0000000E0200000E0400000E0600000E0800000E0A00000E0C00000E0E00040000000400020004000400040006000400080004000A0004000C0004000E00040200000402020004020400040206000402080004020A0004020C0004020E000404000004040200040404000404060004040800040
310
40A0004040C0004040E00040600000406020004060400040606000406080004060A0004060C0004060E00040800000408020004080400040806000408080004080A0004080C0004080E00040A0000040A0200040A0400040A0600040A0800040A0A00040A0C00040A0E00040C0000040C0200040C0400040C0600040C08000
310
40C0A00040C0C00040C0E00040E0000040E0200040E0400040E0600040E0800040E0A00040E0C00040E0E00080000000800020008000400080006000800080008000A0008000C0008000E00080200000802020008020400080206000802080008020A0008020C0008020E00080400000804020008040400080406000804080
310
008040A0008040C0008040E00080600000806020008060400080606000806080008060A0008060C0008060E00080800000808020008080400080806000808080008080A0008080C0008080E00080A0000080A0200080A0400080A0600080A0800080A0A00080A0C00080A0E00080C0000080C0200080C0400080C0600080C0
310
800080C0A00080C0C00080C0E00080E0000080E0200080E0400080E0600080E0800080E0A00080E0C00080E0E000C0000000C0002000C0004000C0006000C0008000C000A000C000C000C000E000C0200000C0202000C0204000C0206000C0208000C020A000C020C000C020E000C0400000C0402000C0404000C0406000C0
310
408000C040A000C040C000C040E000C0600000C0602000C0604000C0606000C0608000C060A000C060C000C060E000C0800000C0802000C0804000C0806000C0808000C080A000C080C000C080E000C0A00000C0A02000C0A04000C0A06000C0A08000C0A0A000C0A0C000C0A0E000C0C00000C0C02000C0C04000C0C06000
310
C0C08000C0C0A000F0FBFF00A4A0A000808080000000FF0000FF000000FFFF00FF000000FF00FF00FFFF0000FFFFFF00FFFFFFFFFFFFFFFFFFFFFFFF00FFFFFFFFFFFFFF00FFFFFFFFFFFFFFFFFFFFFFFFFFFFFFFFFFFFFFFFFFFFFF00FFFFFFFFFFFFFF00FFFFFFFFFFFFFFFFFFFFFFFFFFFFFFFFFFFFFFFFFFFFFF00FFFF
310
FFFFFFFFFF00FFFFFFFFFFFFFFFFFFFFFFFFFFFFFFFFFFFFFFFFFFFF00FFFFFFFFFFFFFFFF00FFFFFFFFFFFFFFFFFFFFFFFFFFFFFFFFFFFFFFFFFFFF00FFFFFFFFFFFFFF00FFFFFFFFFFFFFFFFFFFFFFFFFFFFFFFFFFFFFFFFFFFFFF00FFFFFFFFFFFFFF00FFFFFFFFFFFFFFFFFFFFFFFFFFFFFFFFFFFFFFFFFFFF00FFFFFF
310
FFFFFFFFFF00FFFFFFFFFFFFFFFFFFFFFFFFFFFFFFFFFFFFFFFFFFFF00FFFFFFFFFFFFFF00FFFFFFFFFFFFFFFFFFFFFFFFFFFFFFFFFFFFFFFFFFFF00FFFFFFFFFFFFFFFF00FFFFFFFFFFFFFFFFFFFFFFFFFFFFFFFFFFFFFFFFFF00FFFFFFFFFFFFFFFFFF00FFFFFFFFFFFFFFFFFFFFFFFFFFFFFFFFFFFFFFFF00FFFFFFFFFF
310
FFFFFFFFFF00FFFFFFFFFFFFFFFFFFFFFFFFFFFFFFFFFFFFFF00FFFFFFFFFFFFFFFFFFFF00FFFFFFFFFFFFFFFFFFFFFFFFFFFFFFFFFFFF0000FFFFFFFFFFFFFFFFFFFFFF00FFFFFFFFFFFFFFFFFFFFFFFFFFFF00000000FFFFFFFFFFFFFFFFFFFFFFFFFF00FFFFFFFFFFFFFFFFFFFFFFFFFFFFFFFFFFFFFFFFFFFFFFFFFFFF
310
FFFFFFFF00FFFFFFFFFFFFFFFFFFFFFFFFFFFFFFFFFFFFFFFFFFFFFFFFFFFFFFFFFFFFFF00FFFFFFFFFFFFFFFFFFFFFFFFFFFFFFFFFFFFFFFFFFFFFFFFFFFFFFFFFFFFFF00FFFFFFFFFFFFFFFFFFFFFFFFFFFFFFFFFFFFFFFFFFFFFFFFFFFFFFFFFFFF00FFFFFFFFFFFFFFFFFFFFFFFFFFFFFFFFFFFFFFFFFFFFFFFFFFFFFF
310
FFFFFFFF00FFFFFFFFFFFFFFFFFFFFFFFFFFFFFFFFFFFFFFFFFFFFFFFFFFFFFFFFFFFF00FFFFFFFFFFFFFFFFFFFFFFFFFFFFFFFFFFFFFFFFFFFFFFFFFFFFFFFFFFFF00FFFFFFFFFFFFFFFFFFFFFFFFFFFFFFFFFFFFFFFFFFFFFFFFFFFFFFFFFFFF00FFFFFFFFFFFFFFFFFFFFFFFFFFFFFFFFFFFFFFFFFFFFFFFFFFFFFFFFFF
310
FF00FFFFFFFFFFFFFFFFFFFFFFFFFFFFFFFFFFFFFFFFFFFFFFFFFFFFFFFFFFFFFF00FFFFFFFFFFFFFFFFFFFFFFFFFFFFFFFFFFFFFFFFFFFFFFFFFFFFFFFFFFFF00FFFFFFFFFFFFFFFFFFFFFFFFFFFFFFFFFFFFFFFFFFFFFFFFFFFFFFFFFF0000FFFFFFFFFFFFFFFFFFFFFFFFFFFFFFFFFFFFFFFFFFFFFFFFFFFFFFFF0000FF
310
FFFFFFFFFFFFFFFFFFFFFFFFFFFFFFFFFFFFFFFFFFFFFFFFFF00000000FFFFFFFFFFFFFFFFFFFFFFFFFFFFFFFFFFFFFFFFFFFFFFFFFFFF0000FFFFFFFFFFFFFFFFFFFFFFFFFFFFFFFFFFFFFFFFFFFFFFFFFFFFFFFFFFFFFFFFFFFFFFFFFFFFFFFFFFFFFFFFFFFFFFFFFFFFFFFFFFFFFFFFFFFFFFFFFFFFFFFFFFFFFFFFFFFF
310
FFFFFFFFFFFFFFFFFFFFFFFFFFFFFFFFFFFFFFFFFFFFFFFFFFFFFFFFFFFFFFFFFFFFFFFFFFFFFFFFFFFFFFFFFFFFFFFFFFFFFFFFFFFFFFFF
102
{BLKREFS
331
25BC
102
}
  0
BLOCK_RECORD
  5
259A
330
233B
100
AcDbSymbolTableRecord
100
AcDbBlockTableRecord
  2
AI9-BLK5
340
0
310
2800000020000000200000000100080000000000000400000000000000000000000000000000000000000000000080000080000000808000800000008000800080800000C0C0C000C0DCC000F0CAA6000020400000206000002080000020A0000020C0000020E00000400000004020000040400000406000004080000040A0
310
000040C0000040E00000600000006020000060400000606000006080000060A0000060C0000060E00000800000008020000080400000806000008080000080A0000080C0000080E00000A0000000A0200000A0400000A0600000A0800000A0A00000A0C00000A0E00000C0000000C0200000C0400000C0600000C0800000C0
310
A00000C0C00000C0E00000E0000000E0200000E0400000E0600000E0800000E0A00000E0C00000E0E00040000000400020004000400040006000400080004000A0004000C0004000E00040200000402020004020400040206000402080004020A0004020C0004020E000404000004040200040404000404060004040800040
310
40A0004040C0004040E00040600000406020004060400040606000406080004060A0004060C0004060E00040800000408020004080400040806000408080004080A0004080C0004080E00040A0000040A0200040A0400040A0600040A0800040A0A00040A0C00040A0E00040C0000040C0200040C0400040C0600040C08000
310
40C0A00040C0C00040C0E00040E0000040E0200040E0400040E0600040E0800040E0A00040E0C00040E0E00080000000800020008000400080006000800080008000A0008000C0008000E00080200000802020008020400080206000802080008020A0008020C0008020E00080400000804020008040400080406000804080
310
008040A0008040C0008040E00080600000806020008060400080606000806080008060A0008060C0008060E00080800000808020008080400080806000808080008080A0008080C0008080E00080A0000080A0200080A0400080A0600080A0800080A0A00080A0C00080A0E00080C0000080C0200080C0400080C0600080C0
310
800080C0A00080C0C00080C0E00080E0000080E0200080E0400080E0600080E0800080E0A00080E0C00080E0E000C0000000C0002000C0004000C0006000C0008000C000A000C000C000C000E000C0200000C0202000C0204000C0206000C0208000C020A000C020C000C020E000C0400000C0402000C0404000C0406000C0
310
408000C040A000C040C000C040E000C0600000C0602000C0604000C0606000C0608000C060A000C060C000C060E000C0800000C0802000C0804000C0806000C0808000C080A000C080C000C080E000C0A00000C0A02000C0A04000C0A06000C0A08000C0A0A000C0A0C000C0A0E000C0C00000C0C02000C0C04000C0C06000
310
C0C08000C0C0A000F0FBFF00A4A0A000808080000000FF0000FF000000FFFF00FF000000FF00FF00FFFF0000FFFFFF00FFFFFFFFFFFFFFFFFFFFFFFFFFFFFFFFFFFFFFFFFFFFFFFFFFFFFFFFFFFFFFFFFFFFFFFFFFFFFFFF000000000000000000000000000000000000000000000000FFFFFFFFFFFFFFFF00FFFFFFFFFFFF
310
FFFFFFFFFFFFFFFFFFFFFFFFFFFFFFFFFFFFFFFFFFFFFFFFFF00FFFFFFFFFFFFFFFFFFFFFFFFFFFFFFFFFFFFFFFFFFFFFFFFFFFFFFFFFFFFFF00FFFFFFFFFFFFFFFFFFFFFFFFFFFFFFFFFFFFFFFFFFFFFFFFFFFFFFFFFFFFFF00FFFFFFFFFFFFFFFFFFFFFFFFFFFFFFFFFFFFFFFFFFFFFFFFFFFFFFFFFFFFFF00FFFFFFFFFF
310
FFFFFFFFFFFFFFFFFFFFFFFFFFFFFFFFFFFFFFFFFFFFFFFFFFFF00FFFFFFFFFFFFFFFFFFFFFFFFFFFFFFFFFFFFFFFFFFFFFFFFFFFFFFFFFFFFFF00FFFFFFFFFFFFFFFFFFFFFFFFFFFFFFFFFFFFFFFFFFFFFFFFFFFFFFFFFFFFFF00FFFFFFFFFFFFFFFFFFFFFFFFFFFFFFFFFFFFFFFFFFFFFFFFFFFFFFFFFFFFFF00FFFFFFFF
310
FFFFFFFFFFFFFFFFFFFFFFFFFFFFFFFFFFFFFFFFFFFFFFFFFFFFFF00FFFFFFFFFFFFFFFFFFFFFFFFFFFFFFFFFFFFFFFFFFFFFFFFFFFFFFFFFFFFFF00FFFFFFFFFFFFFFFFFFFFFFFFFFFFFFFFFFFFFFFFFFFFFFFFFFFFFFFFFFFFFF00FFFFFFFFFFFFFFFFFFFFFFFFFFFFFFFFFFFFFFFFFFFFFFFFFFFFFFFFFFFFFF00FFFFFF
310
FFFFFFFFFFFFFFFFFFFFFFFFFFFFFFFFFFFFFFFFFFFFFFFFFFFFFFFF00FFFFFFFFFFFFFFFFFFFFFFFFFFFFFFFFFFFFFFFFFFFFFFFFFFFFFFFFFFFFFF00FFFFFFFFFFFFFFFFFFFFFFFFFFFFFFFFFFFFFFFFFFFFFFFFFFFFFFFFFFFFFF00FFFFFFFFFFFFFFFFFFFFFFFFFFFFFFFFFFFFFFFFFFFFFFFFFFFFFFFFFFFFFF00FFFF
310
FFFFFFFFFFFFFFFFFFFFFFFFFFFFFFFFFFFFFFFFFFFFFFFFFFFFFFFFFF00FFFFFFFFFFFFFFFFFFFFFFFFFFFFFFFFFFFFFFFFFFFFFFFFFFFFFFFFFFFFFF00FFFFFFFFFFFFFFFFFFFFFFFFFFFFFFFFFFFFFFFFFFFFFFFFFFFFFFFFFFFFFF00FFFFFFFFFFFFFFFFFFFFFFFFFFFFFFFFFFFFFFFFFFFFFFFFFFFFFFFFFFFFFF00FF
310
FFFFFFFFFFFFFFFFFFFFFFFFFFFFFFFFFFFFFFFFFFFFFFFFFFFFFFFFFFFF00FFFFFFFFFFFFFFFFFFFFFFFFFFFFFFFFFFFFFFFFFFFFFFFFFFFFFFFFFFFFFF00FFFFFFFFFFFFFFFFFFFFFFFFFFFFFFFFFFFFFFFFFFFFFFFFFFFFFFFFFFFFFF00FFFFFFFFFFFFFFFFFFFFFFFFFFFFFFFFFFFFFFFFFFFFFFFFFFFFFFFFFFFFFF00
310
FFFFFFFFFFFFFFFFFFFFFFFFFFFFFFFFFFFFFFFFFFFFFFFFFFFFFFFFFFFFFF00FFFFFFFFFFFFFFFFFFFFFFFFFFFFFFFFFFFFFFFFFFFFFFFFFFFFFFFFFFFFFF00FFFFFFFFFFFFFFFFFFFFFFFFFFFFFFFFFFFFFFFFFFFFFFFFFFFFFFFFFFFFFF00FFFFFFFFFFFFFFFFFFFFFFFFFFFFFFFFFFFFFFFFFFFFFFFFFFFFFFFFFFFFFF
310
00FFFFFFFFFFFFFFFFFFFFFFFFFFFF000000000000000000FFFFFFFFFFFFFFFF00FFFFFFFFFFFFFFFFFFFFFFFFFFFF00FFFFFFFFFFFFFFFF
102
{BLKREFS
331
25BD
102
}
  0
BLOCK_RECORD
  5
259F
330
233B
100
AcDbSymbolTableRecord
100
AcDbBlockTableRecord
  2
AI9-BLK4
340
0
310
2800000020000000200000000100080000000000000400000000000000000000000000000000000000000000000080000080000000808000800000008000800080800000C0C0C000C0DCC000F0CAA6000020400000206000002080000020A0000020C0000020E00000400000004020000040400000406000004080000040A0
310
000040C0000040E00000600000006020000060400000606000006080000060A0000060C0000060E00000800000008020000080400000806000008080000080A0000080C0000080E00000A0000000A0200000A0400000A0600000A0800000A0A00000A0C00000A0E00000C0000000C0200000C0400000C0600000C0800000C0
310
A00000C0C00000C0E00000E0000000E0200000E0400000E0600000E0800000E0A00000E0C00000E0E00040000000400020004000400040006000400080004000A0004000C0004000E00040200000402020004020400040206000402080004020A0004020C0004020E000404000004040200040404000404060004040800040
310
40A0004040C0004040E00040600000406020004060400040606000406080004060A0004060C0004060E00040800000408020004080400040806000408080004080A0004080C0004080E00040A0000040A0200040A0400040A0600040A0800040A0A00040A0C00040A0E00040C0000040C0200040C0400040C0600040C08000
310
40C0A00040C0C00040C0E00040E0000040E0200040E0400040E0600040E0800040E0A00040E0C00040E0E00080000000800020008000400080006000800080008000A0008000C0008000E00080200000802020008020400080206000802080008020A0008020C0008020E00080400000804020008040400080406000804080
310
008040A0008040C0008040E00080600000806020008060400080606000806080008060A0008060C0008060E00080800000808020008080400080806000808080008080A0008080C0008080E00080A0000080A0200080A0400080A0600080A0800080A0A00080A0C00080A0E00080C0000080C0200080C0400080C0600080C0
310
800080C0A00080C0C00080C0E00080E0000080E0200080E0400080E0600080E0800080E0A00080E0C00080E0E000C0000000C0002000C0004000C0006000C0008000C000A000C000C000C000E000C0200000C0202000C0204000C0206000C0208000C020A000C020C000C020E000C0400000C0402000C0404000C0406000C0
310
408000C040A000C040C000C040E000C0600000C0602000C0604000C0606000C0608000C060A000C060C000C060E000C0800000C0802000C0804000C0806000C0808000C080A000C080C000C080E000C0A00000C0A02000C0A04000C0A06000C0A08000C0A0A000C0A0C000C0A0E000C0C00000C0C02000C0C04000C0C06000
310
C0C08000C0C0A000F0FBFF00A4A0A000808080000000FF0000FF000000FFFF00FF000000FF00FF00FFFF0000FFFFFF00FFFFFFFFFFFFFFFFFFFFFFFFFFFFFFFFFFFFFFFFFFFFFFFFFFFFFFFFFFFFFFFFFFFFFFFFFFFFFFFFFFFFFFFFFFFF00000000FFFFFFFFFFFFFFFFFFFFFF000000FFFFFFFFFFFFFFFFFFFFFFFFFFFF00
310
FFFF00FFFFFFFFFFFFFFFFFFFFFF00FFFFFFFFFFFFFFFFFFFFFFFFFFFFFFFF00FFFF00FFFFFFFFFFFFFFFFFFFFFF00FFFFFFFFFFFFFFFFFFFFFFFFFFFFFFFF00FFFF00FFFFFFFFFFFFFFFFFFFFFF00FFFFFFFFFFFFFFFFFFFFFFFFFFFFFFFF00FFFF00FFFFFFFFFFFFFFFFFFFFFF00FFFFFFFFFFFFFFFFFFFFFFFFFFFFFFFF
310
00FFFF00FFFFFFFFFFFFFFFFFFFFFF00FFFFFFFFFFFFFFFFFFFFFFFFFFFFFFFF00FFFF00FFFFFFFFFFFFFFFFFFFFFF00FFFFFFFFFFFFFFFFFFFFFFFFFFFFFFFF00FFFF00FFFFFFFFFFFFFFFFFFFFFF00FFFFFFFFFFFFFFFFFFFFFFFFFFFFFFFF00FFFF00FFFFFFFFFFFFFFFFFFFFFF00FFFFFFFFFFFFFFFFFFFFFFFFFFFFFF
310
FF00FFFF00FFFFFFFFFFFFFFFFFFFFFF00FFFFFFFFFFFFFFFFFFFFFFFFFFFFFFFF00FFFF00FFFFFFFFFFFFFFFFFFFFFF00FFFFFFFFFFFFFFFFFFFFFFFFFFFFFFFF00FFFF00FFFFFFFFFFFFFFFFFFFFFF00FFFFFFFFFFFFFFFFFFFFFFFFFFFFFFFF00FFFF00FFFFFFFFFFFFFFFFFFFFFF00FFFFFFFFFFFFFFFFFFFFFFFFFFFF
310
FFFF00FFFF00FFFFFFFFFFFFFFFFFFFFFF00FFFFFFFFFFFFFFFFFFFFFFFFFFFFFFFF00FFFF00FFFFFFFFFFFFFFFFFFFFFF00FFFFFFFFFFFFFFFFFFFFFFFFFFFFFFFF00FFFF00FFFFFFFFFFFFFFFFFFFFFF00FFFFFFFFFFFFFFFFFFFFFFFFFFFFFFFF00FFFF00FFFFFFFFFFFFFFFFFFFF00FFFFFFFFFFFFFFFFFFFFFFFFFFFF
310
FFFFFF00FFFF00FFFFFFFFFFFFFFFFFFFF00FFFFFFFFFFFFFFFFFFFFFFFFFFFFFFFFFF00FFFF00FFFFFFFFFFFFFFFFFFFF00FFFFFFFFFFFFFFFFFFFFFFFFFFFFFFFFFF00FFFF00FFFFFFFFFFFFFFFFFFFF00FFFFFFFFFFFFFFFFFFFFFFFFFFFFFFFFFF00FFFF00FFFFFFFFFFFFFFFFFFFF00FFFFFFFFFFFFFFFFFFFFFFFFFF
310
FFFFFFFF00FFFF00FFFFFFFFFFFFFFFFFF0000FFFF00FFFFFFFFFFFFFFFFFFFFFFFFFFFF00FFFF00FFFFFFFFFFFFFFFF0000FFFFFF00FFFFFFFFFFFFFFFFFFFFFFFFFFFF00FFFF00000000000000000000FFFFFFFF00FFFFFFFFFFFFFFFFFFFFFFFFFFFF00FFFFFFFFFFFFFFFFFFFFFFFFFFFFFF00FFFFFFFFFFFFFFFFFFFF
310
FFFFFFFFFF00FFFFFFFFFFFFFFFFFFFFFFFFFFFF00FFFFFFFFFFFFFFFFFFFFFFFFFFFFFFFF00FFFFFFFFFFFFFFFFFFFFFFFFFFFF00FFFFFFFFFFFFFFFFFFFFFFFFFFFFFFFF00FFFFFFFFFFFFFFFFFFFFFFFFFFFFFF00FFFFFFFFFFFFFFFFFFFFFFFFFFFFFF00FFFFFFFFFFFFFFFFFFFFFFFFFFFFFF00FFFFFFFFFFFFFFFFFF
310
FFFFFFFFFFFF00FFFF00000000000000000000FFFFFFFF00FFFFFFFFFFFFFFFFFFFFFFFFFFFF00FFFF00FFFFFFFFFFFFFFFFFF0000FFFF00
102
{BLKREFS
331
25BE
102
}
  0
BLOCK_RECORD
  5
25A4
330
233B
100
AcDbSymbolTableRecord
100
AcDbBlockTableRecord
  2
AI9-BLK3
340
0
310
2800000020000000200000000100080000000000000400000000000000000000000000000000000000000000000080000080000000808000800000008000800080800000C0C0C000C0DCC000F0CAA6000020400000206000002080000020A0000020C0000020E00000400000004020000040400000406000004080000040A0
310
000040C0000040E00000600000006020000060400000606000006080000060A0000060C0000060E00000800000008020000080400000806000008080000080A0000080C0000080E00000A0000000A0200000A0400000A0600000A0800000A0A00000A0C00000A0E00000C0000000C0200000C0400000C0600000C0800000C0
310
A00000C0C00000C0E00000E0000000E0200000E0400000E0600000E0800000E0A00000E0C00000E0E00040000000400020004000400040006000400080004000A0004000C0004000E00040200000402020004020400040206000402080004020A0004020C0004020E000404000004040200040404000404060004040800040
310
40A0004040C0004040E00040600000406020004060400040606000406080004060A0004060C0004060E00040800000408020004080400040806000408080004080A0004080C0004080E00040A0000040A0200040A0400040A0600040A0800040A0A00040A0C00040A0E00040C0000040C0200040C0400040C0600040C08000
310
40C0A00040C0C00040C0E00040E0000040E0200040E0400040E0600040E0800040E0A00040E0C00040E0E00080000000800020008000400080006000800080008000A0008000C0008000E00080200000802020008020400080206000802080008020A0008020C0008020E00080400000804020008040400080406000804080
310
008040A0008040C0008040E00080600000806020008060400080606000806080008060A0008060C0008060E00080800000808020008080400080806000808080008080A0008080C0008080E00080A0000080A0200080A0400080A0600080A0800080A0A00080A0C00080A0E00080C0000080C0200080C0400080C0600080C0
310
800080C0A00080C0C00080C0E00080E0000080E0200080E0400080E0600080E0800080E0A00080E0C00080E0E000C0000000C0002000C0004000C0006000C0008000C000A000C000C000C000E000C0200000C0202000C0204000C0206000C0208000C020A000C020C000C020E000C0400000C0402000C0404000C0406000C0
310
408000C040A000C040C000C040E000C0600000C0602000C0604000C0606000C0608000C060A000C060C000C060E000C0800000C0802000C0804000C0806000C0808000C080A000C080C000C080E000C0A00000C0A02000C0A04000C0A06000C0A08000C0A0A000C0A0C000C0A0E000C0C00000C0C02000C0C04000C0C06000
310
C0C08000C0C0A000F0FBFF00A4A0A000808080000000FF0000FF000000FFFF00FF000000FF00FF00FFFF0000FFFFFF00FFFFFFFFFFFFFFFFFFFFFFFFFFFFFFFFFFFFFFFFFFFFFFFFFFFFFFFFFFFFFFFFFFFFFFFFFFFFFFFFFFFFFFFFFFFFFF0000FFFFFFFFFFFFFFFFFFFFFFFFFFFFFFFFFFFFFFFFFFFFFFFFFFFFFFFFFFFF
310
0000FFFFFFFFFFFFFFFFFFFFFFFFFFFFFFFFFFFFFFFFFFFFFFFFFFFFFFFFFFFF0000FFFFFFFFFFFFFFFFFFFFFFFFFFFFFFFFFFFFFFFFFFFFFFFFFFFFFFFFFFFF0000FFFFFFFFFFFFFFFFFFFFFFFFFFFFFFFFFFFFFFFFFFFFFFFFFFFFFFFFFFFF0000FFFFFFFFFFFFFFFFFFFFFFFFFFFFFFFFFFFFFFFFFFFFFFFFFFFFFFFFFF
310
FF0000FFFFFFFFFFFFFFFFFFFFFFFFFFFFFFFFFFFFFFFFFFFFFFFFFFFFFFFFFFFF0000FFFFFFFFFFFFFFFFFFFFFFFFFFFFFFFFFFFFFFFFFFFFFFFFFFFFFFFFFFFF0000FFFFFFFFFFFFFFFFFFFFFFFFFFFFFFFFFFFFFFFFFFFFFFFFFFFFFFFFFFFF0000FFFFFFFFFFFFFFFFFFFFFFFFFFFFFFFFFFFFFFFFFFFFFFFFFFFFFFFF
310
FFFF0000FFFFFFFFFFFFFFFFFFFFFFFFFFFFFFFFFFFFFFFFFFFFFFFFFFFFFFFFFFFF0000FFFFFFFFFFFFFFFFFFFFFFFFFFFFFFFFFFFFFFFFFFFFFFFFFFFFFFFFFFFF0000FFFFFFFFFFFFFFFFFFFFFFFFFFFFFFFFFFFFFFFFFFFFFFFFFFFFFFFFFFFF0000FFFFFFFFFFFFFFFFFFFFFFFFFFFFFFFFFFFFFFFFFFFFFFFFFFFFFF
310
FFFFFF0000FFFFFFFFFFFFFFFFFFFFFFFFFFFFFFFFFFFFFFFFFFFFFFFFFFFFFFFFFFFF0000FFFFFFFFFFFFFFFFFFFFFFFFFFFFFFFFFFFFFFFFFFFFFFFFFFFFFFFFFFFF0000FFFFFFFFFFFFFFFFFFFFFFFFFFFFFFFFFFFFFFFFFFFFFFFFFFFFFFFFFFFF0000FFFFFFFFFFFFFFFFFFFFFFFFFFFFFFFFFFFFFFFFFFFFFFFFFFFF
310
FFFFFFFF0000FFFFFFFFFFFFFFFFFFFFFFFFFFFFFFFFFFFFFFFFFFFFFFFFFFFFFFFFFFFF0000FFFFFFFFFFFFFFFFFFFFFFFFFFFFFFFFFFFFFFFFFFFFFFFFFFFFFFFFFFFF0000FFFFFFFFFFFFFFFFFFFFFFFFFFFFFFFFFFFFFFFFFFFFFFFFFFFFFFFFFFFF0000FFFFFFFFFFFFFFFFFFFFFFFFFFFFFFFFFFFFFFFFFFFFFFFFFF
310
FFFFFFFFFF0000FFFFFFFFFFFFFFFFFFFFFFFFFFFFFFFFFFFFFFFFFFFFFFFFFFFFFFFFFFFF0000FFFFFFFFFFFFFFFFFFFFFFFFFFFFFFFFFFFFFFFFFFFFFFFFFFFFFFFFFFFF0000FFFFFFFFFFFFFFFFFFFFFFFFFFFFFFFFFFFFFFFFFFFFFFFFFFFFFFFFFFFF0000FFFFFFFFFFFFFFFFFFFFFFFFFFFFFFFFFFFFFFFFFFFFFFFF
310
FFFFFFFFFFFF0000FFFFFFFFFFFFFFFFFFFFFFFFFFFFFFFFFFFFFFFFFFFFFFFFFFFFFFFFFFFF0000FFFFFFFFFFFFFFFFFFFFFFFFFFFFFFFFFFFFFFFFFFFFFFFFFFFFFFFFFFFF0000FFFFFFFFFFFFFFFFFFFFFFFFFFFFFFFFFFFFFFFFFFFFFFFFFFFFFFFFFFFF0000FFFFFFFFFFFFFFFFFFFFFFFFFFFFFFFFFFFFFFFFFFFFFF
310
FFFFFFFFFFFFFF0000FFFFFFFFFFFFFFFFFFFFFFFFFFFFFFFFFFFFFFFFFFFFFFFFFFFFFFFFFFFFFFFFFFFFFFFFFFFFFFFFFFFFFFFFFFFFFF
102
{BLKREFS
331
25BF
102
}
  0
BLOCK_RECORD
  5
25A9
330
233B
100
AcDbSymbolTableRecord
100
AcDbBlockTableRecord
  2
AI9-BLK2
340
0
310
2800000020000000200000000100080000000000000400000000000000000000000000000000000000000000000080000080000000808000800000008000800080800000C0C0C000C0DCC000F0CAA6000020400000206000002080000020A0000020C0000020E00000400000004020000040400000406000004080000040A0
310
000040C0000040E00000600000006020000060400000606000006080000060A0000060C0000060E00000800000008020000080400000806000008080000080A0000080C0000080E00000A0000000A0200000A0400000A0600000A0800000A0A00000A0C00000A0E00000C0000000C0200000C0400000C0600000C0800000C0
310
A00000C0C00000C0E00000E0000000E0200000E0400000E0600000E0800000E0A00000E0C00000E0E00040000000400020004000400040006000400080004000A0004000C0004000E00040200000402020004020400040206000402080004020A0004020C0004020E000404000004040200040404000404060004040800040
310
40A0004040C0004040E00040600000406020004060400040606000406080004060A0004060C0004060E00040800000408020004080400040806000408080004080A0004080C0004080E00040A0000040A0200040A0400040A0600040A0800040A0A00040A0C00040A0E00040C0000040C0200040C0400040C0600040C08000
310
40C0A00040C0C00040C0E00040E0000040E0200040E0400040E0600040E0800040E0A00040E0C00040E0E00080000000800020008000400080006000800080008000A0008000C0008000E00080200000802020008020400080206000802080008020A0008020C0008020E00080400000804020008040400080406000804080
310
008040A0008040C0008040E00080600000806020008060400080606000806080008060A0008060C0008060E00080800000808020008080400080806000808080008080A0008080C0008080E00080A0000080A0200080A0400080A0600080A0800080A0A00080A0C00080A0E00080C0000080C0200080C0400080C0600080C0
310
800080C0A00080C0C00080C0E00080E0000080E0200080E0400080E0600080E0800080E0A00080E0C00080E0E000C0000000C0002000C0004000C0006000C0008000C000A000C000C000C000E000C0200000C0202000C0204000C0206000C0208000C020A000C020C000C020E000C0400000C0402000C0404000C0406000C0
310
408000C040A000C040C000C040E000C0600000C0602000C0604000C0606000C0608000C060A000C060C000C060E000C0800000C0802000C0804000C0806000C0808000C080A000C080C000C080E000C0A00000C0A02000C0A04000C0A06000C0A08000C0A0A000C0A0C000C0A0E000C0C00000C0C02000C0C04000C0C06000
310
C0C08000C0C0A000F0FBFF00A4A0A000808080000000FF0000FF000000FFFF00FF000000FF00FF00FFFF0000FFFFFF00FFFFFFFFFFFFFFFFFFFFFFFFFFFFFFFFFFFFFFFFFFFFFFFFFFFFFFFFFFFFFFFFFFFFFFFFFFFFFFFFFFFFFFFFFFFFFF0000FFFFFFFFFFFFFFFFFFFFFFFFFFFFFFFFFFFFFFFFFFFFFFFFFFFFFFFFFFFF
310
0000FFFFFFFFFFFFFFFFFFFFFFFFFFFFFFFFFFFFFFFFFFFFFFFFFFFFFFFFFFFF0000FFFFFFFFFFFFFFFFFFFFFFFFFFFFFFFFFFFFFFFFFFFFFFFFFFFFFFFFFF00FFFF00FFFFFFFFFFFFFFFFFFFFFFFFFFFFFFFFFFFFFFFFFFFFFFFFFFFFFFFF00FFFF00FFFFFFFFFFFFFFFFFFFFFFFFFFFFFFFFFFFFFFFFFFFFFFFFFFFFFFFF
310
00FF0000FFFFFFFFFFFFFFFFFFFFFFFFFFFFFFFFFFFFFFFFFFFFFFFFFFFFFFFF00FF0000FFFFFFFFFFFFFFFFFFFFFFFFFFFFFFFFFFFFFFFFFFFFFFFFFFFFFFFF00FF0000FFFFFFFFFFFFFFFFFFFFFFFFFFFFFFFFFFFFFFFFFFFFFFFFFFFFFFFF00000000FFFFFFFFFFFFFFFFFFFFFFFFFFFFFFFFFFFFFFFFFFFFFFFFFFFFFF
310
00FF00FF0000FFFFFFFFFFFFFFFFFFFFFFFFFFFFFFFFFFFFFFFFFFFFFFFFFFFF00FF00FF0000FFFFFFFFFFFFFFFFFFFFFFFFFFFFFFFFFFFFFFFFFFFFFFFFFFFF00FF00FF0000FFFFFFFFFFFFFFFFFFFFFFFFFFFFFFFFFFFFFFFFFFFFFFFFFFFF00FF00FF0000FFFFFFFFFFFFFFFFFFFFFFFFFFFFFFFFFFFFFFFFFFFFFFFFFF
310
FF00FF00FF0000FFFFFFFFFFFFFFFFFFFFFFFFFFFFFFFFFFFFFFFFFFFFFFFFFFFF0000FFFF0000FFFFFFFFFFFFFFFFFFFFFFFFFFFFFFFFFFFFFFFFFFFFFFFFFF00FF00FFFF00FF00FFFFFFFFFFFFFFFFFFFFFFFFFFFFFFFFFFFFFFFFFFFFFFFF00FF00FFFF00FF00FFFFFFFFFFFFFFFFFFFFFFFFFFFFFFFFFFFFFFFFFFFFFF
310
FF00FF00FFFFFF0000FFFFFFFFFFFFFFFFFFFFFFFFFFFFFFFFFFFFFFFFFFFFFFFF00FF00FFFFFF0000FFFFFFFFFFFFFFFFFFFFFFFFFFFFFFFFFFFFFFFFFFFFFFFF00FF00FFFFFF0000FFFFFFFFFFFFFFFFFFFFFFFFFFFFFFFFFFFFFFFFFFFFFFFF0000FFFFFFFF0000FFFFFFFFFFFFFFFFFFFFFFFFFFFFFFFFFFFFFFFFFFFF
310
FF00FF00FFFFFFFF00FF00FFFFFFFFFFFFFFFFFFFFFFFFFFFFFFFFFFFFFFFFFFFF00FF00FFFFFFFF00FF00FFFFFFFFFFFFFFFFFFFFFFFFFFFFFFFFFFFFFFFFFFFF00FF00FFFFFFFF00FF00FFFFFFFFFFFFFFFFFFFFFFFFFFFFFFFFFFFFFFFFFFFF00FF00FFFFFFFF00FF00FFFFFFFFFFFFFFFFFFFFFFFFFFFFFFFFFFFFFFFF
310
FFFF00FF00FFFFFFFFFF0000FFFFFFFFFFFFFFFFFFFFFFFFFFFFFFFFFFFFFFFFFFFF0000FFFFFFFFFFFF0000FFFFFFFFFFFFFFFFFFFFFFFFFFFFFFFFFFFFFFFFFF00FF00FFFFFFFFFFFF00FF00FFFFFFFFFFFFFFFFFFFFFFFFFFFFFFFFFFFFFFFF00FF00FFFFFFFFFFFF00FF00FFFFFFFFFFFFFFFFFFFFFFFFFFFFFFFFFFFF
310
FFFF000000FFFFFFFFFFFF000000FFFFFFFFFFFFFFFFFFFFFFFFFFFFFFFFFFFFFFFFFFFFFFFFFFFFFFFFFFFFFFFFFFFFFFFFFFFFFFFFFFFF
102
{BLKREFS
331
25C0
102
}
  0
BLOCK_RECORD
  5
25AE
330
233B
100
AcDbSymbolTableRecord
100
AcDbBlockTableRecord
  2
AI9-BLK1
340
0
310
2800000020000000200000000100080000000000000400000000000000000000000000000000000000000000000080000080000000808000800000008000800080800000C0C0C000C0DCC000F0CAA6000020400000206000002080000020A0000020C0000020E00000400000004020000040400000406000004080000040A0
310
000040C0000040E00000600000006020000060400000606000006080000060A0000060C0000060E00000800000008020000080400000806000008080000080A0000080C0000080E00000A0000000A0200000A0400000A0600000A0800000A0A00000A0C00000A0E00000C0000000C0200000C0400000C0600000C0800000C0
310
A00000C0C00000C0E00000E0000000E0200000E0400000E0600000E0800000E0A00000E0C00000E0E00040000000400020004000400040006000400080004000A0004000C0004000E00040200000402020004020400040206000402080004020A0004020C0004020E000404000004040200040404000404060004040800040
310
40A0004040C0004040E00040600000406020004060400040606000406080004060A0004060C0004060E00040800000408020004080400040806000408080004080A0004080C0004080E00040A0000040A0200040A0400040A0600040A0800040A0A00040A0C00040A0E00040C0000040C0200040C0400040C0600040C08000
310
40C0A00040C0C00040C0E00040E0000040E0200040E0400040E0600040E0800040E0A00040E0C00040E0E00080000000800020008000400080006000800080008000A0008000C0008000E00080200000802020008020400080206000802080008020A0008020C0008020E00080400000804020008040400080406000804080
310
008040A0008040C0008040E00080600000806020008060400080606000806080008060A0008060C0008060E00080800000808020008080400080806000808080008080A0008080C0008080E00080A0000080A0200080A0400080A0600080A0800080A0A00080A0C00080A0E00080C0000080C0200080C0400080C0600080C0
310
800080C0A00080C0C00080C0E00080E0000080E0200080E0400080E0600080E0800080E0A00080E0C00080E0E000C0000000C0002000C0004000C0006000C0008000C000A000C000C000C000E000C0200000C0202000C0204000C0206000C0208000C020A000C020C000C020E000C0400000C0402000C0404000C0406000C0
310
408000C040A000C040C000C040E000C0600000C0602000C0604000C0606000C0608000C060A000C060C000C060E000C0800000C0802000C0804000C0806000C0808000C080A000C080C000C080E000C0A00000C0A02000C0A04000C0A06000C0A08000C0A0A000C0A0C000C0A0E000C0C00000C0C02000C0C04000C0C06000
310
C0C08000C0C0A000F0FBFF00A4A0A000808080000000FF0000FF000000FFFF00FF000000FF00FF00FFFF0000FFFFFF00FFFFFFFFFFFFFFFFFFFFFFFFFFFFFFFFFFFFFFFFFFFFFFFFFFFFFFFFFFFFFFFFFFFFFFFFFFFFFFFFFFFFFF00000000000000000000FFFFFFFFFFFFFFFFFFFFFFFFFFFFFFFFFFFFFFFFFFFF00FFFFFF
310
FFFFFFFFFF00FFFFFFFFFFFFFFFFFFFFFFFFFFFFFFFFFFFFFFFFFFFF00FFFFFFFFFFFFFFFF00FFFFFFFFFFFFFFFFFFFFFFFFFFFFFFFFFFFFFFFFFFFF00FFFFFFFFFFFFFFFF00FFFFFFFFFFFFFFFFFFFFFFFFFFFFFFFFFFFFFFFFFFFF00FF0000000000000000FFFFFFFFFFFFFFFFFFFFFFFFFFFFFFFFFFFFFFFFFFFF00FF00
310
FFFFFFFFFFFFFFFFFFFFFFFFFFFFFFFFFFFFFFFFFFFFFFFFFFFFFFFFFF00FF00FFFFFFFFFFFFFFFFFFFFFFFFFFFFFFFFFFFFFFFFFFFFFFFFFFFFFFFFFF00FF00FFFFFFFFFFFFFFFFFFFFFFFFFFFFFFFFFFFFFFFFFFFFFFFFFFFFFFFFFF00FF00FFFFFFFFFFFFFFFFFFFFFFFFFFFFFFFFFFFFFFFFFFFFFFFFFFFFFFFFFF00FF
310
00FFFFFFFFFFFFFFFFFFFFFFFFFFFFFFFFFFFFFFFFFFFFFFFFFFFFFFFFFF00FF00FFFFFFFFFFFFFFFFFFFFFFFFFFFFFFFFFFFFFFFFFFFFFFFFFFFFFFFFFF00FF00FFFFFFFFFFFFFFFFFFFFFFFFFFFFFFFFFFFFFFFFFFFFFFFFFFFFFFFFFF00FF00FFFFFFFFFFFFFFFFFFFFFFFFFFFFFFFFFFFFFFFFFFFFFFFFFFFFFFFFFF00
310
FF00000000000000FFFFFFFFFFFFFFFFFFFFFFFFFFFFFFFFFFFFFFFFFFFFFF00FFFFFFFFFFFFFF00FFFFFFFFFFFFFFFFFFFFFFFFFFFFFFFFFFFFFFFFFFFFFF00FFFFFFFFFFFFFF00FFFFFFFFFFFFFFFFFFFFFFFFFFFFFFFFFFFFFFFFFFFFFF00FFFFFFFFFFFFFF00FFFFFFFFFFFFFFFFFFFFFFFFFFFFFFFFFFFFFFFFFFFFFF
310
00FF00000000000000FFFFFFFFFFFFFFFFFFFFFFFFFFFFFFFFFFFFFFFFFFFFFF00FF00FFFFFFFFFFFFFFFFFFFFFFFFFFFFFFFFFFFFFFFFFFFFFFFFFFFFFFFFFF00FF00FFFFFFFFFFFFFFFFFFFFFFFFFFFFFFFFFFFFFFFFFFFFFFFFFFFFFFFFFF00FF00FFFFFFFFFFFFFFFFFFFFFFFFFFFFFFFFFFFFFFFFFFFFFFFFFFFFFFFF
310
FF00FF00FFFFFFFFFFFFFFFFFFFFFFFFFFFFFFFFFFFFFFFFFFFFFFFFFFFFFFFFFF00FF00FFFFFFFFFFFFFFFFFFFFFFFFFFFFFFFFFFFFFFFFFFFFFFFFFFFFFFFFFF00FF00FFFFFFFFFFFFFFFFFFFFFFFFFFFFFFFFFFFFFFFFFFFFFFFFFFFFFFFFFF00FF00FFFFFFFFFFFFFFFFFFFFFFFFFFFFFFFFFFFFFFFFFFFFFFFFFFFFFF
310
FFFF00FF0000000000000000FFFFFFFFFFFFFFFFFFFFFFFFFFFFFFFFFFFFFFFFFFFF00FFFFFFFFFFFFFFFF00FFFFFFFFFFFFFFFFFFFFFFFFFFFFFFFFFFFFFFFFFFFF00FFFFFFFFFFFFFFFF00FFFFFFFFFFFFFFFFFFFFFFFFFFFFFFFFFFFFFFFFFFFF00FFFFFFFFFFFFFFFF00FFFFFFFFFFFFFFFFFFFFFFFFFFFFFFFFFFFFFF
310
FFFFFF00000000000000000000FFFFFFFFFFFFFFFFFFFFFFFFFFFFFFFFFFFFFFFFFFFFFFFFFFFFFFFFFFFFFFFFFFFFFFFFFFFFFFFFFFFFFF
102
{BLKREFS
331
25C1
102
}
  0
BLOCK_RECORD
  5
25B3
330
233B
100
AcDbSymbolTableRecord
100
AcDbBlockTableRecord
  2
HD_LLC_logo_OT5
340
0
310
2800000020000000200000000100080000000000000400000000000000000000000000000000000000000000000080000080000000808000800000008000800080800000C0C0C000C0DCC000F0CAA6000020400000206000002080000020A0000020C0000020E00000400000004020000040400000406000004080000040A0
310
000040C0000040E00000600000006020000060400000606000006080000060A0000060C0000060E00000800000008020000080400000806000008080000080A0000080C0000080E00000A0000000A0200000A0400000A0600000A0800000A0A00000A0C00000A0E00000C0000000C0200000C0400000C0600000C0800000C0
310
A00000C0C00000C0E00000E0000000E0200000E0400000E0600000E0800000E0A00000E0C00000E0E00040000000400020004000400040006000400080004000A0004000C0004000E00040200000402020004020400040206000402080004020A0004020C0004020E000404000004040200040404000404060004040800040
310
40A0004040C0004040E00040600000406020004060400040606000406080004060A0004060C0004060E00040800000408020004080400040806000408080004080A0004080C0004080E00040A0000040A0200040A0400040A0600040A0800040A0A00040A0C00040A0E00040C0000040C0200040C0400040C0600040C08000
310
40C0A00040C0C00040C0E00040E0000040E0200040E0400040E0600040E0800040E0A00040E0C00040E0E00080000000800020008000400080006000800080008000A0008000C0008000E00080200000802020008020400080206000802080008020A0008020C0008020E00080400000804020008040400080406000804080
310
008040A0008040C0008040E00080600000806020008060400080606000806080008060A0008060C0008060E00080800000808020008080400080806000808080008080A0008080C0008080E00080A0000080A0200080A0400080A0600080A0800080A0A00080A0C00080A0E00080C0000080C0200080C0400080C0600080C0
310
800080C0A00080C0C00080C0E00080E0000080E0200080E0400080E0600080E0800080E0A00080E0C00080E0E000C0000000C0002000C0004000C0006000C0008000C000A000C000C000C000E000C0200000C0202000C0204000C0206000C0208000C020A000C020C000C020E000C0400000C0402000C0404000C0406000C0
310
408000C040A000C040C000C040E000C0600000C0602000C0604000C0606000C0608000C060A000C060C000C060E000C0800000C0802000C0804000C0806000C0808000C080A000C080C000C080E000C0A00000C0A02000C0A04000C0A06000C0A08000C0A0A000C0A0C000C0A0E000C0C00000C0C02000C0C04000C0C06000
310
C0C08000C0C0A000F0FBFF00A4A0A000808080000000FF0000FF000000FFFF00FF000000FF00FF00FFFF0000FFFFFF00FFFFFFFFFFFFFFFFFFFFFFFFFFFFFFFFFFFFFFFFFFFFFFFFFFFFFFFFFFFFFFFFFFFFFFFFFFFFFFFFFFFFFFFFFFFFFFFFFFFFFFFFFFFFFFFFFFFFFFFFFFFFFFFFFFFFFFFFFFFFFFFFFFFFFFFFFFFFFF
310
FFFFFFFFFFFFFFFFFFFFFFFFFFFFFFFFFFFFFFFFFFFFFFFFFFFFFFFFFFFFFFFFFFFFFFFFFFFFFFFFFFFFFFFFFFFFFFFFFFFFFFFFFFFFFFFFFFFFFFFFFFFFFFFFFFFFFFFFFFFFFFFFFFFFFFFFFFFFFFFFFFFFFFFFFFFFFFFFFFFFFFFFFFFFFFFFFFFFFFFFFFFFFFFFFFFFFFFFFFFFFFFFFFFFFFFFFFFFFFFFFFFFFFFFFFFFFF
310
FFFFFFFFFFFFFFFFFFFFFFFFFFFFFFFFFFFFFFFFFFFFFFFFFFFFFFFFFFFFFFFFFFFFFFFFFFFFFFFFFFFFFFFFFFFFFFFFFFFFFFFFFFFFFFFFFFFFFFFFFFFFFFFFFFFFFFFFFFFFFFFFFFFFFFFFFFFFFFFFFFFFFFFFFFFFFFFFFFFFFFFFFFFFFFFFFFFFFFFFFFFFFFFFFFFFFFFFFFFFFFFFFFFFFFFFFFFFFFFFFFFFFFFFFFFFFF
310
FFFFFFFFFFFFFFFFFFFFFFFFFFFFFFFFFFFFFFFFFFFFFFFFFFFFFFFFFFFFFFFFFFFFFFFFFFFFFFFFFFFFFFFFFFFFFFFFFFFFFFFF0000000000000000000000000000000000000000000000000000000000FFFFFF0000000000000000000000000000000000FFFFFFFFFFFFFFFFFFFF0000FFFFFF0000000000000000000000
310
00000000000000FFFFFFFFFFFFFFFFFFFF0000FFFF000000000000000000000000000000000000FFFFFF00000000FFFFFF0000FFFF00FFFFFFFFFFFF00FFFFFF00FFFFFFFFFF00FFFFFF0000000000FFFF0000FFFF00FFFFFFFFFFFF00FFFFFF00FFFFFFFFFF00FFFFFF00FFFF0000FFFF0000FFFF00FFFFFFFFFFFF00FFFF
310
00FFFFFFFFFFFF00FFFFFF00FFFF0000FFFF0000FFFF0000000000FFFF00000000FFFFFF00000000FFFFFF00000000FFFFFF0000FFFFFFFFFFFF00FFFFFFFFFFFFFFFFFF00FFFFFFFFFFFFFFFFFFFFFFFFFF0000FFFFFFFFFFFF00FFFFFFFFFFFFFFFFFF00FFFFFFFFFFFFFFFFFFFFFFFFFF0000FFFFFFFFFFFF00FFFFFFFF
310
FFFFFFFFFF00FFFFFFFFFFFFFFFFFFFFFFFF0000FFFFFF0000000000FFFF00000000FFFFFF0000000000000000000000000000FFFFFFFF00FFFFFFFFFFFF00FFFF00FFFFFFFFFFFF00FFFFFFFFFFFFFFFFFFFFFFFFFFFF00FFFFFFFFFFFF00FFFFFF00FFFFFFFFFF00FFFFFFFFFFFFFFFFFFFFFFFFFFFF0000000000000000
310
FFFFFF00000000000000FFFFFFFFFFFFFFFFFFFFFFFFFFFFFFFFFFFFFFFFFFFFFFFFFFFFFFFFFFFFFFFFFFFFFFFFFFFFFFFFFFFFFFFFFFFFFFFFFFFFFFFFFFFFFFFFFFFFFFFFFFFFFFFFFFFFFFFFFFFFFFFFFFFFFFFFFFFFFFFFFFFFFFFFFFFFFFFFFFFFFFFFFFFFFFFFFFFFFFFFFFFFFFFFFFFFFFFFFFFFFFFFFFFFFFFFFF
310
FFFFFFFFFFFFFFFFFFFFFFFFFFFFFFFFFFFFFFFFFFFFFFFFFFFFFFFFFFFFFFFFFFFFFFFFFFFFFFFFFFFFFFFFFFFFFFFFFFFFFFFFFFFFFFFF
102
{BLKREFS
331
25D9
102
}
  0
BLOCK_RECORD
  5
25D8
330
233B
100
AcDbSymbolTableRecord
100
AcDbBlockTableRecord
  2
HD logo-new
340
0
310
2800000020000000200000000100080000000000000400000000000000000000000000000000000000000000000080000080000000808000800000008000800080800000C0C0C000C0DCC000F0CAA6000020400000206000002080000020A0000020C0000020E00000400000004020000040400000406000004080000040A0
310
000040C0000040E00000600000006020000060400000606000006080000060A0000060C0000060E00000800000008020000080400000806000008080000080A0000080C0000080E00000A0000000A0200000A0400000A0600000A0800000A0A00000A0C00000A0E00000C0000000C0200000C0400000C0600000C0800000C0
310
A00000C0C00000C0E00000E0000000E0200000E0400000E0600000E0800000E0A00000E0C00000E0E00040000000400020004000400040006000400080004000A0004000C0004000E00040200000402020004020400040206000402080004020A0004020C0004020E000404000004040200040404000404060004040800040
310
40A0004040C0004040E00040600000406020004060400040606000406080004060A0004060C0004060E00040800000408020004080400040806000408080004080A0004080C0004080E00040A0000040A0200040A0400040A0600040A0800040A0A00040A0C00040A0E00040C0000040C0200040C0400040C0600040C08000
310
40C0A00040C0C00040C0E00040E0000040E0200040E0400040E0600040E0800040E0A00040E0C00040E0E00080000000800020008000400080006000800080008000A0008000C0008000E00080200000802020008020400080206000802080008020A0008020C0008020E00080400000804020008040400080406000804080
310
008040A0008040C0008040E00080600000806020008060400080606000806080008060A0008060C0008060E00080800000808020008080400080806000808080008080A0008080C0008080E00080A0000080A0200080A0400080A0600080A0800080A0A00080A0C00080A0E00080C0000080C0200080C0400080C0600080C0
310
800080C0A00080C0C00080C0E00080E0000080E0200080E0400080E0600080E0800080E0A00080E0C00080E0E000C0000000C0002000C0004000C0006000C0008000C000A000C000C000C000E000C0200000C0202000C0204000C0206000C0208000C020A000C020C000C020E000C0400000C0402000C0404000C0406000C0
310
408000C040A000C040C000C040E000C0600000C0602000C0604000C0606000C0608000C060A000C060C000C060E000C0800000C0802000C0804000C0806000C0808000C080A000C080C000C080E000C0A00000C0A02000C0A04000C0A06000C0A08000C0A0A000C0A0C000C0A0E000C0C00000C0C02000C0C04000C0C06000
310
C0C08000C0C0A000F0FBFF00A4A0A000808080000000FF0000FF000000FFFF00FF000000FF00FF00FFFF0000FFFFFF00FFFFFFFFFFFFFFFFFFFFFFFFFFFFFFFFFFFFFFFFFFFFFFFFFFFFFFFFFFFFFFFFFFFFFFFFFFFFFFFFFFFFFFFFFFFFFFFFFFFFFFFFFFFFFFFFFFFFFFFFFFFFFFFFFFFFFFFFFFFFFFFFFFFFFFFFFFFFFF
310
FFFFFFFFFFFFFFFFFFFFFFFFFFFFFFFFFFFFFFFFFFFFFFFFFFFFFFFFFFFFFFFFFFFFFFFFFFFFFFFFFFFFFFFFFFFFFFFFFFFFFFFFFFFFFFFFFFFFFFFFFFFFFFFFFFFFFFFFFFFFFFFFFFFFFFFFFFFFFFFFFFFFFFFFFFFFFFFFFFFFFFFFFFFFFFFFFFFFFFFFFFFFFFFFFFFFFFFFFFFFFFFFFFFFFFFFFFFFFFFFFFFFFFFFFFFFFF
310
FFFFFFFFFFFFFFFFFFFFFFFFFFFFFFFFFFFFFFFFFFFFFFFFFFFFFFFFFFFFFFFFFFFFFFFFFFFFFFFFFFFFFFFFFFFFFFFFFFFFFFFFFFFFFFFFFFFFFFFFFFFFFFFFFFFFFFFFFFFFFFFFFFFFFFFFFFFFFFFFFFFFFFFFFFFFFFFFFFFFFFFFFFFFFFFFFFFFFFFFFFFFFFFFFFFFFFFFFFFFFFFFFFFFFFFFFFFFFFFFFFFFFFFFFFFFFF
310
FFFFFFFFFFFFFFFFFFFFFFFFFFFFFFFFFFFFFFFFFFFFFFFFFFFFFFFFFFFFFFFFFFFFFFFFFFFFFFFFFFFFFFFFFFFFFFFFFFFFFFFF0000000000000000000000000000000000000000000000000000000000FFFFFF0000000000000000000000000000000000FFFFFFFFFFFFFFFFFFFF0000FFFFFF0000000000000000000000
310
00000000000000FFFFFFFFFFFFFFFFFFFF0000FFFF000000000000000000000000000000000000FFFFFF00000000FFFFFF0000FFFF00FFFFFFFFFFFF00FFFFFF00FFFFFFFFFF00FFFFFF0000000000FFFF0000FFFF00FFFFFFFFFFFF00FFFFFF00FFFFFFFFFF00FFFFFF00FFFF0000FFFF0000FFFF00FFFFFFFFFFFF00FFFF
310
00FFFFFFFFFFFF00FFFFFF00FFFF0000FFFF0000FFFF0000000000FFFF00000000FFFFFF00000000FFFFFF00000000FFFFFF0000FFFFFFFFFFFF00FFFFFFFFFFFFFFFFFF00FFFFFFFFFFFFFFFFFFFFFFFFFF0000FFFFFFFFFFFF00FFFFFFFFFFFFFFFFFF00FFFFFFFFFFFFFFFFFFFFFFFFFF0000FFFFFFFFFFFF00FFFFFFFF
310
FFFFFFFFFF00FFFFFFFFFFFFFFFFFFFFFFFF0000FFFFFF0000000000FFFF00000000FFFFFF0000000000000000000000000000FFFFFFFF00FFFFFFFFFFFF00FFFF00FFFFFFFFFFFF00FFFFFFFFFFFFFFFFFFFFFFFFFFFF00FFFFFFFFFFFF00FFFFFF00FFFFFFFFFF00FFFFFFFFFFFFFFFFFFFFFFFFFFFF0000000000000000
310
FFFFFF00000000000000FFFFFFFFFFFFFFFFFFFFFFFFFFFFFFFFFFFFFFFFFFFFFFFFFFFFFFFFFFFFFFFFFFFFFFFFFFFFFFFFFFFFFFFFFFFFFFFFFFFFFFFFFFFFFFFFFFFFFFFFFFFFFFFFFFFFFFFFFFFFFFFFFFFFFFFFFFFFFFFFFFFFFFFFFFFFFFFFFFFFFFFFFFFFFFFFFFFFFFFFFFFFFFFFFFFFFFFFFFFFFFFFFFFFFFFFFF
310
FFFFFFFFFFFFFFFFFFFFFFFFFFFFFFFFFFFFFFFFFFFFFFFFFFFFFFFFFFFFFFFFFFFFFFFFFFFFFFFFFFFFFFFFFFFFFFFFFFFFFFFFFFFFFFFF
102
{BLKREFS
331
25DD
102
}
  0
BLOCK_RECORD
  5
25DC
330
233B
100
AcDbSymbolTableRecord
100
AcDbBlockTableRecord
  2
HD Logo
340
0
310
2800000020000000200000000100080000000000000400000000000000000000000000000000000000000000000080000080000000808000800000008000800080800000C0C0C000C0DCC000F0CAA6000020400000206000002080000020A0000020C0000020E00000400000004020000040400000406000004080000040A0
310
000040C0000040E00000600000006020000060400000606000006080000060A0000060C0000060E00000800000008020000080400000806000008080000080A0000080C0000080E00000A0000000A0200000A0400000A0600000A0800000A0A00000A0C00000A0E00000C0000000C0200000C0400000C0600000C0800000C0
310
A00000C0C00000C0E00000E0000000E0200000E0400000E0600000E0800000E0A00000E0C00000E0E00040000000400020004000400040006000400080004000A0004000C0004000E00040200000402020004020400040206000402080004020A0004020C0004020E000404000004040200040404000404060004040800040
310
40A0004040C0004040E00040600000406020004060400040606000406080004060A0004060C0004060E00040800000408020004080400040806000408080004080A0004080C0004080E00040A0000040A0200040A0400040A0600040A0800040A0A00040A0C00040A0E00040C0000040C0200040C0400040C0600040C08000
310
40C0A00040C0C00040C0E00040E0000040E0200040E0400040E0600040E0800040E0A00040E0C00040E0E00080000000800020008000400080006000800080008000A0008000C0008000E00080200000802020008020400080206000802080008020A0008020C0008020E00080400000804020008040400080406000804080
310
008040A0008040C0008040E00080600000806020008060400080606000806080008060A0008060C0008060E00080800000808020008080400080806000808080008080A0008080C0008080E00080A0000080A0200080A0400080A0600080A0800080A0A00080A0C00080A0E00080C0000080C0200080C0400080C0600080C0
310
800080C0A00080C0C00080C0E00080E0000080E0200080E0400080E0600080E0800080E0A00080E0C00080E0E000C0000000C0002000C0004000C0006000C0008000C000A000C000C000C000E000C0200000C0202000C0204000C0206000C0208000C020A000C020C000C020E000C0400000C0402000C0404000C0406000C0
310
408000C040A000C040C000C040E000C0600000C0602000C0604000C0606000C0608000C060A000C060C000C060E000C0800000C0802000C0804000C0806000C0808000C080A000C080C000C080E000C0A00000C0A02000C0A04000C0A06000C0A08000C0A0A000C0A0C000C0A0E000C0C00000C0C02000C0C04000C0C06000
310
C0C08000C0C0A000F0FBFF00A4A0A000808080000000FF0000FF000000FFFF00FF000000FF00FF00FFFF0000FFFFFF00FFFFFFFFFFFFFFFFFFFFFFFFFFFFFFFFFFFFFFFFFFFFFFFFFFFFFFFFFFFFFFFFFFFFFFFFFFFFFFFFFFFFFFFFFFFFFFFFFFFFFFFFFFFFFFFFFFFFFFFFFFFFFFFFFFFFFFFFFFFFFFFFFFFFFFFFFFFFFF
310
FFFFFFFFFFFFFFFFFFFFFFFFFFFFFFFFFFFFFFFFFFFFFFFFFFFFFFFFFFFFFFFFFFFFFFFFFFFFFFFFFFFFFFFFFFFFFFFFFFFFFFFFFFFFFFFFFFFFFFFFFFFFFFFFFFFFFFFFFFFFFFFFFFFFFFFFFFFFFFFFFFFFFFFFFFFFFFFFFFFFFFFFFFFFFFFFFFFFFFFFFFFFFFFFFFFFFFFFFFFFFFFFFFFFFFFFFFFFFFFFFFFFFFFFFFFFFF
310
FFFFFFFFFFFFFFFFFFFFFFFFFFFFFFFFFFFFFFFFFFFFFFFFFFFFFFFFFFFFFFFFFFFFFFFFFFFFFFFFFFFFFFFFFFFFFFFFFFFFFFFFFFFFFFFFFFFFFFFFFFFFFFFFFFFFFFFFFFFFFFFFFFFFFFFFFFFFFFFFFFFFFFFFFFFFFFFFFFFFFFFFFFFFFFFFFFFFFFFFFFFFFFFFFFFFFFFFFFFFFFFFFFFFFFFFFFFFFFFFFFFFFFFFFFFFFF
310
FFFFFFFFFFFFFFFFFFFFFFFFFFFFFFFFFFFFFFFFFFFFFFFFFFFFFFFFFFFFFFFFFFFFFFFFFFFFFFFFFFFFFFFFFFFFFFFFFFFFFFFF0000000000000000000000000000000000000000000000000000000000FFFFFF0000000000000000000000000000000000FFFFFFFFFFFFFFFFFFFF0000FFFFFF0000000000000000000000
310
00000000000000FFFFFFFFFFFFFFFFFFFF0000FFFF000000000000000000000000000000000000FFFFFF00000000FFFFFF0000FFFF00FFFFFFFFFFFF00FFFFFF00FFFFFFFFFF00FFFFFF0000000000FFFF0000FFFF00FFFFFFFFFFFF00FFFFFF00FFFFFFFFFF00FFFFFF00FFFF0000FFFF0000FFFF00FFFFFFFFFFFF00FFFF
310
00FFFFFFFFFFFF00FFFFFF00FFFF0000FFFF0000FFFF0000000000FFFF00000000FFFFFF00000000FFFFFF00000000FFFFFF0000FFFFFFFFFFFF00FFFFFFFFFFFFFFFFFF00FFFFFFFFFFFFFFFFFFFFFFFFFF0000FFFFFFFFFFFF00FFFFFFFFFFFFFFFFFF00FFFFFFFFFFFFFFFFFFFFFFFFFF0000FFFFFFFFFFFF00FFFFFFFF
310
FFFFFFFFFF00FFFFFFFFFFFFFFFFFFFFFFFF0000FFFFFF0000000000FFFF00000000FFFFFF0000000000000000000000000000FFFFFFFF00FFFFFFFFFFFF00FFFF00FFFFFFFFFFFF00FFFFFFFFFFFFFFFFFFFFFFFFFFFF00FFFFFFFFFFFF00FFFFFF00FFFFFFFFFF00FFFFFFFFFFFFFFFFFFFFFFFFFFFF0000000000000000
310
FFFFFF00000000000000FFFFFFFFFFFFFFFFFFFFFFFFFFFFFFFFFFFFFFFFFFFFFFFFFFFFFFFFFFFFFFFFFFFFFFFFFFFFFFFFFFFFFFFFFFFFFFFFFFFFFFFFFFFFFFFFFFFFFFFFFFFFFFFFFFFFFFFFFFFFFFFFFFFFFFFFFFFFFFFFFFFFFFFFFFFFFFFFFFFFFFFFFFFFFFFFFFFFFFFFFFFFFFFFFFFFFFFFFFFFFFFFFFFFFFFFFF
310
FFFFFFFFFFFFFFFFFFFFFFFFFFFFFFFFFFFFFFFFFFFFFFFFFFFFFFFFFFFFFFFFFFFFFFFFFFFFFFFFFFFFFFFFFFFFFFFFFFFFFFFFFFFFFFFF
102
{BLKREFS
331
25E3
331
25E7
102
}
  0
BLOCK_RECORD
  5
25F4
330
233B
100
AcDbSymbolTableRecord
100
AcDbBlockTableRecord
  2
Harmonic Drive LLC
340
0
310
2800000020000000200000000100080000000000000400000000000000000000000000000000000000000000000080000080000000808000800000008000800080800000C0C0C000C0DCC000F0CAA6000020400000206000002080000020A0000020C0000020E00000400000004020000040400000406000004080000040A0
310
000040C0000040E00000600000006020000060400000606000006080000060A0000060C0000060E00000800000008020000080400000806000008080000080A0000080C0000080E00000A0000000A0200000A0400000A0600000A0800000A0A00000A0C00000A0E00000C0000000C0200000C0400000C0600000C0800000C0
310
A00000C0C00000C0E00000E0000000E0200000E0400000E0600000E0800000E0A00000E0C00000E0E00040000000400020004000400040006000400080004000A0004000C0004000E00040200000402020004020400040206000402080004020A0004020C0004020E000404000004040200040404000404060004040800040
310
40A0004040C0004040E00040600000406020004060400040606000406080004060A0004060C0004060E00040800000408020004080400040806000408080004080A0004080C0004080E00040A0000040A0200040A0400040A0600040A0800040A0A00040A0C00040A0E00040C0000040C0200040C0400040C0600040C08000
310
40C0A00040C0C00040C0E00040E0000040E0200040E0400040E0600040E0800040E0A00040E0C00040E0E00080000000800020008000400080006000800080008000A0008000C0008000E00080200000802020008020400080206000802080008020A0008020C0008020E00080400000804020008040400080406000804080
310
008040A0008040C0008040E00080600000806020008060400080606000806080008060A0008060C0008060E00080800000808020008080400080806000808080008080A0008080C0008080E00080A0000080A0200080A0400080A0600080A0800080A0A00080A0C00080A0E00080C0000080C0200080C0400080C0600080C0
310
800080C0A00080C0C00080C0E00080E0000080E0200080E0400080E0600080E0800080E0A00080E0C00080E0E000C0000000C0002000C0004000C0006000C0008000C000A000C000C000C000E000C0200000C0202000C0204000C0206000C0208000C020A000C020C000C020E000C0400000C0402000C0404000C0406000C0
310
408000C040A000C040C000C040E000C0600000C0602000C0604000C0606000C0608000C060A000C060C000C060E000C0800000C0802000C0804000C0806000C0808000C080A000C080C000C080E000C0A00000C0A02000C0A04000C0A06000C0A08000C0A0A000C0A0C000C0A0E000C0C00000C0C02000C0C04000C0C06000
310
C0C08000C0C0A000F0FBFF00A4A0A000808080000000FF0000FF000000FFFF00FF000000FF00FF00FFFF0000FFFFFF00FFFFFFFFFFFFFFFFFFFFFFFFFFFFFFFFFFFFFFFFFFFFFFFFFFFFFFFFFFFFFFFFFFFFFFFFFFFFFFFFFFFFFFFFFFFFFFFFFFFFFFFFFFFFFFFFFFFFFFFFFFFFFFFFFFFFFFFFFFFFFFFFFFFFFFFFFFFFFF
310
FFFFFFFFFFFFFFFFFFFFFFFFFFFFFFFFFFFFFFFFFFFFFFFFFFFFFFFFFFFFFFFFFFFFFFFFFFFFFFFFFFFFFFFFFFFFFFFFFFFFFFFFFFFFFFFFFFFFFFFFFFFFFFFFFFFFFFFFFFFFFFFFFFFFFFFFFFFFFFFFFFFFFFFFFFFFFFFFFFFFFFFFFFFFFFFFFFFFFFFFFFFFFFFFFFFFFFFFFFFFFFFFFFFFFFFFFFFFFFFFFFFFFFFFFFFFFF
310
FFFFFFFFFFFFFFFFFFFFFFFFFFFFFFFFFFFFFFFFFFFFFFFFFFFFFFFFFFFFFFFFFFFFFFFFFFFFFFFFFFFFFFFFFFFFFFFFFFFFFFFFFFFFFFFFFFFFFFFFFFFFFFFFFFFFFFFFFFFFFFFFFFFFFFFFFFFFFFFFFFFFFFFFFFFFFFFFFFFFFFFFFFFFFFFFFFFFFFFFFFFFFFFFFFFFFFFFFFFFFFFFFFFFFFFFFFFFFFFFFFFFFFFFFFFFFF
310
FFFFFFFFFFFFFFFFFFFFFFFFFFFFFFFFFFFFFFFFFFFFFFFFFFFFFFFFFFFFFFFFFFFFFFFFFFFFFFFFFFFFFFFFFFFFFFFFFFFFFFFFFFFFFFFFFFFFFFFFFFFFFFFFFFFFFFFFFFFFFFFFFFFFFFFFFFFFFFFFFFFFFFFFFFFFFF000000000000000000000000000000000000000000000000FFFFFFFFFFFFFFFF0000000000000000
310
00000000000000000000000000000000FFFFFFFFFFFFFFFFFFFFFFFF00000000FF00000000FF000000000000FFFFFFFFFFFFFFFFFFFFFFFFFFFFFFFF00000000000000000000000000000000FFFFFFFFFFFFFFFFFFFFFFFFFF00000000000000000000FF000000000000FF00000000FFFFFFFFFFFFFFFFFFFF000000000000
310
00000000FF000000000000FF00000000FFFFFFFFFFFFFFFFFFFFFFFFFFFFFFFFFFFFFFFFFFFFFFFFFFFFFFFFFFFFFFFFFFFFFFFFFFFFFFFFFFFFFFFFFFFFFFFFFFFFFFFFFFFFFFFFFFFFFFFFFFFFFFFFFFFFFFFFFFFFFFFFFFFFFFFFFFFFFFFFFFFFFFFFFFFFFFFFFFFFFFFFFFFFFFFFFFFFFFFFFFFFFFFFFFFFFFFFFFFFFF
310
FFFFFFFFFFFFFFFFFFFFFFFFFFFFFFFFFFFFFFFFFFFFFFFFFFFFFFFFFFFFFFFFFFFFFFFFFFFFFFFFFFFFFFFFFFFFFFFFFFFFFFFFFFFFFFFFFFFFFFFFFFFFFFFFFFFFFFFFFFFFFFFFFFFFFFFFFFFFFFFFFFFFFFFFFFFFFFFFFFFFFFFFFFFFFFFFFFFFFFFFFFFFFFFFFFFFFFFFFFFFFFFFFFFFFFFFFFFFFFFFFFFFFFFFFFFFFF
310
FFFFFFFFFFFFFFFFFFFFFFFFFFFFFFFFFFFFFFFFFFFFFFFFFFFFFFFFFFFFFFFFFFFFFFFFFFFFFFFFFFFFFFFFFFFFFFFFFFFFFFFFFFFFFFFFFFFFFFFFFFFFFFFFFFFFFFFFFFFFFFFFFFFFFFFFFFFFFFFFFFFFFFFFFFFFFFFFFFFFFFFFFFFFFFFFFFFFFFFFFFFFFFFFFFFFFFFFFFFFFFFFFFFFFFFFFFFFFFFFFFFFFFFFFFFFFF
310
FFFFFFFFFFFFFFFFFFFFFFFFFFFFFFFFFFFFFFFFFFFFFFFFFFFFFFFFFFFFFFFFFFFFFFFFFFFFFFFFFFFFFFFFFFFFFFFFFFFFFFFFFFFFFFFF
102
{BLKREFS
331
25F9
331
25FD
102
}
  0
BLOCK_RECORD
  5
2605
330
233B
100
AcDbSymbolTableRecord
100
AcDbBlockTableRecord
  2
NTC
340
0
310
2800000020000000200000000100080000000000000400000000000000000000000000000000000000000000000080000080000000808000800000008000800080800000C0C0C000C0DCC000F0CAA6000020400000206000002080000020A0000020C0000020E00000400000004020000040400000406000004080000040A0
310
000040C0000040E00000600000006020000060400000606000006080000060A0000060C0000060E00000800000008020000080400000806000008080000080A0000080C0000080E00000A0000000A0200000A0400000A0600000A0800000A0A00000A0C00000A0E00000C0000000C0200000C0400000C0600000C0800000C0
310
A00000C0C00000C0E00000E0000000E0200000E0400000E0600000E0800000E0A00000E0C00000E0E00040000000400020004000400040006000400080004000A0004000C0004000E00040200000402020004020400040206000402080004020A0004020C0004020E000404000004040200040404000404060004040800040
310
40A0004040C0004040E00040600000406020004060400040606000406080004060A0004060C0004060E00040800000408020004080400040806000408080004080A0004080C0004080E00040A0000040A0200040A0400040A0600040A0800040A0A00040A0C00040A0E00040C0000040C0200040C0400040C0600040C08000
310
40C0A00040C0C00040C0E00040E0000040E0200040E0400040E0600040E0800040E0A00040E0C00040E0E00080000000800020008000400080006000800080008000A0008000C0008000E00080200000802020008020400080206000802080008020A0008020C0008020E00080400000804020008040400080406000804080
310
008040A0008040C0008040E00080600000806020008060400080606000806080008060A0008060C0008060E00080800000808020008080400080806000808080008080A0008080C0008080E00080A0000080A0200080A0400080A0600080A0800080A0A00080A0C00080A0E00080C0000080C0200080C0400080C0600080C0
310
800080C0A00080C0C00080C0E00080E0000080E0200080E0400080E0600080E0800080E0A00080E0C00080E0E000C0000000C0002000C0004000C0006000C0008000C000A000C000C000C000E000C0200000C0202000C0204000C0206000C0208000C020A000C020C000C020E000C0400000C0402000C0404000C0406000C0
310
408000C040A000C040C000C040E000C0600000C0602000C0604000C0606000C0608000C060A000C060C000C060E000C0800000C0802000C0804000C0806000C0808000C080A000C080C000C080E000C0A00000C0A02000C0A04000C0A06000C0A08000C0A0A000C0A0C000C0A0E000C0C00000C0C02000C0C04000C0C06000
310
C0C08000C0C0A000F0FBFF00A4A0A000808080000000FF0000FF000000FFFF00FF000000FF00FF00FFFF0000FFFFFF00FFFFFFFFFFFFFFFFFFFFFFFFFFFFFFFFFFFFFFFFFFFFFFFFFFFFFFFFFFFFFFFFFFFFFFFFFFFFFFFFFFFFFFFFFFFFFFFFFFFFFFFFFFFFFFFFFFFFFFFFFFFFFFFFFFFFFFFFFFFFFFFFFFFFFFFFFFFFFF
310
FFFFFFFFFFFFFFFFFFFFFFFFFFFFFFFFFFFFFFFFFFFFFFFFFFFFFFFFFFFFFFFFFFFFFFFFFFFFFFFFFFFFFFFFFFFFFFFFFFFFFFFFFFFFFFFFFFFFFFFFFFFFFFFFFFFFFFFFFFFFFFFFFFFFFFFFFFFFFFFFFFFFFFFFFFFFFFFFFFFFFFFFFFFFFFFFFFFFFFFFFFFFFFFFFFFFFFFFFFFFFFFFFFFFFFFFFFFFFFFFFFFFFFFFFFFFFF
310
FFFFFFFFFFFFFFFFFFFFFFFFFFFFFFFFFFFFFFFFFFFFFFFFFFFFFFFFFFFFFFFFFFFFFFFFFFFFFFFFFFFFFFFFFFFFFFFFFFFFFFFFFFFFFFFFFFFFFFFFFFFFFFFFFFFFFFFFFFFFFFFFFFFFFFFFFFFFFFFFFFFFFFFFFFFFFFFFFFFFFFFFFFFFFFFFFFFFFFFFFFFFFFFFFFFFFFFFFFFFFFFFFFFFFFFFFFFFFFFFFFFFFFFFFFFFFF
310
FFFFFFFFFFFFFFFFFFFFFFFFFFFFFFFFFFFFFFFF000000000000000000000000000000000000000000000000000000000000FFFF00FF0000000000000000FFFFFFFFFFFFFFFFFFFFFFFFFFFFFFFFFFFFFF00FFFF00FF0000000000000000FFFFFFFFFFFFFFFFFFFFFFFFFFFFFFFFFFFFFF00FFFF00FF000000000000000000
310
00000000000000000000000000FFFFFFFFFF00FFFF00FF0000000000000000000000000000000000000000000000000000FF00FFFF00FF0000000000000000000000000000000000000000000000000000FF00FFFF00FF0000000000000000000000000000000000000000000000000000FF00FFFF00FF0000000000000000
310
00000000000000000000000000000000FFFFFF00FFFF00FF0000000000FFFFFFFFFFFFFFFFFFFFFFFFFFFFFFFFFFFFFFFFFFFF00FFFF000000000000000000000000000000000000000000000000000000000000FFFFFFFFFFFFFFFFFFFFFFFFFFFFFFFFFFFFFFFFFFFFFFFFFFFFFFFFFFFFFFFFFFFFFFFFFFFFFFFFFFFFFF
310
FFFFFFFFFFFFFFFFFFFFFFFFFFFFFFFFFFFFFFFFFFFFFFFFFFFFFFFFFFFFFFFFFFFFFFFFFFFFFFFFFFFFFFFFFFFFFFFFFFFFFFFFFFFFFFFFFFFFFFFFFFFFFFFFFFFFFFFFFFFFFFFFFFFFFFFFFFFFFFFFFFFFFFFFFFFFFFFFFFFFFFFFFFFFFFFFFFFFFFFFFFFFFFFFFFFFFFFFFFFFFFFFFFFFFFFFFFFFFFFFFFFFFFFFFFFFFF
310
FFFFFFFFFFFFFFFFFFFFFFFFFFFFFFFFFFFFFFFFFFFFFFFFFFFFFFFFFFFFFFFFFFFFFFFFFFFFFFFFFFFFFFFFFFFFFFFFFFFFFFFFFFFFFFFFFFFFFFFFFFFFFFFFFFFFFFFFFFFFFFFFFFFFFFFFFFFFFFFFFFFFFFFFFFFFFFFFFFFFFFFFFFFFFFFFFFFFFFFFFFFFFFFFFFFFFFFFFFFFFFFFFFFFFFFFFFFFFFFFFFFFFFFFFFFFFF
310
FFFFFFFFFFFFFFFFFFFFFFFFFFFFFFFFFFFFFFFFFFFFFFFFFFFFFFFFFFFFFFFFFFFFFFFFFFFFFFFFFFFFFFFFFFFFFFFFFFFFFFFFFFFFFFFF
102
{BLKREFS
331
260B
331
2611
102
}
  0
ENDTAB
  0
ENDSEC
  0
SECTION
  2
BLOCKS
  0
BLOCK
  5
2359
330
2358
100
AcDbEntity
  8
0
100
AcDbBlockBegin
  2
*Model_Space
 70
     0
 10
0.0
 20
0.0
 30
0.0
  3
*Model_Space
  1

  0
ENDBLK
  5
235A
330
2358
100
AcDbEntity
  8
0
100
AcDbBlockEnd
  0
BLOCK
  5
2355
330
2354
100
AcDbEntity
 67
     1
  8
0
100
AcDbBlockBegin
  2
*Paper_Space
 70
     0
 10
0.0
 20
0.0
 30
0.0
  3
*Paper_Space
  1

  0
ENDBLK
  5
2356
330
2354
100
AcDbEntity
 67
     1
  8
0
100
AcDbBlockEnd
  0
BLOCK
  5
2372
330
2371
100
AcDbEntity
  8
0
100
AcDbBlockBegin
  2
$MODEL_SPACE
 70
     0
 10
0.0
 20
0.0
 30
0.0
  3
$MODEL_SPACE
  1

  0
ENDBLK
  5
2373
330
2371
100
AcDbEntity
  8
0
100
AcDbBlockEnd
  0
BLOCK
  5
2375
330
2374
100
AcDbEntity
  8
0
100
AcDbBlockBegin
  2
$PAPER_SPACE
 70
     0
 10
0.0
 20
0.0
 30
0.0
  3
$PAPER_SPACE
  1

  0
ENDBLK
  5
2376
330
2374
100
AcDbEntity
  8
0
100
AcDbBlockEnd
  0
BLOCK
  5
2577
330
2574
100
AcDbEntity
  8
0
 62
     7
100
AcDbBlockBegin
  2
AI9-BLK14
 70
     0
 10
0.0
 20
0.0
 30
0.0
  3
AI9-BLK14
  1

  0
SPLINE
  5
2575
330
2574
100
AcDbEntity
  8
LAYER_1
 62
     7
100
AcDbSpline
210
0.0
220
0.0
230
1.0
 70
    11
 71
     3
 72
    23
 73
    19
 74
     0
 42
0.0000000001
 43
0.0000000001
 40
0.0
 40
0.0
 40
0.0
 40
0.0
 40
1.0
 40
1.0
 40
1.0
 40
2.0
 40
2.0
 40
2.0
 40
3.0
 40
3.0
 40
3.0
 40
4.0
 40
4.0
 40
4.0
 40
5.0
 40
5.0
 40
5.0
 40
6.0
 40
6.0
 40
6.0
 40
6.0
 10
-10.90321044921874
 20
10.88107571072048
 30
0.0
 10
-10.90321044921874
 20
10.88107571072048
 30
0.0
 10
-10.90321044921874
 20
-10.88107571072048
 30
0.0
 10
-10.90321044921874
 20
-10.88107571072048
 30
0.0
 10
-10.90321044921874
 20
-10.88107571072048
 30
0.0
 10
1.752692328559025
 20
-10.88107571072048
 30
0.0
 10
1.752692328559025
 20
-10.88107571072048
 30
0.0
 10
3.280592176649305
 20
-10.88107571072048
 30
0.0
 10
10.90321044921874
 20
-10.32383151584201
 30
0.0
 10
10.90321044921874
 20
0.6792867024739583
 30
0.0
 10
10.90321044921874
 20
10.61700914171006
 30
0.0
 10
2.773129611545138
 20
10.87952541775172
 30
0.0
 10
2.691136338975693
 20
10.88090345594618
 30
0.0
 10
2.691136338975693
 20
10.88090345594618
 30
0.0
 10
-9.903099229600693
 20
10.88107571072048
 30
0.0
 10
-9.903099229600693
 20
10.88107571072048
 30
0.0
 10
-9.903099229600693
 20
10.88107571072048
 30
0.0
 10
-10.90321044921874
 20
10.88107571072048
 30
0.0
 10
-10.90321044921874
 20
10.88107571072048
 30
0.0
  0
SPLINE
  5
2576
330
2574
100
AcDbEntity
  8
LAYER_1
 62
     7
100
AcDbSpline
210
0.0
220
0.0
230
1.0
 70
    11
 71
     3
 72
    20
 73
    16
 74
     0
 42
0.0000000001
 43
0.0000000001
 40
0.0
 40
0.0
 40
0.0
 40
0.0
 40
1.0
 40
1.0
 40
1.0
 40
2.0
 40
2.0
 40
2.0
 40
3.0
 40
3.0
 40
3.0
 40
4.0
 40
4.0
 40
4.0
 40
5.0
 40
5.0
 40
5.0
 40
5.0
 10
2.672877332899305
 20
8.881197781032986
 30
0.0
 10
2.905421278211805
 20
8.874307590060762
 30
0.0
 10
8.902988009982637
 20
8.616442192925347
 30
0.0
 10
8.902988009982637
 20
0.6792867024739583
 30
0.0
 10
8.902988009982637
 20
-8.191661919487842
 30
0.0
 10
3.430109320746526
 20
-8.881197781032986
 30
0.0
 10
1.752692328559025
 20
-8.881197781032986
 30
0.0
 10
1.752692328559025
 20
-8.881197781032986
 30
0.0
 10
-7.231427680121528
 20
-8.881197781032986
 30
0.0
 10
-8.902988009982637
 20
-8.881197781032986
 30
0.0
 10
-8.902988009982637
 20
-7.174497477213541
 30
0.0
 10
-8.902988009982637
 20
7.174497477213541
 30
0.0
 10
-8.902988009982637
 20
8.881197781032986
 30
0.0
 10
-7.208690049913191
 20
8.881197781032986
 30
0.0
 10
2.672877332899305
 20
8.881197781032986
 30
0.0
 10
2.672877332899305
 20
8.881197781032986
 30
0.0
  0
ENDBLK
  5
2578
330
2574
100
AcDbEntity
  8
0
100
AcDbBlockEnd
  0
BLOCK
  5
257C
330
2579
100
AcDbEntity
  8
0
 62
     7
100
AcDbBlockBegin
  2
AI9-BLK13
 70
     0
 10
0.0
 20
0.0
 30
0.0
  3
AI9-BLK13
  1

  0
LWPOLYLINE
  5
257A
330
2579
100
AcDbEntity
  8
LAYER_1
 62
     7
100
AcDbPolyline
 90
       12
 70
     1
 43
0.0
 10
-3.792361111111107
 20
10.7376736111111
 10
-2.469444444444443
 20
10.7376736111111
 10
-2.469444444444443
 20
1.874131944444444
 10
2.469444444444443
 20
1.874131944444444
 10
2.469444444444443
 20
10.7376736111111
 10
3.792361111111107
 20
10.7376736111111
 10
3.792361111111107
 20
-10.7376736111111
 10
2.469444444444443
 20
-10.7376736111111
 10
2.469444444444443
 20
-0.6835069444444444
 10
-2.469444444444443
 20
-0.6835069444444444
 10
-2.469444444444443
 20
-10.7376736111111
 10
-3.792361111111107
 20
-10.7376736111111
  0
HATCH
  5
257B
330
2579
100
AcDbEntity
  8
LAYER_1
 62
     7
100
AcDbHatch
 10
0.0
 20
0.0
 30
0.0
210
0.0
220
0.0
230
1.0
  2
SOLID
 70
     1
 71
     0
 91
        1
 92
        3
 72
     0
 73
     1
 93
       12
 10
-3.792361111111107
 20
10.7376736111111
 10
-2.469444444444443
 20
10.7376736111111
 10
-2.469444444444443
 20
1.874131944444444
 10
2.469444444444443
 20
1.874131944444444
 10
2.469444444444443
 20
10.7376736111111
 10
3.792361111111107
 20
10.7376736111111
 10
3.792361111111107
 20
-10.7376736111111
 10
2.469444444444443
 20
-10.7376736111111
 10
2.469444444444443
 20
-0.6835069444444444
 10
-2.469444444444443
 20
-0.6835069444444444
 10
-2.469444444444443
 20
-10.7376736111111
 10
-3.792361111111107
 20
-10.7376736111111
 97
        0
 75
     2
 76
     1
 98
        1
 10
0.0
 20
0.0
  0
ENDBLK
  5
257D
330
2579
100
AcDbEntity
  8
0
100
AcDbBlockEnd
  0
BLOCK
  5
2581
330
257E
100
AcDbEntity
  8
0
 62
     7
100
AcDbBlockBegin
  2
AI9-BLK11
 70
     0
 10
0.0
 20
0.0
 30
0.0
  3
AI9-BLK11
  1

  0
SPLINE
  5
257F
330
257E
100
AcDbEntity
  8
LAYER_1
 62
     7
100
AcDbSpline
210
0.0
220
0.0
230
1.0
 70
    11
 71
     3
 72
    26
 73
    22
 74
     0
 42
0.0000000001
 43
0.0000000001
 40
0.0
 40
0.0
 40
0.0
 40
0.0
 40
1.0
 40
1.0
 40
1.0
 40
2.0
 40
2.0
 40
2.0
 40
3.0
 40
3.0
 40
3.0
 40
4.0
 40
4.0
 40
4.0
 40
5.0
 40
5.0
 40
5.0
 40
6.0
 40
6.0
 40
6.0
 40
7.0
 40
7.0
 40
7.0
 40
7.0
 10
-2.645833333333333
 20
0.9039930555555551
 30
0.0
 10
-2.645833333333333
 20
0.9039930555555551
 30
0.0
 10
-2.645833333333333
 20
8.180034722222217
 30
0.0
 10
-2.645833333333333
 20
8.180034722222217
 30
0.0
 10
-2.645833333333333
 20
8.180034722222217
 30
0.0
 10
0.465087890625
 20
8.180034722222217
 30
0.0
 10
0.465087890625
 20
8.180034722222217
 30
0.0
 10
0.9026150173611108
 20
8.180034722222217
 30
0.0
 10
1.24988064236111
 20
8.034651692708331
 30
0.0
 10
1.506884765625
 20
7.745263671874997
 30
0.0
 10
2.001600477430554
 20
7.194048394097221
 30
0.0
 10
2.248958333333332
 20
6.160519748263887
 30
0.0
 10
2.248958333333332
 20
4.643299696180553
 30
0.0
 10
2.248958333333332
 20
3.232188585069443
 30
0.0
 10
2.072569444444444
 20
2.256537543402775
 30
0.0
 10
1.720480685763888
 20
1.715657552083333
 30
0.0
 10
1.368391927083333
 20
1.174088541666665
 30
0.0
 10
0.8929687499999998
 20
0.9039930555555551
 30
0.0
 10
0.2942111545138888
 20
0.9039930555555551
 30
0.0
 10
0.2942111545138888
 20
0.9039930555555551
 30
0.0
 10
-2.645833333333333
 20
0.9039930555555551
 30
0.0
 10
-2.645833333333333
 20
0.9039930555555551
 30
0.0
  0
SPLINE
  5
2580
330
257E
100
AcDbEntity
  8
LAYER_1
 62
     7
100
AcDbSpline
210
0.0
220
0.0
230
1.0
 70
    11
 71
     3
 72
    68
 73
    64
 74
     0
 42
0.0000000001
 43
0.0000000001
 40
0.0
 40
0.0
 40
0.0
 40
0.0
 40
1.0
 40
1.0
 40
1.0
 40
2.0
 40
2.0
 40
2.0
 40
3.0
 40
3.0
 40
3.0
 40
4.0
 40
4.0
 40
4.0
 40
5.0
 40
5.0
 40
5.0
 40
6.0
 40
6.0
 40
6.0
 40
7.0
 40
7.0
 40
7.0
 40
8.0
 40
8.0
 40
8.0
 40
9.0
 40
9.0
 40
9.0
 40
10.0
 40
10.0
 40
10.0
 40
11.0
 40
11.0
 40
11.0
 40
12.0
 40
12.0
 40
12.0
 40
13.0
 40
13.0
 40
13.0
 40
14.0
 40
14.0
 40
14.0
 40
15.0
 40
15.0
 40
15.0
 40
16.0
 40
16.0
 40
16.0
 40
17.0
 40
17.0
 40
17.0
 40
18.0
 40
18.0
 40
18.0
 40
19.0
 40
19.0
 40
19.0
 40
20.0
 40
20.0
 40
20.0
 40
21.0
 40
21.0
 40
21.0
 40
21.0
 10
-3.968749999999998
 20
-10.7376736111111
 30
0.0
 10
-3.968749999999998
 20
-10.7376736111111
 30
0.0
 10
-2.645833333333333
 20
-10.7376736111111
 30
0.0
 10
-2.645833333333333
 20
-10.7376736111111
 30
0.0
 10
-2.645833333333333
 20
-10.7376736111111
 30
0.0
 10
-2.645833333333333
 20
-1.521354166666665
 30
0.0
 10
-2.645833333333333
 20
-1.521354166666665
 30
0.0
 10
-2.645833333333333
 20
-1.521354166666665
 30
0.0
 10
0.2390896267361111
 20
-1.521354166666665
 30
0.0
 10
0.2390896267361111
 20
-1.521354166666665
 30
0.0
 10
0.7599880642361111
 20
-1.521354166666665
 30
0.0
 10
1.143771701388887
 20
-1.65295681423611
 30
0.0
 10
1.390440538194444
 20
-1.916162109374999
 30
0.0
 10
1.816254340277773
 20
-2.39434136284722
 30
0.0
 10
2.04363064236111
 20
-3.335541449652775
 30
0.0
 10
2.072569444444444
 20
-4.739762369791666
 30
0.0
 10
2.072569444444444
 20
-4.739762369791666
 30
0.0
 10
2.160763888888888
 20
-8.324039713541665
 30
0.0
 10
2.160763888888888
 20
-8.324039713541665
 30
0.0
 10
2.18005642361111
 20
-9.163264973958332
 30
0.0
 10
2.202794053819443
 20
-9.728949652777775
 30
0.0
 10
2.227598741319444
 20
-10.02109374999998
 30
0.0
 10
2.252403428819443
 20
-10.31392686631944
 30
0.0
 10
2.28892144097222
 20
-10.55301649305555
 30
0.0
 10
2.33853081597222
 20
-10.7376736111111
 30
0.0
 10
2.33853081597222
 20
-10.7376736111111
 30
0.0
 10
3.968749999999998
 20
-10.7376736111111
 30
0.0
 10
3.968749999999998
 20
-10.7376736111111
 30
0.0
 10
3.968749999999998
 20
-10.7376736111111
 30
0.0
 10
3.968749999999998
 20
-10.25260416666666
 30
0.0
 10
3.968749999999998
 20
-10.25260416666666
 30
0.0
 10
3.766867404513888
 20
-10.05830078125
 30
0.0
 10
3.625618489583333
 20
-9.621462673611112
 30
0.0
 10
3.545692274305555
 20
-8.942089843749997
 30
0.0
 10
3.49470486111111
 20
-8.543836805555555
 30
0.0
 10
3.459564887152775
 20
-7.937499999999999
 30
0.0
 10
3.439583333333333
 20
-7.121701388888887
 30
0.0
 10
3.439583333333333
 20
-7.121701388888887
 30
0.0
 10
3.395486111111106
 20
-4.232644314236106
 30
0.0
 10
3.395486111111106
 20
-4.232644314236106
 30
0.0
 10
3.375504557291666
 20
-2.981385633680555
 30
0.0
 10
3.26870659722222
 20
-2.077392578125
 30
0.0
 10
3.075781249999999
 20
-1.522043185763888
 30
0.0
 10
2.882166883680555
 20
-0.9666937934027776
 30
0.0
 10
2.592089843749999
 20
-0.5188313802083333
 30
0.0
 10
2.204861111111104
 20
-0.1770779079861111
 30
0.0
 10
2.63618706597222
 20
0.3197048611111111
 30
0.0
 10
2.971739366319443
 20
0.9770290798611107
 30
0.0
 10
3.211518012152775
 20
1.79558376736111
 30
0.0
 10
3.451296657986107
 20
2.613449435763888
 30
0.0
 10
3.571874999999999
 20
3.66558159722222
 30
0.0
 10
3.571874999999999
 20
4.951291232638888
 30
0.0
 10
3.571874999999999
 20
7.415912543402777
 30
0.0
 10
3.124701605902775
 20
9.106076388888887
 30
0.0
 10
2.231043836805555
 20
10.02178276909722
 30
0.0
 10
1.759754774305553
 20
10.498583984375
 30
0.0
 10
1.163753255208332
 20
10.7376736111111
 30
0.0
 10
0.443039279513889
 20
10.7376736111111
 30
0.0
 10
0.443039279513889
 20
10.7376736111111
 30
0.0
 10
-3.968749999999998
 20
10.7376736111111
 30
0.0
 10
-3.968749999999998
 20
10.7376736111111
 30
0.0
 10
-3.968749999999998
 20
10.7376736111111
 30
0.0
 10
-3.968749999999998
 20
-10.7376736111111
 30
0.0
 10
-3.968749999999998
 20
-10.7376736111111
 30
0.0
  0
ENDBLK
  5
2582
330
257E
100
AcDbEntity
  8
0
100
AcDbBlockEnd
  0
BLOCK
  5
2585
330
2583
100
AcDbEntity
  8
0
 62
     7
100
AcDbBlockBegin
  2
AI9-BLK10
 70
     0
 10
0.0
 20
0.0
 30
0.0
  3
AI9-BLK10
  1

  0
SPLINE
  5
2584
330
2583
100
AcDbEntity
  8
LAYER_1
 62
     7
100
AcDbSpline
210
0.0
220
0.0
230
1.0
 70
    11
 71
     3
 72
    59
 73
    55
 74
     0
 42
0.0000000001
 43
0.0000000001
 40
0.0
 40
0.0
 40
0.0
 40
0.0
 40
1.0
 40
1.0
 40
1.0
 40
2.0
 40
2.0
 40
2.0
 40
3.0
 40
3.0
 40
3.0
 40
4.0
 40
4.0
 40
4.0
 40
5.0
 40
5.0
 40
5.0
 40
6.0
 40
6.0
 40
6.0
 40
7.0
 40
7.0
 40
7.0
 40
8.0
 40
8.0
 40
8.0
 40
9.0
 40
9.0
 40
9.0
 40
10.0
 40
10.0
 40
10.0
 40
11.0
 40
11.0
 40
11.0
 40
12.0
 40
12.0
 40
12.0
 40
13.0
 40
13.0
 40
13.0
 40
14.0
 40
14.0
 40
14.0
 40
15.0
 40
15.0
 40
15.0
 40
16.0
 40
16.0
 40
16.0
 40
17.0
 40
17.0
 40
17.0
 40
18.0
 40
18.0
 40
18.0
 40
18.0
 10
-4.652256944444443
 20
10.7376736111111
 30
0.0
 10
-4.652256944444443
 20
10.7376736111111
 30
0.0
 10
-2.798795572916666
 20
10.7376736111111
 30
0.0
 10
-2.798795572916666
 20
10.7376736111111
 30
0.0
 10
-2.798795572916666
 20
10.7376736111111
 30
0.0
 10
0.0
 20
-7.419357638888887
 30
0.0
 10
0.0
 20
-7.419357638888887
 30
0.0
 10
0.0
 20
-7.419357638888887
 30
0.0
 10
2.793283420138888
 20
10.7376736111111
 30
0.0
 10
2.793283420138888
 20
10.7376736111111
 30
0.0
 10
2.793283420138888
 20
10.7376736111111
 30
0.0
 10
4.652256944444443
 20
10.7376736111111
 30
0.0
 10
4.652256944444443
 20
10.7376736111111
 30
0.0
 10
4.652256944444443
 20
10.7376736111111
 30
0.0
 10
4.652256944444443
 20
-10.7376736111111
 30
0.0
 10
4.652256944444443
 20
-10.7376736111111
 30
0.0
 10
4.652256944444443
 20
-10.7376736111111
 30
0.0
 10
3.41753472222222
 20
-10.7376736111111
 30
0.0
 10
3.41753472222222
 20
-10.7376736111111
 30
0.0
 10
3.41753472222222
 20
-10.7376736111111
 30
0.0
 10
3.41753472222222
 20
1.936832682291665
 30
0.0
 10
3.41753472222222
 20
1.936832682291665
 30
0.0
 10
3.41753472222222
 20
2.375048828124999
 30
0.0
 10
3.424424913194443
 20
3.101274956597221
 30
0.0
 10
3.439583333333333
 20
4.11482204861111
 30
0.0
 10
3.454052734374998
 20
5.128369140624998
 30
0.0
 10
3.461631944444443
 20
6.214952256944441
 30
0.0
 10
3.461631944444443
 20
7.375260416666666
 30
0.0
 10
3.461631944444443
 20
7.375260416666666
 30
0.0
 10
0.6538791232638889
 20
-10.7376736111111
 30
0.0
 10
0.6538791232638889
 20
-10.7376736111111
 30
0.0
 10
0.6538791232638889
 20
-10.7376736111111
 30
0.0
 10
-0.6628363715277778
 20
-10.7376736111111
 30
0.0
 10
-0.6628363715277778
 20
-10.7376736111111
 30
0.0
 10
-0.6628363715277778
 20
-10.7376736111111
 30
0.0
 10
-3.461631944444443
 20
7.375260416666666
 30
0.0
 10
-3.461631944444443
 20
7.375260416666666
 30
0.0
 10
-3.461631944444443
 20
7.375260416666666
 30
0.0
 10
-3.461631944444443
 20
6.717247178819441
 30
0.0
 10
-3.461631944444443
 20
6.717247178819441
 30
0.0
 10
-3.461631944444443
 20
6.190836588541666
 30
0.0
 10
-3.45474175347222
 20
5.389507378472222
 30
0.0
 10
-3.439583333333333
 20
4.312570529513888
 30
0.0
 10
-3.425113932291666
 20
3.235633680555555
 30
0.0
 10
-3.41753472222222
 20
2.44395073784722
 30
0.0
 10
-3.41753472222222
 20
1.936832682291665
 30
0.0
 10
-3.41753472222222
 20
1.936832682291665
 30
0.0
 10
-3.41753472222222
 20
-10.7376736111111
 30
0.0
 10
-3.41753472222222
 20
-10.7376736111111
 30
0.0
 10
-3.41753472222222
 20
-10.7376736111111
 30
0.0
 10
-4.652256944444443
 20
-10.7376736111111
 30
0.0
 10
-4.652256944444443
 20
-10.7376736111111
 30
0.0
 10
-4.652256944444443
 20
-10.7376736111111
 30
0.0
 10
-4.652256944444443
 20
10.7376736111111
 30
0.0
 10
-4.652256944444443
 20
10.7376736111111
 30
0.0
  0
ENDBLK
  5
2586
330
2583
100
AcDbEntity
  8
0
100
AcDbBlockEnd
  0
BLOCK
  5
258A
330
2587
100
AcDbEntity
  8
0
 62
     7
100
AcDbBlockBegin
  2
AI9-BLK9
 70
     0
 10
0.0
 20
0.0
 30
0.0
  3
AI9-BLK9
  1

  0
SPLINE
  5
2588
330
2587
100
AcDbEntity
  8
LAYER_1
 62
     7
100
AcDbSpline
210
0.0
220
0.0
230
1.0
 70
    11
 71
     3
 72
    29
 73
    25
 74
     0
 42
0.0000000001
 43
0.0000000001
 40
0.0
 40
0.0
 40
0.0
 40
0.0
 40
1.0
 40
1.0
 40
1.0
 40
2.0
 40
2.0
 40
2.0
 40
3.0
 40
3.0
 40
3.0
 40
4.0
 40
4.0
 40
4.0
 40
5.0
 40
5.0
 40
5.0
 40
6.0
 40
6.0
 40
6.0
 40
7.0
 40
7.0
 40
7.0
 40
8.0
 40
8.0
 40
8.0
 40
8.0
 10
0.0668348524305556
 20
-8.753298611111111
 30
0.0
 10
-0.9067491319444444
 20
-8.753298611111111
 30
0.0
 10
-1.60954861111111
 20
-7.936810980902778
 30
0.0
 10
-2.041563585069444
 20
-6.30383572048611
 30
0.0
 10
-2.474267578124999
 20
-4.670860460069443
 30
0.0
 10
-2.689930555555555
 20
-2.664436848958333
 30
0.0
 10
-2.689930555555555
 20
-0.28525390625
 30
0.0
 10
-2.689930555555555
 20
2.68855251736111
 30
0.0
 10
-2.439127604166666
 20
4.938199869791666
 30
0.0
 10
-1.937521701388888
 20
6.464377170138886
 30
0.0
 10
-1.43591579861111
 20
7.989865451388887
 30
0.0
 10
-0.7827256944444444
 20
8.753298611111111
 30
0.0
 10
0.0220486111111111
 20
8.753298611111111
 30
0.0
 10
0.8468044704861108
 20
8.753298611111111
 30
0.0
 10
1.49792751736111
 20
7.982975260416663
 30
0.0
 10
1.974728732638888
 20
6.442328559027776
 30
0.0
 10
2.451529947916665
 20
4.901681857638886
 30
0.0
 10
2.689930555555555
 20
2.868386501736111
 30
0.0
 10
2.689930555555555
 20
0.3438205295138888
 30
0.0
 10
2.689930555555555
 20
-2.045697699652774
 30
0.0
 10
2.483224826388884
 20
-4.15891927083333
 30
0.0
 10
2.071191406249999
 20
-5.996533203124998
 30
0.0
 10
1.65915798611111
 20
-7.834836154513887
 30
0.0
 10
0.9908094618055557
 20
-8.753298611111111
 30
0.0
 10
0.0668348524305556
 20
-8.753298611111111
 30
0.0
  0
SPLINE
  5
2589
330
2587
100
AcDbEntity
  8
LAYER_1
 62
     7
100
AcDbSpline
210
0.0
220
0.0
230
1.0
 70
    11
 71
     3
 72
    29
 73
    25
 74
     0
 42
0.0000000001
 43
0.0000000001
 40
0.0
 40
0.0
 40
0.0
 40
0.0
 40
1.0
 40
1.0
 40
1.0
 40
2.0
 40
2.0
 40
2.0
 40
3.0
 40
3.0
 40
3.0
 40
4.0
 40
4.0
 40
4.0
 40
5.0
 40
5.0
 40
5.0
 40
6.0
 40
6.0
 40
6.0
 40
7.0
 40
7.0
 40
7.0
 40
8.0
 40
8.0
 40
8.0
 40
8.0
 10
-0.0289388020833333
 20
11.35503472222222
 30
0.0
 10
-1.317404513888887
 20
11.35503472222222
 30
0.0
 10
-2.28892144097222
 20
10.02798394097222
 30
0.0
 10
-2.94280056423611
 20
7.374571397569441
 30
0.0
 10
-3.450607638888888
 20
5.30613606770833
 30
0.0
 10
-3.704166666666666
 20
2.81877712673611
 30
0.0
 10
-3.704166666666666
 20
-0.0881944444444445
 30
0.0
 10
-3.704166666666666
 20
-3.307291666666666
 30
0.0
 10
-3.406510416666666
 20
-5.97035047743055
 30
0.0
 10
-2.811197916666666
 20
-8.077370876736106
 30
0.0
 10
-2.147672526041664
 20
-10.26293945312499
 30
0.0
 10
-1.229899088541666
 20
-11.35503472222222
 30
0.0
 10
-0.0585666232638889
 20
-11.35503472222222
 30
0.0
 10
1.20027126736111
 20
-11.35503472222222
 30
0.0
 10
2.166276041666665
 20
-10.10653211805555
 30
0.0
 10
2.840136718749998
 20
-7.609526909722221
 30
0.0
 10
3.416156684027776
 20
-5.483213975694441
 30
0.0
 10
3.704166666666666
 20
-2.814643012152775
 30
0.0
 10
3.704166666666666
 20
0.3948079427083333
 30
0.0
 10
3.704166666666666
 20
3.360346137152776
 30
0.0
 10
3.449918619791666
 20
5.793961588541666
 30
0.0
 10
2.94280056423611
 20
7.696343315972222
 30
0.0
 10
2.298567708333333
 20
10.13547092013888
 30
0.0
 10
1.307758246527777
 20
11.35503472222222
 30
0.0
 10
-0.0289388020833333
 20
11.35503472222222
 30
0.0
  0
ENDBLK
  5
258B
330
2587
100
AcDbEntity
  8
0
100
AcDbBlockEnd
  0
BLOCK
  5
258F
330
258C
100
AcDbEntity
  8
0
 62
     7
100
AcDbBlockBegin
  2
AI9-BLK8
 70
     0
 10
0.0
 20
0.0
 30
0.0
  3
AI9-BLK8
  1

  0
LWPOLYLINE
  5
258D
330
258C
100
AcDbEntity
  8
LAYER_1
 62
     7
100
AcDbPolyline
 90
       10
 70
     1
 43
0.0
 10
-3.792361111111107
 20
10.7376736111111
 10
-2.268939887152773
 20
10.7376736111111
 10
2.557638888888888
 20
-6.505718315972222
 10
2.557638888888888
 20
10.7376736111111
 10
3.792361111111107
 20
10.7376736111111
 10
3.792361111111107
 20
-10.7376736111111
 10
2.32612847222222
 20
-10.7376736111111
 10
-2.557638888888888
 20
6.549815538194441
 10
-2.557638888888888
 20
-10.7376736111111
 10
-3.792361111111107
 20
-10.7376736111111
  0
HATCH
  5
258E
330
258C
100
AcDbEntity
  8
LAYER_1
 62
     7
100
AcDbHatch
 10
0.0
 20
0.0
 30
0.0
210
0.0
220
0.0
230
1.0
  2
SOLID
 70
     1
 71
     0
 91
        1
 92
        3
 72
     0
 73
     1
 93
       10
 10
-3.792361111111107
 20
10.7376736111111
 10
-2.268939887152773
 20
10.7376736111111
 10
2.557638888888888
 20
-6.505718315972222
 10
2.557638888888888
 20
10.7376736111111
 10
3.792361111111107
 20
10.7376736111111
 10
3.792361111111107
 20
-10.7376736111111
 10
2.32612847222222
 20
-10.7376736111111
 10
-2.557638888888888
 20
6.549815538194441
 10
-2.557638888888888
 20
-10.7376736111111
 10
-3.792361111111107
 20
-10.7376736111111
 97
        0
 75
     2
 76
     1
 98
        1
 10
0.0
 20
0.0
  0
ENDBLK
  5
2590
330
258C
100
AcDbEntity
  8
0
100
AcDbBlockEnd
  0
BLOCK
  5
2594
330
2591
100
AcDbEntity
  8
0
 62
     7
100
AcDbBlockBegin
  2
AI9-BLK7
 70
     0
 10
0.0
 20
0.0
 30
0.0
  3
AI9-BLK7
  1

  0
LWPOLYLINE
  5
2592
330
2591
100
AcDbEntity
  8
LAYER_1
 62
     7
100
AcDbPolyline
 90
        4
 70
     1
 43
0.0
 10
-0.6614583333333333
 20
10.7376736111111
 10
0.6614583333333333
 20
10.7376736111111
 10
0.6614583333333333
 20
-10.7376736111111
 10
-0.6614583333333333
 20
-10.7376736111111
  0
HATCH
  5
2593
330
2591
100
AcDbEntity
  8
LAYER_1
 62
     7
100
AcDbHatch
 10
0.0
 20
0.0
 30
0.0
210
0.0
220
0.0
230
1.0
  2
SOLID
 70
     1
 71
     0
 91
        1
 92
        3
 72
     0
 73
     1
 93
        4
 10
-0.6614583333333333
 20
10.7376736111111
 10
0.6614583333333333
 20
10.7376736111111
 10
0.6614583333333333
 20
-10.7376736111111
 10
-0.6614583333333333
 20
-10.7376736111111
 97
        0
 75
     2
 76
     1
 98
        1
 10
0.0
 20
0.0
  0
ENDBLK
  5
2595
330
2591
100
AcDbEntity
  8
0
100
AcDbBlockEnd
  0
BLOCK
  5
2598
330
2596
100
AcDbEntity
  8
0
 62
     7
100
AcDbBlockBegin
  2
AI9-BLK6
 70
     0
 10
0.0
 20
0.0
 30
0.0
  3
AI9-BLK6
  1

  0
SPLINE
  5
2597
330
2596
100
AcDbEntity
  8
LAYER_1
 62
     7
100
AcDbSpline
210
0.0
220
0.0
230
1.0
 70
    11
 71
     3
 72
    59
 73
    55
 74
     0
 42
0.0000000001
 43
0.0000000001
 40
0.0
 40
0.0
 40
0.0
 40
0.0
 40
1.0
 40
1.0
 40
1.0
 40
2.0
 40
2.0
 40
2.0
 40
3.0
 40
3.0
 40
3.0
 40
4.0
 40
4.0
 40
4.0
 40
5.0
 40
5.0
 40
5.0
 40
6.0
 40
6.0
 40
6.0
 40
7.0
 40
7.0
 40
7.0
 40
8.0
 40
8.0
 40
8.0
 40
9.0
 40
9.0
 40
9.0
 40
10.0
 40
10.0
 40
10.0
 40
11.0
 40
11.0
 40
11.0
 40
12.0
 40
12.0
 40
12.0
 40
13.0
 40
13.0
 40
13.0
 40
14.0
 40
14.0
 40
14.0
 40
15.0
 40
15.0
 40
15.0
 40
16.0
 40
16.0
 40
16.0
 40
17.0
 40
17.0
 40
17.0
 40
18.0
 40
18.0
 40
18.0
 40
18.0
 10
3.062689887152775
 20
9.168088107638887
 30
0.0
 10
3.735172526041666
 20
7.739062499999997
 30
0.0
 10
4.110687934027776
 20
6.116422526041666
 30
0.0
 10
4.189236111111108
 20
4.299479166666666
 30
0.0
 10
4.189236111111108
 20
4.299479166666666
 30
0.0
 10
2.866319444444443
 20
4.299479166666666
 30
0.0
 10
2.866319444444443
 20
4.299479166666666
 30
0.0
 10
2.720936414930555
 20
5.667871093749997
 30
0.0
 10
2.435682508680555
 20
6.752387152777776
 30
0.0
 10
2.009868706597218
 20
7.553027343749997
 30
0.0
 10
1.584054904513888
 20
8.352978515624997
 30
0.0
 10
0.9839192708333332
 20
8.753298611111111
 30
0.0
 10
0.2101508246527778
 20
8.753298611111111
 30
0.0
 10
-0.7386284722222222
 20
8.753298611111111
 30
0.0
 10
-1.503439670138888
 20
8.010536024305555
 30
0.0
 10
-2.083593749999999
 20
6.526388888888886
 30
0.0
 10
-2.664436848958333
 20
5.042241753472221
 30
0.0
 10
-2.954513888888888
 20
2.767100694444443
 30
0.0
 10
-2.954513888888888
 20
-0.2990342881944444
 30
0.0
 10
-2.954513888888888
 20
-2.811197916666666
 30
0.0
 10
-2.693375651041666
 20
-4.847938368055555
 30
0.0
 10
-2.17041015625
 20
-6.409944661458332
 30
0.0
 10
-1.648133680555553
 20
-7.972639973958332
 30
0.0
 10
-0.8640299479166666
 20
-8.753298611111111
 30
0.0
 10
0.1812120225694444
 20
-8.753298611111111
 30
0.0
 10
1.138948567708333
 20
-8.753298611111111
 30
0.0
 10
1.865174696180553
 20
-7.927853732638887
 30
0.0
 10
2.359201388888884
 20
-6.275585937499998
 30
0.0
 10
2.62998589409722
 20
-5.406043836805555
 30
0.0
 10
2.828423394097221
 20
-4.262272135416666
 30
0.0
 10
2.954513888888888
 20
-2.844270833333331
 30
0.0
 10
2.954513888888888
 20
-2.844270833333331
 30
0.0
 10
4.277430555555555
 20
-2.844270833333331
 30
0.0
 10
4.277430555555555
 20
-2.844270833333331
 30
0.0
 10
4.169943576388888
 20
-5.109765624999996
 30
0.0
 10
3.795117187499998
 20
-7.009391276041665
 30
0.0
 10
3.151573350694443
 20
-8.542458767361106
 30
0.0
 10
2.381249999999999
 20
-10.38834092881943
 30
0.0
 10
1.347721354166665
 20
-11.3109375
 30
0.0
 10
0.0509874131944445
 20
-11.3109375
 30
0.0
 10
-1.07004665798611
 20
-11.3109375
 30
0.0
 10
-2.010557725694444
 20
-10.55577256944443
 30
0.0
 10
-2.771234809027776
 20
-9.04475368923611
 30
0.0
 10
-3.775824652777775
 20
-7.046598307291666
 30
0.0
 10
-4.277430555555555
 20
-3.961170789930555
 30
0.0
 10
-4.277430555555555
 20
0.2115288628472222
 30
0.0
 10
-4.277430555555555
 20
3.379638671874998
 30
0.0
 10
-3.902604166666666
 20
5.977929687499997
 30
0.0
 10
-3.151573350694443
 20
8.005712890624996
 30
0.0
 10
-2.333018663194443
 20
10.20919596354165
 30
0.0
 10
-1.20647243923611
 20
11.3109375
 30
0.0
 10
0.2266872829861111
 20
11.3109375
 30
0.0
 10
1.444873046875
 20
11.3109375
 30
0.0
 10
2.390207248263884
 20
10.59642469618055
 30
0.0
 10
3.062689887152775
 20
9.168088107638887
 30
0.0
  0
ENDBLK
  5
2599
330
2596
100
AcDbEntity
  8
0
100
AcDbBlockEnd
  0
BLOCK
  5
259D
330
259A
100
AcDbEntity
  8
0
 62
     7
100
AcDbBlockBegin
  2
AI9-BLK5
 70
     0
 10
0.0
 20
0.0
 30
0.0
  3
AI9-BLK5
  1

  0
SPLINE
  5
259B
330
259A
100
AcDbEntity
  8
LAYER_1
 62
     7
100
AcDbSpline
210
0.0
220
0.0
230
1.0
 70
    11
 71
     3
 72
    32
 73
    28
 74
     0
 42
0.0000000001
 43
0.0000000001
 40
0.0
 40
0.0
 40
0.0
 40
0.0
 40
1.0
 40
1.0
 40
1.0
 40
2.0
 40
2.0
 40
2.0
 40
3.0
 40
3.0
 40
3.0
 40
4.0
 40
4.0
 40
4.0
 40
5.0
 40
5.0
 40
5.0
 40
6.0
 40
6.0
 40
6.0
 40
7.0
 40
7.0
 40
7.0
 40
8.0
 40
8.0
 40
8.0
 40
9.0
 40
9.0
 40
9.0
 40
9.0
 10
-2.62378472222222
 20
-8.268229166666666
 30
0.0
 10
-2.62378472222222
 20
-8.268229166666666
 30
0.0
 10
-2.62378472222222
 20
8.180034722222217
 30
0.0
 10
-2.62378472222222
 20
8.180034722222217
 30
0.0
 10
-2.62378472222222
 20
8.180034722222217
 30
0.0
 10
-0.3376193576388888
 20
8.180034722222217
 30
0.0
 10
-0.3376193576388888
 20
8.180034722222217
 30
0.0
 10
0.6972873263888888
 20
8.180034722222217
 30
0.0
 10
1.449007161458333
 20
7.445540364583332
 30
0.0
 10
1.918918185763885
 20
5.977929687499997
 30
0.0
 10
2.388829210069443
 20
4.510319010416666
 30
0.0
 10
2.62378472222222
 20
2.449462890624999
 30
0.0
 10
2.62378472222222
 20
-0.204638671875
 30
0.0
 10
2.62378472222222
 20
-0.8950358072916666
 30
0.0
 10
2.590022786458332
 20
-1.643310546874999
 30
0.0
 10
2.523187934027772
 20
-2.45015190972222
 30
0.0
 10
2.408121744791666
 20
-3.80200737847222
 30
0.0
 10
2.226220703124999
 20
-4.909950086805555
 30
0.0
 10
1.976795789930553
 20
-5.774669053819441
 30
0.0
 10
1.659847005208333
 20
-6.853672960069442
 30
0.0
 10
1.252636718749998
 20
-7.583344184027778
 30
0.0
 10
0.7544759114583333
 20
-7.962304687499997
 30
0.0
 10
0.4664659288194444
 20
-8.166254340277777
 30
0.0
 10
0.1074869791666666
 20
-8.268229166666666
 30
0.0
 10
-0.3231499565972222
 20
-8.268229166666666
 30
0.0
 10
-0.3231499565972222
 20
-8.268229166666666
 30
0.0
 10
-2.62378472222222
 20
-8.268229166666666
 30
0.0
 10
-2.62378472222222
 20
-8.268229166666666
 30
0.0
  0
SPLINE
  5
259C
330
259A
100
AcDbEntity
  8
LAYER_1
 62
     7
100
AcDbSpline
210
0.0
220
0.0
230
1.0
 70
    11
 71
     3
 72
    26
 73
    22
 74
     0
 42
0.0000000001
 43
0.0000000001
 40
0.0
 40
0.0
 40
0.0
 40
0.0
 40
1.0
 40
1.0
 40
1.0
 40
2.0
 40
2.0
 40
2.0
 40
3.0
 40
3.0
 40
3.0
 40
4.0
 40
4.0
 40
4.0
 40
5.0
 40
5.0
 40
5.0
 40
6.0
 40
6.0
 40
6.0
 40
7.0
 40
7.0
 40
7.0
 40
7.0
 10
-3.946701388888888
 20
-10.7376736111111
 30
0.0
 10
-3.946701388888888
 20
-10.7376736111111
 30
0.0
 10
-0.0943956163194444
 20
-10.7376736111111
 30
0.0
 10
-0.0943956163194444
 20
-10.7376736111111
 30
0.0
 10
1.546847873263885
 20
-10.7376736111111
 30
0.0
 10
2.705777994791666
 20
-9.11021050347222
 30
0.0
 10
3.381705729166666
 20
-5.854595269097222
 30
0.0
 10
3.757910156249999
 20
-4.01284722222222
 30
0.0
 10
3.946701388888888
 20
-1.951991102430555
 30
0.0
 10
3.946701388888888
 20
0.328662109375
 30
0.0
 10
3.946701388888888
 20
3.281797960069443
 30
0.0
 10
3.622862413194443
 20
5.703700086805552
 30
0.0
 10
2.976562499999998
 20
7.594368489583332
 30
0.0
 10
2.25171440972222
 20
9.689675564236106
 30
0.0
 10
1.233344184027777
 20
10.7376736111111
 30
0.0
 10
-0.0799262152777778
 20
10.7376736111111
 30
0.0
 10
-0.0799262152777778
 20
10.7376736111111
 30
0.0
 10
-3.946701388888888
 20
10.7376736111111
 30
0.0
 10
-3.946701388888888
 20
10.7376736111111
 30
0.0
 10
-3.946701388888888
 20
10.7376736111111
 30
0.0
 10
-3.946701388888888
 20
-10.7376736111111
 30
0.0
 10
-3.946701388888888
 20
-10.7376736111111
 30
0.0
  0
ENDBLK
  5
259E
330
259A
100
AcDbEntity
  8
0
100
AcDbBlockEnd
  0
BLOCK
  5
25A2
330
259F
100
AcDbEntity
  8
0
 62
     7
100
AcDbBlockBegin
  2
AI9-BLK4
 70
     0
 10
0.0
 20
0.0
 30
0.0
  3
AI9-BLK4
  1

  0
SPLINE
  5
25A0
330
259F
100
AcDbEntity
  8
LAYER_1
 62
     7
100
AcDbSpline
210
0.0
220
0.0
230
1.0
 70
    11
 71
     3
 72
    26
 73
    22
 74
     0
 42
0.0000000001
 43
0.0000000001
 40
0.0
 40
0.0
 40
0.0
 40
0.0
 40
1.0
 40
1.0
 40
1.0
 40
2.0
 40
2.0
 40
2.0
 40
3.0
 40
3.0
 40
3.0
 40
4.0
 40
4.0
 40
4.0
 40
5.0
 40
5.0
 40
5.0
 40
6.0
 40
6.0
 40
6.0
 40
7.0
 40
7.0
 40
7.0
 40
7.0
 10
-2.645833333333333
 20
0.9039930555555551
 30
0.0
 10
-2.645833333333333
 20
0.9039930555555551
 30
0.0
 10
-2.645833333333333
 20
8.180034722222217
 30
0.0
 10
-2.645833333333333
 20
8.180034722222217
 30
0.0
 10
-2.645833333333333
 20
8.180034722222217
 30
0.0
 10
0.465087890625
 20
8.180034722222217
 30
0.0
 10
0.465087890625
 20
8.180034722222217
 30
0.0
 10
0.9026150173611108
 20
8.180034722222217
 30
0.0
 10
1.24988064236111
 20
8.034651692708331
 30
0.0
 10
1.506884765625
 20
7.745263671874997
 30
0.0
 10
2.001600477430554
 20
7.194048394097221
 30
0.0
 10
2.248958333333332
 20
6.160519748263887
 30
0.0
 10
2.248958333333332
 20
4.643299696180553
 30
0.0
 10
2.248958333333332
 20
3.232188585069443
 30
0.0
 10
2.072569444444444
 20
2.256537543402775
 30
0.0
 10
1.720480685763888
 20
1.715657552083333
 30
0.0
 10
1.368391927083333
 20
1.174088541666665
 30
0.0
 10
0.8929687499999998
 20
0.9039930555555551
 30
0.0
 10
0.2942111545138888
 20
0.9039930555555551
 30
0.0
 10
0.2942111545138888
 20
0.9039930555555551
 30
0.0
 10
-2.645833333333333
 20
0.9039930555555551
 30
0.0
 10
-2.645833333333333
 20
0.9039930555555551
 30
0.0
  0
SPLINE
  5
25A1
330
259F
100
AcDbEntity
  8
LAYER_1
 62
     7
100
AcDbSpline
210
0.0
220
0.0
230
1.0
 70
    11
 71
     3
 72
    68
 73
    64
 74
     0
 42
0.0000000001
 43
0.0000000001
 40
0.0
 40
0.0
 40
0.0
 40
0.0
 40
1.0
 40
1.0
 40
1.0
 40
2.0
 40
2.0
 40
2.0
 40
3.0
 40
3.0
 40
3.0
 40
4.0
 40
4.0
 40
4.0
 40
5.0
 40
5.0
 40
5.0
 40
6.0
 40
6.0
 40
6.0
 40
7.0
 40
7.0
 40
7.0
 40
8.0
 40
8.0
 40
8.0
 40
9.0
 40
9.0
 40
9.0
 40
10.0
 40
10.0
 40
10.0
 40
11.0
 40
11.0
 40
11.0
 40
12.0
 40
12.0
 40
12.0
 40
13.0
 40
13.0
 40
13.0
 40
14.0
 40
14.0
 40
14.0
 40
15.0
 40
15.0
 40
15.0
 40
16.0
 40
16.0
 40
16.0
 40
17.0
 40
17.0
 40
17.0
 40
18.0
 40
18.0
 40
18.0
 40
19.0
 40
19.0
 40
19.0
 40
20.0
 40
20.0
 40
20.0
 40
21.0
 40
21.0
 40
21.0
 40
21.0
 10
-3.968749999999998
 20
-10.7376736111111
 30
0.0
 10
-3.968749999999998
 20
-10.7376736111111
 30
0.0
 10
-2.645833333333333
 20
-10.7376736111111
 30
0.0
 10
-2.645833333333333
 20
-10.7376736111111
 30
0.0
 10
-2.645833333333333
 20
-10.7376736111111
 30
0.0
 10
-2.645833333333333
 20
-1.521354166666665
 30
0.0
 10
-2.645833333333333
 20
-1.521354166666665
 30
0.0
 10
-2.645833333333333
 20
-1.521354166666665
 30
0.0
 10
0.2390896267361111
 20
-1.521354166666665
 30
0.0
 10
0.2390896267361111
 20
-1.521354166666665
 30
0.0
 10
0.7599880642361111
 20
-1.521354166666665
 30
0.0
 10
1.143771701388887
 20
-1.65295681423611
 30
0.0
 10
1.390440538194444
 20
-1.916162109374999
 30
0.0
 10
1.816254340277773
 20
-2.39434136284722
 30
0.0
 10
2.04363064236111
 20
-3.335541449652775
 30
0.0
 10
2.072569444444444
 20
-4.739762369791666
 30
0.0
 10
2.072569444444444
 20
-4.739762369791666
 30
0.0
 10
2.160763888888888
 20
-8.324039713541665
 30
0.0
 10
2.160763888888888
 20
-8.324039713541665
 30
0.0
 10
2.18005642361111
 20
-9.163264973958332
 30
0.0
 10
2.202794053819443
 20
-9.728949652777775
 30
0.0
 10
2.227598741319444
 20
-10.02109374999998
 30
0.0
 10
2.252403428819443
 20
-10.31392686631944
 30
0.0
 10
2.28892144097222
 20
-10.55301649305555
 30
0.0
 10
2.33853081597222
 20
-10.7376736111111
 30
0.0
 10
2.33853081597222
 20
-10.7376736111111
 30
0.0
 10
3.968749999999998
 20
-10.7376736111111
 30
0.0
 10
3.968749999999998
 20
-10.7376736111111
 30
0.0
 10
3.968749999999998
 20
-10.7376736111111
 30
0.0
 10
3.968749999999998
 20
-10.25260416666666
 30
0.0
 10
3.968749999999998
 20
-10.25260416666666
 30
0.0
 10
3.766867404513888
 20
-10.05830078125
 30
0.0
 10
3.625618489583333
 20
-9.621462673611112
 30
0.0
 10
3.545692274305555
 20
-8.942089843749997
 30
0.0
 10
3.49470486111111
 20
-8.543836805555555
 30
0.0
 10
3.459564887152775
 20
-7.937499999999999
 30
0.0
 10
3.439583333333333
 20
-7.121701388888887
 30
0.0
 10
3.439583333333333
 20
-7.121701388888887
 30
0.0
 10
3.395486111111106
 20
-4.232644314236106
 30
0.0
 10
3.395486111111106
 20
-4.232644314236106
 30
0.0
 10
3.375504557291666
 20
-2.981385633680555
 30
0.0
 10
3.26870659722222
 20
-2.077392578125
 30
0.0
 10
3.075781249999999
 20
-1.522043185763888
 30
0.0
 10
2.882166883680555
 20
-0.9666937934027776
 30
0.0
 10
2.592089843749999
 20
-0.5188313802083333
 30
0.0
 10
2.204861111111104
 20
-0.1770779079861111
 30
0.0
 10
2.63618706597222
 20
0.3197048611111111
 30
0.0
 10
2.971739366319443
 20
0.9770290798611107
 30
0.0
 10
3.211518012152775
 20
1.79558376736111
 30
0.0
 10
3.451296657986107
 20
2.613449435763888
 30
0.0
 10
3.571874999999999
 20
3.66558159722222
 30
0.0
 10
3.571874999999999
 20
4.951291232638888
 30
0.0
 10
3.571874999999999
 20
7.415912543402777
 30
0.0
 10
3.124701605902775
 20
9.106076388888887
 30
0.0
 10
2.231043836805555
 20
10.02178276909722
 30
0.0
 10
1.759754774305553
 20
10.498583984375
 30
0.0
 10
1.163753255208332
 20
10.7376736111111
 30
0.0
 10
0.443039279513889
 20
10.7376736111111
 30
0.0
 10
0.443039279513889
 20
10.7376736111111
 30
0.0
 10
-3.968749999999998
 20
10.7376736111111
 30
0.0
 10
-3.968749999999998
 20
10.7376736111111
 30
0.0
 10
-3.968749999999998
 20
10.7376736111111
 30
0.0
 10
-3.968749999999998
 20
-10.7376736111111
 30
0.0
 10
-3.968749999999998
 20
-10.7376736111111
 30
0.0
  0
ENDBLK
  5
25A3
330
259F
100
AcDbEntity
  8
0
100
AcDbBlockEnd
  0
BLOCK
  5
25A7
330
25A4
100
AcDbEntity
  8
0
 62
     7
100
AcDbBlockBegin
  2
AI9-BLK3
 70
     0
 10
0.0
 20
0.0
 30
0.0
  3
AI9-BLK3
  1

  0
LWPOLYLINE
  5
25A5
330
25A4
100
AcDbEntity
  8
LAYER_1
 62
     7
100
AcDbPolyline
 90
        4
 70
     1
 43
0.0
 10
-0.6613722059461809
 20
10.7376736111111
 10
0.6613722059461809
 20
10.7376736111111
 10
0.6613722059461809
 20
-10.7376736111111
 10
-0.6613722059461809
 20
-10.7376736111111
  0
HATCH
  5
25A6
330
25A4
100
AcDbEntity
  8
LAYER_1
 62
     7
100
AcDbHatch
 10
0.0
 20
0.0
 30
0.0
210
0.0
220
0.0
230
1.0
  2
SOLID
 70
     1
 71
     0
 91
        1
 92
        3
 72
     0
 73
     1
 93
        4
 10
-0.6613722059461809
 20
10.7376736111111
 10
0.6613722059461809
 20
10.7376736111111
 10
0.6613722059461809
 20
-10.7376736111111
 10
-0.6613722059461809
 20
-10.7376736111111
 97
        0
 75
     2
 76
     1
 98
        1
 10
0.0
 20
0.0
  0
ENDBLK
  5
25A8
330
25A4
100
AcDbEntity
  8
0
100
AcDbBlockEnd
  0
BLOCK
  5
25AC
330
25A9
100
AcDbEntity
  8
0
 62
     7
100
AcDbBlockBegin
  2
AI9-BLK2
 70
     0
 10
0.0
 20
0.0
 30
0.0
  3
AI9-BLK2
  1

  0
LWPOLYLINE
  5
25AA
330
25A9
100
AcDbEntity
  8
LAYER_1
 62
     7
100
AcDbPolyline
 90
        7
 70
     1
 43
0.0
 10
-2.785704210069443
 20
10.7376736111111
 10
0.0
 20
-7.550960286458332
 10
2.771234809027776
 20
10.7376736111111
 10
4.233333333333331
 20
10.7376736111111
 10
0.6910861545138888
 20
-10.7376736111111
 10
-0.7055555555555558
 20
-10.7376736111111
 10
-4.233333333333331
 20
10.7376736111111
  0
HATCH
  5
25AB
330
25A9
100
AcDbEntity
  8
LAYER_1
 62
     7
100
AcDbHatch
 10
0.0
 20
0.0
 30
0.0
210
0.0
220
0.0
230
1.0
  2
SOLID
 70
     1
 71
     0
 91
        1
 92
        3
 72
     0
 73
     1
 93
        7
 10
-2.785704210069443
 20
10.7376736111111
 10
0.0
 20
-7.550960286458332
 10
2.771234809027776
 20
10.7376736111111
 10
4.233333333333331
 20
10.7376736111111
 10
0.6910861545138888
 20
-10.7376736111111
 10
-0.7055555555555558
 20
-10.7376736111111
 10
-4.233333333333331
 20
10.7376736111111
 97
        0
 75
     2
 76
     1
 98
        1
 10
0.0
 20
0.0
  0
ENDBLK
  5
25AD
330
25A9
100
AcDbEntity
  8
0
100
AcDbBlockEnd
  0
BLOCK
  5
25B1
330
25AE
100
AcDbEntity
  8
0
 62
     7
100
AcDbBlockBegin
  2
AI9-BLK1
 70
     0
 10
0.0
 20
0.0
 30
0.0
  3
AI9-BLK1
  1

  0
LWPOLYLINE
  5
25AF
330
25AE
100
AcDbEntity
  8
LAYER_1
 62
     7
100
AcDbPolyline
 90
       12
 70
     1
 43
0.0
 10
-3.571874999999999
 20
10.7376736111111
 10
3.483680555555555
 20
10.7376736111111
 10
3.483680555555555
 20
8.091840277777777
 10
-2.248958333333332
 20
8.091840277777777
 10
-2.248958333333332
 20
1.565451388888888
 10
3.042708333333333
 20
1.565451388888888
 10
3.042708333333333
 20
-0.9039930555555551
 10
-2.248958333333332
 20
-0.9039930555555551
 10
-2.248958333333332
 20
-8.180034722222217
 10
3.571874999999999
 20
-8.180034722222217
 10
3.571874999999999
 20
-10.7376736111111
 10
-3.571874999999999
 20
-10.7376736111111
  0
HATCH
  5
25B0
330
25AE
100
AcDbEntity
  8
LAYER_1
 62
     7
100
AcDbHatch
 10
0.0
 20
0.0
 30
0.0
210
0.0
220
0.0
230
1.0
  2
SOLID
 70
     1
 71
     0
 91
        1
 92
        3
 72
     0
 73
     1
 93
       12
 10
-3.571874999999999
 20
10.7376736111111
 10
3.483680555555555
 20
10.7376736111111
 10
3.483680555555555
 20
8.091840277777777
 10
-2.248958333333332
 20
8.091840277777777
 10
-2.248958333333332
 20
1.565451388888888
 10
3.042708333333333
 20
1.565451388888888
 10
3.042708333333333
 20
-0.9039930555555551
 10
-2.248958333333332
 20
-0.9039930555555551
 10
-2.248958333333332
 20
-8.180034722222217
 10
3.571874999999999
 20
-8.180034722222217
 10
3.571874999999999
 20
-10.7376736111111
 10
-3.571874999999999
 20
-10.7376736111111
 97
        0
 75
     2
 76
     1
 98
        1
 10
0.0
 20
0.0
  0
ENDBLK
  5
25B2
330
25AE
100
AcDbEntity
  8
0
100
AcDbBlockEnd
  0
BLOCK
  5
25D6
330
25B3
100
AcDbEntity
  8
0
100
AcDbBlockBegin
  2
HD_LLC_logo_OT5
 70
     0
 10
0.0
 20
0.0
 30
0.0
  3
HD_LLC_logo_OT5
  1

  0
SPLINE
  5
25B4
102
{ACAD_REACTORS
330
25D4
102
}
330
25B3
100
AcDbEntity
  8
LAYER_1
 62
     7
100
AcDbSpline
210
0.0
220
0.0
230
1.0
 70
    11
 71
     3
 72
   113
 73
   109
 74
     0
 42
0.0000000001
 43
0.0000000001
 40
0.0
 40
0.0
 40
0.0
 40
0.0
 40
1.0
 40
1.0
 40
1.0
 40
2.0
 40
2.0
 40
2.0
 40
3.0
 40
3.0
 40
3.0
 40
4.0
 40
4.0
 40
4.0
 40
5.0
 40
5.0
 40
5.0
 40
6.0
 40
6.0
 40
6.0
 40
7.0
 40
7.0
 40
7.0
 40
8.0
 40
8.0
 40
8.0
 40
9.0
 40
9.0
 40
9.0
 40
10.0
 40
10.0
 40
10.0
 40
11.0
 40
11.0
 40
11.0
 40
12.0
 40
12.0
 40
12.0
 40
13.0
 40
13.0
 40
13.0
 40
14.0
 40
14.0
 40
14.0
 40
15.0
 40
15.0
 40
15.0
 40
16.0
 40
16.0
 40
16.0
 40
17.0
 40
17.0
 40
17.0
 40
18.0
 40
18.0
 40
18.0
 40
19.0
 40
19.0
 40
19.0
 40
20.0
 40
20.0
 40
20.0
 40
21.0
 40
21.0
 40
21.0
 40
22.0
 40
22.0
 40
22.0
 40
23.0
 40
23.0
 40
23.0
 40
24.0
 40
24.0
 40
24.0
 40
25.0
 40
25.0
 40
25.0
 40
26.0
 40
26.0
 40
26.0
 40
27.0
 40
27.0
 40
27.0
 40
28.0
 40
28.0
 40
28.0
 40
29.0
 40
29.0
 40
29.0
 40
30.0
 40
30.0
 40
30.0
 40
31.0
 40
31.0
 40
31.0
 40
32.0
 40
32.0
 40
32.0
 40
33.0
 40
33.0
 40
33.0
 40
34.0
 40
34.0
 40
34.0
 40
35.0
 40
35.0
 40
35.0
 40
36.0
 40
36.0
 40
36.0
 40
36.0
 10
193.3039632161458
 20
186.1548733181423
 30
0.0
 10
193.3039632161458
 20
186.1860514322916
 30
0.0
 10
193.3039632161458
 20
219.6932223849826
 30
0.0
 10
193.3039632161458
 20
219.6932223849826
 30
0.0
 10
193.3039632161458
 20
219.6932223849826
 30
0.0
 10
193.2974175347219
 20
219.7488606770833
 30
0.0
 10
193.2974175347219
 20
219.7488606770833
 30
0.0
 10
191.5293945312499
 20
235.455740017361
 30
0.0
 10
175.1458984374999
 20
235.2467949761284
 30
0.0
 10
174.9808783637151
 20
235.2428331163193
 30
0.0
 10
174.9808783637151
 20
235.2428331163193
 30
0.0
 10
125.8827555338541
 20
235.2430053710937
 30
0.0
 10
125.8827555338541
 20
235.2430053710937
 30
0.0
 10
125.8827555338541
 20
235.2430053710937
 30
0.0
 10
125.8827555338541
 20
255.5278998480901
 30
0.0
 10
125.8827555338541
 20
255.5278998480901
 30
0.0
 10
125.8827555338541
 20
255.5278998480901
 30
0.0
 10
84.5626247829861
 20
255.5278998480901
 30
0.0
 10
84.5626247829861
 20
255.5278998480901
 30
0.0
 10
84.5626247829861
 20
255.5278998480901
 30
0.0
 10
84.55711263020829
 20
233.7919311523436
 30
0.0
 10
84.55711263020829
 20
233.7919311523436
 30
0.0
 10
84.55711263020829
 20
233.7919311523436
 30
0.0
 10
64.42052951388888
 20
233.7919311523436
 30
0.0
 10
64.42052951388888
 20
233.7919311523436
 30
0.0
 10
64.42052951388888
 20
233.7919311523436
 30
0.0
 10
64.41501736111111
 20
255.5278998480901
 30
0.0
 10
64.41501736111111
 20
255.5278998480901
 30
0.0
 10
64.41501736111111
 20
255.5278998480901
 30
0.0
 10
23.91757541232637
 20
255.5278998480901
 30
0.0
 10
23.91757541232637
 20
255.5278998480901
 30
0.0
 10
23.91757541232637
 20
255.5278998480901
 30
0.0
 10
23.91757541232637
 20
233.2393378363715
 30
0.0
 10
23.91757541232637
 20
233.2393378363715
 30
0.0
 10
23.91757541232637
 20
233.2393378363715
 30
0.0
 10
43.65624999999999
 20
233.2393378363715
 30
0.0
 10
43.65624999999999
 20
233.2393378363715
 30
0.0
 10
43.65624999999999
 20
233.2393378363715
 30
0.0
 10
43.65624999999999
 20
211.5188720703125
 30
0.0
 10
43.65624999999999
 20
211.5188720703125
 30
0.0
 10
43.65624999999999
 20
211.5188720703125
 30
0.0
 10
23.91757541232637
 20
211.5188720703125
 30
0.0
 10
23.91757541232637
 20
211.5188720703125
 30
0.0
 10
23.91757541232637
 20
211.5188720703125
 30
0.0
 10
23.91757541232637
 20
189.2303100585936
 30
0.0
 10
23.91757541232637
 20
189.2303100585936
 30
0.0
 10
23.91757541232637
 20
189.2303100585936
 30
0.0
 10
64.41501736111111
 20
189.2303100585936
 30
0.0
 10
64.41501736111111
 20
189.2303100585936
 30
0.0
 10
64.41501736111111
 20
189.2303100585936
 30
0.0
 10
64.42052951388888
 20
211.069976128472
 30
0.0
 10
64.42052951388888
 20
211.069976128472
 30
0.0
 10
64.42052951388888
 20
211.069976128472
 30
0.0
 10
84.55711263020829
 20
211.069976128472
 30
0.0
 10
84.55711263020829
 20
211.069976128472
 30
0.0
 10
84.55711263020829
 20
211.069976128472
 30
0.0
 10
84.5626247829861
 20
189.2303100585936
 30
0.0
 10
84.5626247829861
 20
189.2303100585936
 30
0.0
 10
84.5626247829861
 20
189.2303100585936
 30
0.0
 10
125.8827555338541
 20
189.2303100585936
 30
0.0
 10
125.8827555338541
 20
189.2303100585936
 30
0.0
 10
125.8827555338541
 20
189.2303100585936
 30
0.0
 10
125.8827555338541
 20
211.5188720703125
 30
0.0
 10
125.8827555338541
 20
211.5188720703125
 30
0.0
 10
125.8827555338541
 20
211.5188720703125
 30
0.0
 10
105.3213921440971
 20
211.5188720703125
 30
0.0
 10
105.3213921440971
 20
211.5188720703125
 30
0.0
 10
105.3213921440971
 20
211.5188720703125
 30
0.0
 10
105.3213921440971
 20
233.2393378363715
 30
0.0
 10
105.3213921440971
 20
233.2393378363715
 30
0.0
 10
105.3213921440971
 20
233.2393378363715
 30
0.0
 10
175.0046495225693
 20
233.243127441406
 30
0.0
 10
175.0046495225693
 20
233.243127441406
 30
0.0
 10
175.6268337673611
 20
233.2560465494791
 30
0.0
 10
189.7165852864583
 20
233.3962619357638
 30
0.0
 10
191.3037407769094
 20
219.5690266927083
 30
0.0
 10
191.3037407769094
 20
219.4332899305555
 30
0.0
 10
191.3037407769094
 20
186.1142211914062
 30
0.0
 10
191.3037407769094
 20
186.1142211914062
 30
0.0
 10
191.3037407769094
 20
186.1142211914062
 30
0.0
 10
191.3051188151039
 20
186.0880384657115
 30
0.0
 10
191.3051188151039
 20
186.0880384657115
 30
0.0
 10
191.3054633246526
 20
186.0787367078991
 30
0.0
 10
191.3109754774304
 20
185.9566080729166
 30
0.0
 10
191.3109754774304
 20
185.7399115668401
 30
0.0
 10
191.3109754774304
 20
184.2090833875865
 30
0.0
 10
191.0488037109374
 20
177.9643310546874
 30
0.0
 10
186.9866916232638
 20
173.5652886284722
 30
0.0
 10
184.2540418836804
 20
170.6064683702255
 30
0.0
 10
180.3224989149304
 20
169.0308539496526
 30
0.0
 10
175.300927734375
 20
168.8825425889756
 30
0.0
 10
175.300927734375
 20
168.8825425889756
 30
0.0
 10
107.0094889322916
 20
168.8828870985243
 30
0.0
 10
107.0094889322916
 20
168.8828870985243
 30
0.0
 10
107.0094889322916
 20
168.8828870985243
 30
0.0
 10
107.0094889322916
 20
166.8830091688368
 30
0.0
 10
107.0094889322916
 20
166.8830091688368
 30
0.0
 10
107.0094889322916
 20
166.8830091688368
 30
0.0
 10
175.3305555555555
 20
166.8830091688368
 30
0.0
 10
175.3305555555555
 20
166.8830091688368
 30
0.0
 10
180.9467502170138
 20
167.0485460069444
 30
0.0
 10
185.3571614583333
 20
168.8448187934026
 30
0.0
 10
188.4687717013888
 20
172.2223904079861
 30
0.0
 10
192.9649658203124
 20
177.1034016927083
 30
0.0
 10
193.3136094835069
 20
183.7202243381076
 30
0.0
 10
193.3136094835069
 20
185.6520616319443
 30
0.0
 10
193.3136094835069
 20
185.9247409396701
 30
0.0
 10
193.3070638020833
 20
186.0868326822916
 30
0.0
 10
193.3039632161458
 20
186.1548733181423
 30
0.0
  0
INSERT
  5
25B5
102
{ACAD_REACTORS
330
25D5
102
}
330
25B3
100
AcDbEntity
  8
LAYER_1
 62
     7
100
AcDbBlockReference
  2
AI9-BLK14
 10
159.5625257703993
 20
200.5118781195744
 30
0.0
  0
INSERT
  5
25B6
330
25B3
100
AcDbEntity
  8
LAYER_1
 62
     7
100
AcDbBlockReference
  2
AI9-BLK13
 10
27.69615614149305
 20
179.2145562065971
 30
0.0
 42
0.9200000000000001
  0
INSERT
  5
25B7
102
{ACAD_REACTORS
330
25C2
102
}
330
25B3
100
AcDbEntity
  8
LAYER_1
 62
     7
100
AcDbBlockReference
  2
AI9-BLK11
 10
44.76591525607638
 20
179.2145562065971
 30
0.0
 42
0.9200000000000001
  0
INSERT
  5
25B8
102
{ACAD_REACTORS
330
25D0
102
}
330
25B3
100
AcDbEntity
  8
LAYER_1
 62
     7
100
AcDbBlockReference
  2
AI9-BLK10
 10
54.04665798611111
 20
179.2145562065971
 30
0.0
 42
0.9200000000000001
  0
INSERT
  5
25B9
102
{ACAD_REACTORS
330
25CF
102
}
330
25B3
100
AcDbEntity
  8
LAYER_1
 62
     7
100
AcDbBlockReference
  2
AI9-BLK9
 10
62.79013807508679
 20
179.2145562065971
 30
0.0
 42
0.9
  0
INSERT
  5
25BA
330
25B3
100
AcDbEntity
  8
LAYER_1
 62
     7
100
AcDbBlockReference
  2
AI9-BLK8
 10
71.03046196831595
 20
179.2145562065971
 30
0.0
 42
0.9200000000000001
  0
INSERT
  5
25BB
330
25B3
100
AcDbEntity
  8
LAYER_1
 62
     7
100
AcDbBlockReference
  2
AI9-BLK7
 10
76.93793945312498
 20
179.2145562065971
 30
0.0
 42
0.9200000000000001
  0
INSERT
  5
25BC
102
{ACAD_REACTORS
330
25C3
102
}
330
25B3
100
AcDbEntity
  8
LAYER_1
 62
     7
100
AcDbBlockReference
  2
AI9-BLK6
 10
82.55602891710069
 20
179.2145562065971
 30
0.0
 42
0.9
  0
INSERT
  5
25BD
102
{ACAD_REACTORS
330
25D1
102
}
330
25B3
100
AcDbEntity
  8
LAYER_1
 62
     7
100
AcDbBlockReference
  2
AI9-BLK5
 10
94.32430284288193
 20
179.2145562065971
 30
0.0
 42
0.9200000000000001
  0
INSERT
  5
25BE
102
{ACAD_REACTORS
330
25D2
102
}
330
25B3
100
AcDbEntity
  8
LAYER_1
 62
     7
100
AcDbBlockReference
  2
AI9-BLK4
 10
103.2081705729166
 20
179.2145562065971
 30
0.0
 42
0.9200000000000001
  0
INSERT
  5
25BF
330
25B3
100
AcDbEntity
  8
LAYER_1
 62
     7
100
AcDbBlockReference
  2
AI9-BLK3
 10
108.850978597005
 20
179.2145562065971
 30
0.0
 42
0.9200000000000001
  0
INSERT
  5
25C0
330
25B3
100
AcDbEntity
  8
LAYER_1
 62
     7
100
AcDbBlockReference
  2
AI9-BLK2
 10
114.2045708550346
 20
179.2145562065971
 30
0.0
 42
0.9200000000000001
  0
INSERT
  5
25C1
330
25B3
100
AcDbEntity
  8
LAYER_1
 62
     7
100
AcDbBlockReference
  2
AI9-BLK1
 10
122.4125108506944
 20
179.2145562065971
 30
0.0
 42
0.9200000000000001
  0
HATCH
  5
25C2
330
25B3
100
AcDbEntity
  8
0
  6
Continuous
100
AcDbHatch
 10
0.0
 20
0.0
 30
0.0
210
0.0
220
0.0
230
1.0
  2
SOLID
 70
     1
 71
     1
 91
        2
 92
       16
 93
        1
 72
     4
 94
        3
 73
     0
 74
     0
 95
       26
 96
       22
 40
0.0
 40
0.0
 40
0.0
 40
0.0
 40
1.0
 40
1.0
 40
1.0
 40
2.0
 40
2.0
 40
2.0
 40
3.0
 40
3.0
 40
3.0
 40
4.0
 40
4.0
 40
4.0
 40
5.0
 40
5.0
 40
5.0
 40
6.0
 40
6.0
 40
6.0
 40
7.0
 40
7.0
 40
7.0
 40
7.0
 10
42.12008192274304
 20
180.0462298177081
 10
42.12008192274304
 20
180.0462298177081
 10
42.12008192274304
 20
186.7401881510414
 10
42.12008192274304
 20
186.7401881510414
 10
42.12008192274304
 20
186.7401881510414
 10
45.23100314670138
 20
186.7401881510414
 10
45.23100314670138
 20
186.7401881510414
 10
45.66853027343749
 20
186.7401881510414
 10
46.01579589843749
 20
186.6064357638887
 10
46.27280002170138
 20
186.3401987847219
 10
46.76751573350694
 20
185.8330807291664
 10
47.01487358940972
 20
184.8822343749997
 10
47.01487358940972
 20
183.4863919270832
 10
47.01487358940972
 20
182.188169704861
 10
46.83848470052082
 20
181.2905707465276
 10
46.48639594184028
 20
180.7929611545137
 10
46.13430718315971
 20
180.2947176649304
 10
45.65888400607638
 20
180.0462298177081
 10
45.06012641059028
 20
180.0462298177081
 10
45.06012641059028
 20
180.0462298177081
 10
42.12008192274304
 20
180.0462298177081
 10
42.12008192274304
 20
180.0462298177081
 97
        1
330
25B7
 92
        1
 93
        1
 72
     4
 94
        3
 73
     0
 74
     0
 95
       68
 96
       64
 40
0.0
 40
0.0
 40
0.0
 40
0.0
 40
1.0
 40
1.0
 40
1.0
 40
2.0
 40
2.0
 40
2.0
 40
3.0
 40
3.0
 40
3.0
 40
4.0
 40
4.0
 40
4.0
 40
5.0
 40
5.0
 40
5.0
 40
6.0
 40
6.0
 40
6.0
 40
7.0
 40
7.0
 40
7.0
 40
8.0
 40
8.0
 40
8.0
 40
9.0
 40
9.0
 40
9.0
 40
10.0
 40
10.0
 40
10.0
 40
11.0
 40
11.0
 40
11.0
 40
12.0
 40
12.0
 40
12.0
 40
13.0
 40
13.0
 40
13.0
 40
14.0
 40
14.0
 40
14.0
 40
15.0
 40
15.0
 40
15.0
 40
16.0
 40
16.0
 40
16.0
 40
17.0
 40
17.0
 40
17.0
 40
18.0
 40
18.0
 40
18.0
 40
19.0
 40
19.0
 40
19.0
 40
20.0
 40
20.0
 40
20.0
 40
21.0
 40
21.0
 40
21.0
 40
21.0
 10
40.79716525607638
 20
169.3358964843748
 10
40.79716525607638
 20
169.3358964843748
 10
42.12008192274304
 20
169.3358964843748
 10
42.12008192274304
 20
169.3358964843748
 10
42.12008192274304
 20
169.3358964843748
 10
42.12008192274304
 20
177.8149103732637
 10
42.12008192274304
 20
177.8149103732637
 10
42.12008192274304
 20
177.8149103732637
 10
45.00500488281249
 20
177.8149103732637
 10
45.00500488281249
 20
177.8149103732637
 10
45.52590332031249
 20
177.8149103732637
 10
45.90968695746528
 20
177.6938359374998
 10
46.15635579427083
 20
177.451687065972
 10
46.58216959635415
 20
177.0117621527776
 10
46.80954589843749
 20
176.1458580729164
 10
46.83848470052082
 20
174.8539748263887
 10
46.83848470052082
 20
174.8539748263887
 10
46.92667914496527
 20
171.5564396701386
 10
46.92667914496527
 20
171.5564396701386
 10
46.94597167968749
 20
170.7843524305554
 10
46.96870930989581
 20
170.2639225260415
 10
46.99351399739582
 20
169.9951499565971
 10
47.01831868489581
 20
169.7257434895831
 10
47.0548366970486
 20
169.5057810329859
 10
47.10444607204859
 20
169.3358964843748
 10
47.10444607204859
 20
169.3358964843748
 10
48.73466525607638
 20
169.3358964843748
 10
48.73466525607638
 20
169.3358964843748
 10
48.73466525607638
 20
169.3358964843748
 10
48.73466525607638
 20
169.7821603732636
 10
48.73466525607638
 20
169.7821603732636
 10
48.53278266059028
 20
169.9609194878471
 10
48.39153374565971
 20
170.3628105468748
 10
48.31160753038194
 20
170.9878335503471
 10
48.26062011718749
 20
171.3542263454858
 10
48.22548014322915
 20
171.9120562065971
 10
48.20549858940971
 20
172.6625909288193
 10
48.20549858940971
 20
172.6625909288193
 10
48.16140136718749
 20
175.3205234374999
 10
48.16140136718749
 20
175.3205234374999
 10
48.14141981336803
 20
176.4716814236109
 10
48.03462185329859
 20
177.3033550347219
 10
47.84169650607638
 20
177.8142764756942
 10
47.64808213975693
 20
178.3251979166665
 10
47.35800509982638
 20
178.7372313368054
 10
46.97077636718749
 20
179.0516445312498
 10
47.4021023220486
 20
179.5086846788193
 10
47.73765462239582
 20
180.1134229600693
 10
47.97743326822915
 20
180.8664932725692
 10
48.21721191406249
 20
181.6189296874999
 10
48.33779025607638
 20
182.5868912760414
 10
48.33779025607638
 20
183.7697441406248
 10
48.33779025607638
 20
186.0371957465275
 10
47.89061686197914
 20
187.5921464843749
 10
46.99695909288194
 20
188.4345963541665
 10
46.52567003038194
 20
188.8732534722221
 10
45.92966851128472
 20
189.0932159288193
 10
45.20895453559027
 20
189.0932159288193
 10
45.20895453559027
 20
189.0932159288193
 10
40.79716525607638
 20
189.0932159288193
 10
40.79716525607638
 20
189.0932159288193
 10
40.79716525607638
 20
189.0932159288193
 10
40.79716525607638
 20
169.3358964843748
 10
40.79716525607638
 20
169.3358964843748
 97
        0
 75
     0
 76
     1
 98
        0
  0
HATCH
  5
25C3
330
25B3
100
AcDbEntity
  8
0
  6
Continuous
100
AcDbHatch
 10
0.0
 20
0.0
 30
0.0
210
0.0
220
0.0
230
1.0
  2
SOLID
 70
     1
 71
     1
 91
        1
 92
        1
 93
        1
 72
     4
 94
        3
 73
     0
 74
     0
 95
       59
 96
       55
 40
0.0
 40
0.0
 40
0.0
 40
0.0
 40
1.0
 40
1.0
 40
1.0
 40
2.0
 40
2.0
 40
2.0
 40
3.0
 40
3.0
 40
3.0
 40
4.0
 40
4.0
 40
4.0
 40
5.0
 40
5.0
 40
5.0
 40
6.0
 40
6.0
 40
6.0
 40
7.0
 40
7.0
 40
7.0
 40
8.0
 40
8.0
 40
8.0
 40
9.0
 40
9.0
 40
9.0
 40
10.0
 40
10.0
 40
10.0
 40
11.0
 40
11.0
 40
11.0
 40
12.0
 40
12.0
 40
12.0
 40
13.0
 40
13.0
 40
13.0
 40
14.0
 40
14.0
 40
14.0
 40
15.0
 40
15.0
 40
15.0
 40
16.0
 40
16.0
 40
16.0
 40
17.0
 40
17.0
 40
17.0
 40
18.0
 40
18.0
 40
18.0
 40
18.0
 10
85.61871880425345
 20
187.4658355034721
 10
86.29120144314233
 20
186.1797124565971
 10
86.66671685112847
 20
184.7193364800346
 10
86.7452650282118
 20
183.0840874565969
 10
86.7452650282118
 20
183.0840874565969
 10
85.42234836154511
 20
183.0840874565969
 10
85.42234836154511
 20
183.0840874565969
 10
85.27696533203123
 20
184.315640190972
 10
84.99171142578125
 20
185.2917046440971
 10
84.56589762369791
 20
186.0122808159719
 10
84.14008382161458
 20
186.7322368706595
 10
83.53994818793401
 20
187.092524956597
 10
82.76617974175344
 20
187.092524956597
 10
81.81740044487847
 20
187.092524956597
 10
81.05258924696178
 20
186.4240386284721
 10
80.47243516710068
 20
185.0883062065971
 10
79.89159206814234
 20
183.7525737847219
 10
79.6015150282118
 20
181.7049468315971
 10
79.6015150282118
 20
178.9454253472221
 10
79.6015150282118
 20
176.684478081597
 10
79.86265326605901
 20
174.8514116753471
 10
80.38561876085069
 20
173.4456060112846
 10
80.90789523654512
 20
172.0391802300345
 10
81.69199896918403
 20
171.3365874565971
 10
82.73724093967013
 20
171.3365874565971
 10
83.69497748480901
 20
171.3365874565971
 10
84.42120361328125
 20
172.0794878472221
 10
84.91523030598958
 20
173.566528862847
 10
85.18601481119791
 20
174.349116753472
 10
85.38445231119791
 20
175.3785112847221
 10
85.51054280598959
 20
176.6547124565971
 10
85.51054280598959
 20
176.6547124565971
 10
86.83345947265625
 20
176.6547124565971
 10
86.83345947265625
 20
176.6547124565971
 10
86.72597249348957
 20
174.6157671440971
 10
86.35114610460069
 20
172.9061040581596
 10
85.70760226779514
 20
171.526343315972
 10
84.93727891710069
 20
169.8650493706596
 10
83.90375027126735
 20
169.0347124565971
 10
82.60701633029514
 20
169.0347124565971
 10
81.48598225911458
 20
169.0347124565971
 10
80.54547119140625
 20
169.7143608940971
 10
79.78479410807292
 20
171.0742778862845
 10
78.78020426432292
 20
172.8726177300345
 10
78.27859836154512
 20
175.6495024956596
 10
78.27859836154512
 20
179.4049321831595
 10
78.27859836154512
 20
182.2562310112846
 10
78.65342475043402
 20
184.594692925347
 10
79.40445556640622
 20
186.4196978081596
 10
80.22301025390625
 20
188.4028325737846
 10
81.34955647786458
 20
189.3943999565971
 10
82.78271620008679
 20
189.3943999565971
 10
84.00090196397568
 20
189.3943999565971
 10
84.94623616536458
 20
188.7513384331595
 10
85.61871880425345
 20
187.4658355034721
 97
        1
330
25BC
 75
     0
 76
     1
 98
        1
 10
0.0
 20
0.0
  0
LINE
  5
25C4
102
{ACAD_REACTORS
330
25D3
102
}
330
25B3
100
AcDbEntity
  8
LAYER_1
 62
     7
100
AcDbLine
 10
34.65766059027778
 20
177.4497853732638
 30
0.0
 11
36.19830729166666
 21
186.1658769531249
 31
0.0
  0
LINE
  5
25C5
102
{ACAD_REACTORS
330
25D3
102
}
330
25B3
100
AcDbEntity
  8
LAYER_1
 62
     7
100
AcDbLine
 10
36.19830729166666
 20
186.1658769531249
 30
0.0
 11
37.67556423611111
 21
177.4497853732638
 31
0.0
  0
LINE
  5
25C6
102
{ACAD_REACTORS
330
25D3
102
}
330
25B3
100
AcDbEntity
  8
LAYER_1
 62
     7
100
AcDbLine
 10
37.67556423611111
 20
177.4497853732638
 30
0.0
 11
34.65766059027778
 21
177.4497853732638
 31
0.0
  0
LINE
  5
25C7
102
{ACAD_REACTORS
330
25D3
102
}
330
25B3
100
AcDbEntity
  8
LAYER_1
 62
     7
100
AcDbLine
 10
31.83957248263888
 20
169.3358964843748
 30
0.0
 11
33.22450086805555
 21
169.3358964843748
 31
0.0
  0
LINE
  5
25C8
102
{ACAD_REACTORS
330
25D3
102
}
330
25B3
100
AcDbEntity
  8
LAYER_1
 62
     7
100
AcDbLine
 10
33.22450086805555
 20
169.3358964843748
 30
0.0
 11
34.27043185763887
 21
175.2590353732638
 31
0.0
  0
LINE
  5
25C9
102
{ACAD_REACTORS
330
25D3
102
}
330
25B3
100
AcDbEntity
  8
LAYER_1
 62
     7
100
AcDbLine
 10
34.27043185763887
 20
175.2590353732638
 30
0.0
 11
38.04694552951389
 21
175.2590353732638
 31
0.0
  0
LINE
  5
25CA
102
{ACAD_REACTORS
330
25D3
102
}
330
25B3
100
AcDbEntity
  8
LAYER_1
 62
     7
100
AcDbLine
 10
38.04694552951389
 20
175.2590353732638
 30
0.0
 11
39.05015733506942
 21
169.3358964843748
 31
0.0
  0
LINE
  5
25CB
102
{ACAD_REACTORS
330
25D3
102
}
330
25B3
100
AcDbEntity
  8
LAYER_1
 62
     7
100
AcDbLine
 10
39.05015733506942
 20
169.3358964843748
 30
0.0
 11
40.43508572048611
 21
169.3358964843748
 31
0.0
  0
LINE
  5
25CC
102
{ACAD_REACTORS
330
25D3
102
}
330
25B3
100
AcDbEntity
  8
LAYER_1
 62
     7
100
AcDbLine
 10
40.43508572048611
 20
169.3358964843748
 30
0.0
 11
36.952783203125
 21
189.0932159288193
 31
0.0
  0
LINE
  5
25CD
102
{ACAD_REACTORS
330
25D3
102
}
330
25B3
100
AcDbEntity
  8
LAYER_1
 62
     7
100
AcDbLine
 10
36.952783203125
 20
189.0932159288193
 30
0.0
 11
35.47828233506943
 21
189.0932159288193
 31
0.0
  0
LINE
  5
25CE
102
{ACAD_REACTORS
330
25D3
102
}
330
25B3
100
AcDbEntity
  8
LAYER_1
 62
     7
100
AcDbLine
 10
35.47828233506943
 20
189.0932159288193
 30
0.0
 11
31.83957248263888
 21
169.3358964843748
 31
0.0
  0
HATCH
  5
25CF
330
25B3
100
AcDbEntity
  8
0
  6
Continuous
100
AcDbHatch
 10
0.0
 20
0.0
 30
0.0
210
0.0
220
0.0
230
1.0
  2
SOLID
 70
     1
 71
     1
 91
        2
 92
       16
 93
        1
 72
     4
 94
        3
 73
     0
 74
     0
 95
       29
 96
       25
 40
0.0
 40
0.0
 40
0.0
 40
0.0
 40
1.0
 40
1.0
 40
1.0
 40
2.0
 40
2.0
 40
2.0
 40
3.0
 40
3.0
 40
3.0
 40
4.0
 40
4.0
 40
4.0
 40
5.0
 40
5.0
 40
5.0
 40
6.0
 40
6.0
 40
6.0
 40
7.0
 40
7.0
 40
7.0
 40
8.0
 40
8.0
 40
8.0
 40
8.0
 10
62.85697292751734
 20
171.3365874565971
 10
61.88338894314235
 20
171.3365874565971
 10
61.18058946397566
 20
172.0714263237844
 10
60.74857449001735
 20
173.5411040581595
 10
60.31587049696178
 20
175.0107817925344
 10
60.10020751953123
 20
176.8165630425344
 10
60.10020751953123
 20
178.9578276909721
 10
60.10020751953123
 20
181.6342534722221
 10
60.35101047092013
 20
183.6589360894095
 10
60.85261637369789
 20
185.032495659722
 10
61.35422227647566
 20
186.4054351128471
 10
62.00741238064235
 20
187.092524956597
 10
62.81218668619789
 20
187.092524956597
 10
63.6369425455729
 20
187.092524956597
 10
64.28806559244789
 20
186.3992339409721
 10
64.76486680772568
 20
185.0126519097221
 10
65.24166802300347
 20
183.6260698784719
 10
65.48006863064235
 20
181.7961040581595
 10
65.48006863064235
 20
179.5239946831596
 10
65.48006863064235
 20
177.3734282769096
 10
65.27336290147568
 20
175.471528862847
 10
64.86132948133678
 20
173.8176763237846
 10
64.4492960611979
 20
172.1632036675345
 10
63.78094753689235
 20
171.3365874565971
 10
62.85697292751734
 20
171.3365874565971
 97
        1
330
25B9
 92
        1
 93
        1
 72
     4
 94
        3
 73
     0
 74
     0
 95
       29
 96
       25
 40
0.0
 40
0.0
 40
0.0
 40
0.0
 40
1.0
 40
1.0
 40
1.0
 40
2.0
 40
2.0
 40
2.0
 40
3.0
 40
3.0
 40
3.0
 40
4.0
 40
4.0
 40
4.0
 40
5.0
 40
5.0
 40
5.0
 40
6.0
 40
6.0
 40
6.0
 40
7.0
 40
7.0
 40
7.0
 40
8.0
 40
8.0
 40
8.0
 40
8.0
 10
62.76119927300346
 20
189.4340874565971
 10
61.47273356119789
 20
189.4340874565971
 10
60.50121663411457
 20
188.239741753472
 10
59.84733751085068
 20
185.8516704644094
 10
59.3395304361979
 20
183.9900786675345
 10
59.08597140842012
 20
181.7514556206596
 10
59.08597140842012
 20
179.1351812065971
 10
59.08597140842012
 20
176.2379937065971
 10
59.38362765842011
 20
173.8412407769095
 10
59.97894015842011
 20
171.9449224175346
 10
60.64246554904511
 20
169.9779106987846
 10
61.56023898654511
 20
168.9950249565971
 10
62.7315714518229
 20
168.9950249565971
 10
63.9904093424479
 20
168.9950249565971
 10
64.95641411675345
 20
170.118677300347
 10
65.63027479383679
 20
172.3659819878471
 10
66.20629475911457
 20
174.279663628472
 10
66.49430474175345
 20
176.6813774956594
 10
66.49430474175345
 20
179.5698833550345
 10
66.49430474175345
 20
182.2388677300344
 10
66.24005669487845
 20
184.4291216362844
 10
65.73293863932289
 20
186.141265190972
 10
65.08870578342011
 20
188.336480034722
 10
64.09789632161457
 20
189.4340874565971
 10
62.76119927300346
 20
189.4340874565971
 97
        0
 75
     0
 76
     1
 98
        0
  0
HATCH
  5
25D0
330
25B3
100
AcDbEntity
  8
0
  6
Continuous
100
AcDbHatch
 10
0.0
 20
0.0
 30
0.0
210
0.0
220
0.0
230
1.0
  2
SOLID
 70
     1
 71
     1
 91
        1
 92
        1
 93
        1
 72
     4
 94
        3
 73
     0
 74
     0
 95
       59
 96
       55
 40
0.0
 40
0.0
 40
0.0
 40
0.0
 40
1.0
 40
1.0
 40
1.0
 40
2.0
 40
2.0
 40
2.0
 40
3.0
 40
3.0
 40
3.0
 40
4.0
 40
4.0
 40
4.0
 40
5.0
 40
5.0
 40
5.0
 40
6.0
 40
6.0
 40
6.0
 40
7.0
 40
7.0
 40
7.0
 40
8.0
 40
8.0
 40
8.0
 40
9.0
 40
9.0
 40
9.0
 40
10.0
 40
10.0
 40
10.0
 40
11.0
 40
11.0
 40
11.0
 40
12.0
 40
12.0
 40
12.0
 40
13.0
 40
13.0
 40
13.0
 40
14.0
 40
14.0
 40
14.0
 40
15.0
 40
15.0
 40
15.0
 40
16.0
 40
16.0
 40
16.0
 40
17.0
 40
17.0
 40
17.0
 40
18.0
 40
18.0
 40
18.0
 40
18.0
 10
49.39440104166666
 20
189.0932159288193
 10
49.39440104166666
 20
189.0932159288193
 10
51.24786241319444
 20
189.0932159288193
 10
51.24786241319444
 20
189.0932159288193
 10
51.24786241319444
 20
189.0932159288193
 10
54.04665798611111
 20
172.3887471788193
 10
54.04665798611111
 20
172.3887471788193
 10
54.04665798611111
 20
172.3887471788193
 10
56.83994140624999
 20
189.0932159288193
 10
56.83994140624999
 20
189.0932159288193
 10
56.83994140624999
 20
189.0932159288193
 10
58.69891493055554
 20
189.0932159288193
 10
58.69891493055554
 20
189.0932159288193
 10
58.69891493055554
 20
189.0932159288193
 10
58.69891493055554
 20
169.3358964843748
 10
58.69891493055554
 20
169.3358964843748
 10
58.69891493055554
 20
169.3358964843748
 10
57.46419270833333
 20
169.3358964843748
 10
57.46419270833333
 20
169.3358964843748
 10
57.46419270833333
 20
169.3358964843748
 10
57.46419270833333
 20
180.9964422743054
 10
57.46419270833333
 20
180.9964422743054
 10
57.46419270833333
 20
181.3996011284721
 10
57.47108289930555
 20
182.0677291666664
 10
57.48624131944444
 20
183.0001924913193
 10
57.50071072048609
 20
183.9326558159721
 10
57.50828993055554
 20
184.932312282986
 10
57.50828993055554
 20
185.9997957899304
 10
57.50828993055554
 20
185.9997957899304
 10
54.700537109375
 20
169.3358964843748
 10
54.700537109375
 20
169.3358964843748
 10
54.700537109375
 20
169.3358964843748
 10
53.38382161458333
 20
169.3358964843748
 10
53.38382161458333
 20
169.3358964843748
 10
53.38382161458333
 20
169.3358964843748
 10
50.58502604166665
 20
185.9997957899304
 10
50.58502604166665
 20
185.9997957899304
 10
50.58502604166665
 20
185.9997957899304
 10
50.58502604166665
 20
185.3944236111109
 10
50.58502604166665
 20
185.3944236111109
 10
50.58502604166665
 20
184.9101258680554
 10
50.59191623263888
 20
184.1729029947915
 10
50.60707465277777
 20
183.1821210937498
 10
50.62154405381943
 20
182.1913391927082
 10
50.62912326388889
 20
181.4629908854165
 10
50.62912326388889
 20
180.9964422743054
 10
50.62912326388889
 20
180.9964422743054
 10
50.62912326388889
 20
169.3358964843748
 10
50.62912326388889
 20
169.3358964843748
 10
50.62912326388889
 20
169.3358964843748
 10
49.39440104166666
 20
169.3358964843748
 10
49.39440104166666
 20
169.3358964843748
 10
49.39440104166666
 20
169.3358964843748
 10
49.39440104166666
 20
189.0932159288193
 10
49.39440104166666
 20
189.0932159288193
 97
        1
330
25B8
 75
     0
 76
     1
 98
        1
 10
0.0
 20
0.0
  0
HATCH
  5
25D1
330
25B3
100
AcDbEntity
  8
0
  6
Continuous
100
AcDbHatch
 10
0.0
 20
0.0
 30
0.0
210
0.0
220
0.0
230
1.0
  2
SOLID
 70
     1
 71
     1
 91
        2
 92
       16
 93
        1
 72
     4
 94
        3
 73
     0
 74
     0
 95
       32
 96
       28
 40
0.0
 40
0.0
 40
0.0
 40
0.0
 40
1.0
 40
1.0
 40
1.0
 40
2.0
 40
2.0
 40
2.0
 40
3.0
 40
3.0
 40
3.0
 40
4.0
 40
4.0
 40
4.0
 40
5.0
 40
5.0
 40
5.0
 40
6.0
 40
6.0
 40
6.0
 40
7.0
 40
7.0
 40
7.0
 40
8.0
 40
8.0
 40
8.0
 40
9.0
 40
9.0
 40
9.0
 40
9.0
 10
91.70051812065969
 20
171.6077853732636
 10
91.70051812065969
 20
171.6077853732636
 10
91.70051812065969
 20
186.7401881510414
 10
91.70051812065969
 20
186.7401881510414
 10
91.70051812065969
 20
186.7401881510414
 10
93.98668348524305
 20
186.7401881510414
 10
93.98668348524305
 20
186.7401881510414
 10
95.02159016927082
 20
186.7401881510414
 10
95.77331000434028
 20
186.0644533420137
 10
96.24322102864582
 20
184.7142515190969
 10
96.71313205295138
 20
183.3640496961804
 10
96.94808756510417
 20
181.4680620659721
 10
96.94808756510417
 20
179.026288628472
 10
96.94808756510417
 20
178.3911232638887
 10
96.91432562934028
 20
177.7027105034721
 10
96.84749077690971
 20
176.9604164496525
 10
96.7324245876736
 20
175.7167094184025
 10
96.55052354600693
 20
174.6974021267359
 10
96.30109863281248
 20
173.9018606770831
 10
95.98414984809028
 20
172.9091770833332
 10
95.57693956163193
 20
172.2378795572914
 10
95.07877875434026
 20
171.8892358940971
 10
94.79076877170138
 20
171.7016022135415
 10
94.43178982204859
 20
171.6077853732636
 10
94.00115288628471
 20
171.6077853732636
 10
94.00115288628471
 20
171.6077853732636
 10
91.70051812065969
 20
171.6077853732636
 10
91.70051812065969
 20
171.6077853732636
 97
        1
330
25BD
 92
        1
 93
        1
 72
     4
 94
        3
 73
     0
 74
     0
 95
       26
 96
       22
 40
0.0
 40
0.0
 40
0.0
 40
0.0
 40
1.0
 40
1.0
 40
1.0
 40
2.0
 40
2.0
 40
2.0
 40
3.0
 40
3.0
 40
3.0
 40
4.0
 40
4.0
 40
4.0
 40
5.0
 40
5.0
 40
5.0
 40
6.0
 40
6.0
 40
6.0
 40
7.0
 40
7.0
 40
7.0
 40
7.0
 10
90.37760145399305
 20
169.3358964843748
 10
90.37760145399305
 20
169.3358964843748
 10
94.22990722656248
 20
169.3358964843748
 10
94.22990722656248
 20
169.3358964843748
 10
95.87115071614581
 20
169.3358964843748
 10
97.03008083767359
 20
170.8331625434026
 10
97.70600857204859
 20
173.8283285590275
 10
98.08221299913194
 20
175.5227367621525
 10
98.27100423177082
 20
177.4187243923609
 10
98.27100423177082
 20
179.5169253472221
 10
98.27100423177082
 20
182.233810329861
 10
97.94716525607638
 20
184.4619602864582
 10
97.30086534288195
 20
186.2013752170136
 10
96.57601725260416
 20
188.1290577256942
 10
95.5576470269097
 20
189.0932159288193
 10
94.24437662760416
 20
189.0932159288193
 10
94.24437662760416
 20
189.0932159288193
 10
90.37760145399305
 20
189.0932159288193
 10
90.37760145399305
 20
189.0932159288193
 10
90.37760145399305
 20
189.0932159288193
 10
90.37760145399305
 20
169.3358964843748
 10
90.37760145399305
 20
169.3358964843748
 97
        0
 75
     0
 76
     1
 98
        0
  0
HATCH
  5
25D2
330
25B3
100
AcDbEntity
  8
0
  6
Continuous
100
AcDbHatch
 10
0.0
 20
0.0
 30
0.0
210
0.0
220
0.0
230
1.0
  2
SOLID
 70
     1
 71
     1
 91
        2
 92
       16
 93
        1
 72
     4
 94
        3
 73
     0
 74
     0
 95
       26
 96
       22
 40
0.0
 40
0.0
 40
0.0
 40
0.0
 40
1.0
 40
1.0
 40
1.0
 40
2.0
 40
2.0
 40
2.0
 40
3.0
 40
3.0
 40
3.0
 40
4.0
 40
4.0
 40
4.0
 40
5.0
 40
5.0
 40
5.0
 40
6.0
 40
6.0
 40
6.0
 40
7.0
 40
7.0
 40
7.0
 40
7.0
 10
100.5623372395832
 20
180.0462298177081
 10
100.5623372395832
 20
180.0462298177081
 10
100.5623372395832
 20
186.7401881510414
 10
100.5623372395832
 20
186.7401881510414
 10
100.5623372395832
 20
186.7401881510414
 10
103.6732584635416
 20
186.7401881510414
 10
103.6732584635416
 20
186.7401881510414
 10
104.1107855902777
 20
186.7401881510414
 10
104.4580512152777
 20
186.6064357638887
 10
104.7150553385415
 20
186.3401987847219
 10
105.2097710503471
 20
185.8330807291664
 10
105.4571289062498
 20
184.8822343749997
 10
105.4571289062498
 20
183.4863919270832
 10
105.4571289062498
 20
182.188169704861
 10
105.280740017361
 20
181.2905707465276
 10
104.9286512586804
 20
180.7929611545137
 10
104.5765624999999
 20
180.2947176649304
 10
104.1011393229166
 20
180.0462298177081
 10
103.5023817274304
 20
180.0462298177081
 10
103.5023817274304
 20
180.0462298177081
 10
100.5623372395832
 20
180.0462298177081
 10
100.5623372395832
 20
180.0462298177081
 97
        1
330
25BE
 92
        1
 93
        1
 72
     4
 94
        3
 73
     0
 74
     0
 95
       68
 96
       64
 40
0.0
 40
0.0
 40
0.0
 40
0.0
 40
1.0
 40
1.0
 40
1.0
 40
2.0
 40
2.0
 40
2.0
 40
3.0
 40
3.0
 40
3.0
 40
4.0
 40
4.0
 40
4.0
 40
5.0
 40
5.0
 40
5.0
 40
6.0
 40
6.0
 40
6.0
 40
7.0
 40
7.0
 40
7.0
 40
8.0
 40
8.0
 40
8.0
 40
9.0
 40
9.0
 40
9.0
 40
10.0
 40
10.0
 40
10.0
 40
11.0
 40
11.0
 40
11.0
 40
12.0
 40
12.0
 40
12.0
 40
13.0
 40
13.0
 40
13.0
 40
14.0
 40
14.0
 40
14.0
 40
15.0
 40
15.0
 40
15.0
 40
16.0
 40
16.0
 40
16.0
 40
17.0
 40
17.0
 40
17.0
 40
18.0
 40
18.0
 40
18.0
 40
19.0
 40
19.0
 40
19.0
 40
20.0
 40
20.0
 40
20.0
 40
21.0
 40
21.0
 40
21.0
 40
21.0
 10
99.23942057291661
 20
169.3358964843748
 10
99.23942057291661
 20
169.3358964843748
 10
100.5623372395832
 20
169.3358964843748
 10
100.5623372395832
 20
169.3358964843748
 10
100.5623372395832
 20
169.3358964843748
 10
100.5623372395832
 20
177.8149103732637
 10
100.5623372395832
 20
177.8149103732637
 10
100.5623372395832
 20
177.8149103732637
 10
103.4472601996527
 20
177.8149103732637
 10
103.4472601996527
 20
177.8149103732637
 10
103.9681586371527
 20
177.8149103732637
 10
104.3519422743053
 20
177.6938359374998
 10
104.5986111111109
 20
177.451687065972
 10
105.0244249131943
 20
177.0117621527776
 10
105.2518012152777
 20
176.1458580729164
 10
105.280740017361
 20
174.8539748263887
 10
105.280740017361
 20
174.8539748263887
 10
105.3689344618053
 20
171.5564396701386
 10
105.3689344618053
 20
171.5564396701386
 10
105.3882269965277
 20
170.7843524305554
 10
105.4109646267359
 20
170.2639225260415
 10
105.4357693142359
 20
169.9951499565971
 10
105.4605740017359
 20
169.7257434895831
 10
105.4970920138888
 20
169.5057810329859
 10
105.5467013888887
 20
169.3358964843748
 10
105.5467013888887
 20
169.3358964843748
 10
107.1769205729166
 20
169.3358964843748
 10
107.1769205729166
 20
169.3358964843748
 10
107.1769205729166
 20
169.3358964843748
 10
107.1769205729166
 20
169.7821603732636
 10
107.1769205729166
 20
169.7821603732636
 10
106.9750379774303
 20
169.9609194878471
 10
106.8337890624998
 20
170.3628105468748
 10
106.7538628472221
 20
170.9878335503471
 10
106.7028754340275
 20
171.3542263454858
 10
106.6677354600692
 20
171.9120562065971
 10
106.6477539062498
 20
172.6625909288193
 10
106.6477539062498
 20
172.6625909288193
 10
106.6036566840277
 20
175.3205234374999
 10
106.6036566840277
 20
175.3205234374999
 10
106.5836751302082
 20
176.4716814236109
 10
106.4768771701387
 20
177.3033550347219
 10
106.2839518229166
 20
177.8142764756942
 10
106.0903374565971
 20
178.3251979166665
 10
105.8002604166666
 20
178.7372313368054
 10
105.4130316840276
 20
179.0516445312498
 10
105.8443576388887
 20
179.5086846788193
 10
106.179909939236
 20
180.1134229600693
 10
106.4196885850692
 20
180.8664932725692
 10
106.6594672309027
 20
181.6189296874999
 10
106.7800455729166
 20
182.5868912760414
 10
106.7800455729166
 20
183.7697441406248
 10
106.7800455729166
 20
186.0371957465275
 10
106.3328721788193
 20
187.5921464843749
 10
105.4392144097221
 20
188.4345963541665
 10
104.9679253472221
 20
188.8732534722221
 10
104.3719238281249
 20
189.0932159288193
 10
103.6512098524303
 20
189.0932159288193
 10
103.6512098524303
 20
189.0932159288193
 10
99.23942057291661
 20
189.0932159288193
 10
99.23942057291661
 20
189.0932159288193
 10
99.23942057291661
 20
189.0932159288193
 10
99.23942057291661
 20
169.3358964843748
 10
99.23942057291661
 20
169.3358964843748
 97
        0
 75
     0
 76
     1
 98
        0
  0
HATCH
  5
25D3
330
25B3
100
AcDbEntity
  8
0
  6
Continuous
100
AcDbHatch
 10
0.0
 20
0.0
 30
0.0
210
0.0
220
0.0
230
1.0
  2
SOLID
 70
     1
 71
     1
 91
        2
 92
        1
 93
        8
 72
     1
 10
35.47828233506943
 20
189.0932159288193
 11
31.83957248263888
 21
169.3358964843748
 72
     1
 10
31.83957248263888
 20
169.3358964843748
 11
33.22450086805555
 21
169.3358964843748
 72
     1
 10
33.22450086805555
 20
169.3358964843748
 11
34.27043185763887
 21
175.2590353732638
 72
     1
 10
34.27043185763887
 20
175.2590353732638
 11
38.04694552951389
 21
175.2590353732638
 72
     1
 10
38.04694552951389
 20
175.2590353732638
 11
39.05015733506942
 21
169.3358964843748
 72
     1
 10
39.05015733506942
 20
169.3358964843748
 11
40.43508572048611
 21
169.3358964843748
 72
     1
 10
40.43508572048611
 20
169.3358964843748
 11
36.952783203125
 21
189.0932159288193
 72
     1
 10
36.952783203125
 20
189.0932159288193
 11
35.47828233506943
 21
189.0932159288193
 97
        8
330
25CE
330
25C7
330
25C8
330
25C9
330
25CA
330
25CB
330
25CC
330
25CD
 92
       16
 93
        3
 72
     1
 10
37.67556423611111
 20
177.4497853732638
 11
34.65766059027778
 21
177.4497853732638
 72
     1
 10
34.65766059027778
 20
177.4497853732638
 11
36.19830729166666
 21
186.1658769531249
 72
     1
 10
36.19830729166666
 20
186.1658769531249
 11
37.67556423611111
 21
177.4497853732638
 97
        3
330
25C6
330
25C4
330
25C5
 75
     0
 76
     1
 98
        1
 10
0.0
 20
0.0
  0
HATCH
  5
25D4
330
25B3
100
AcDbEntity
  8
0
  6
Continuous
100
AcDbHatch
 10
0.0
 20
0.0
 30
0.0
210
0.0
220
0.0
230
1.0
  2
SOLID
 70
     1
 71
     1
 91
        1
 92
        1
 93
        1
 72
     4
 94
        3
 73
     0
 74
     0
 95
      113
 96
      109
 40
0.0
 40
0.0
 40
0.0
 40
0.0
 40
1.0
 40
1.0
 40
1.0
 40
2.0
 40
2.0
 40
2.0
 40
3.0
 40
3.0
 40
3.0
 40
4.0
 40
4.0
 40
4.0
 40
5.0
 40
5.0
 40
5.0
 40
6.0
 40
6.0
 40
6.0
 40
7.0
 40
7.0
 40
7.0
 40
8.0
 40
8.0
 40
8.0
 40
9.0
 40
9.0
 40
9.0
 40
10.0
 40
10.0
 40
10.0
 40
11.0
 40
11.0
 40
11.0
 40
12.0
 40
12.0
 40
12.0
 40
13.0
 40
13.0
 40
13.0
 40
14.0
 40
14.0
 40
14.0
 40
15.0
 40
15.0
 40
15.0
 40
16.0
 40
16.0
 40
16.0
 40
17.0
 40
17.0
 40
17.0
 40
18.0
 40
18.0
 40
18.0
 40
19.0
 40
19.0
 40
19.0
 40
20.0
 40
20.0
 40
20.0
 40
21.0
 40
21.0
 40
21.0
 40
22.0
 40
22.0
 40
22.0
 40
23.0
 40
23.0
 40
23.0
 40
24.0
 40
24.0
 40
24.0
 40
25.0
 40
25.0
 40
25.0
 40
26.0
 40
26.0
 40
26.0
 40
27.0
 40
27.0
 40
27.0
 40
28.0
 40
28.0
 40
28.0
 40
29.0
 40
29.0
 40
29.0
 40
30.0
 40
30.0
 40
30.0
 40
31.0
 40
31.0
 40
31.0
 40
32.0
 40
32.0
 40
32.0
 40
33.0
 40
33.0
 40
33.0
 40
34.0
 40
34.0
 40
34.0
 40
35.0
 40
35.0
 40
35.0
 40
36.0
 40
36.0
 40
36.0
 40
36.0
 10
193.3039632161458
 20
186.1548733181423
 10
193.3039632161458
 20
186.1860514322916
 10
193.3039632161458
 20
219.6932223849826
 10
193.3039632161458
 20
219.6932223849826
 10
193.3039632161458
 20
219.6932223849826
 10
193.2974175347219
 20
219.7488606770833
 10
193.2974175347219
 20
219.7488606770833
 10
191.5293945312499
 20
235.455740017361
 10
175.1458984374999
 20
235.2467949761284
 10
174.9808783637151
 20
235.2428331163193
 10
174.9808783637151
 20
235.2428331163193
 10
125.8827555338541
 20
235.2430053710937
 10
125.8827555338541
 20
235.2430053710937
 10
125.8827555338541
 20
235.2430053710937
 10
125.8827555338541
 20
255.5278998480901
 10
125.8827555338541
 20
255.5278998480901
 10
125.8827555338541
 20
255.5278998480901
 10
84.5626247829861
 20
255.5278998480901
 10
84.5626247829861
 20
255.5278998480901
 10
84.5626247829861
 20
255.5278998480901
 10
84.55711263020829
 20
233.7919311523436
 10
84.55711263020829
 20
233.7919311523436
 10
84.55711263020829
 20
233.7919311523436
 10
64.42052951388888
 20
233.7919311523436
 10
64.42052951388888
 20
233.7919311523436
 10
64.42052951388888
 20
233.7919311523436
 10
64.41501736111111
 20
255.5278998480901
 10
64.41501736111111
 20
255.5278998480901
 10
64.41501736111111
 20
255.5278998480901
 10
23.91757541232637
 20
255.5278998480901
 10
23.91757541232637
 20
255.5278998480901
 10
23.91757541232637
 20
255.5278998480901
 10
23.91757541232637
 20
233.2393378363715
 10
23.91757541232637
 20
233.2393378363715
 10
23.91757541232637
 20
233.2393378363715
 10
43.65624999999999
 20
233.2393378363715
 10
43.65624999999999
 20
233.2393378363715
 10
43.65624999999999
 20
233.2393378363715
 10
43.65624999999999
 20
211.5188720703125
 10
43.65624999999999
 20
211.5188720703125
 10
43.65624999999999
 20
211.5188720703125
 10
23.91757541232637
 20
211.5188720703125
 10
23.91757541232637
 20
211.5188720703125
 10
23.91757541232637
 20
211.5188720703125
 10
23.91757541232637
 20
189.2303100585936
 10
23.91757541232637
 20
189.2303100585936
 10
23.91757541232637
 20
189.2303100585936
 10
64.41501736111111
 20
189.2303100585936
 10
64.41501736111111
 20
189.2303100585936
 10
64.41501736111111
 20
189.2303100585936
 10
64.42052951388888
 20
211.069976128472
 10
64.42052951388888
 20
211.069976128472
 10
64.42052951388888
 20
211.069976128472
 10
84.55711263020829
 20
211.069976128472
 10
84.55711263020829
 20
211.069976128472
 10
84.55711263020829
 20
211.069976128472
 10
84.5626247829861
 20
189.2303100585936
 10
84.5626247829861
 20
189.2303100585936
 10
84.5626247829861
 20
189.2303100585936
 10
125.8827555338541
 20
189.2303100585936
 10
125.8827555338541
 20
189.2303100585936
 10
125.8827555338541
 20
189.2303100585936
 10
125.8827555338541
 20
211.5188720703125
 10
125.8827555338541
 20
211.5188720703125
 10
125.8827555338541
 20
211.5188720703125
 10
105.3213921440971
 20
211.5188720703125
 10
105.3213921440971
 20
211.5188720703125
 10
105.3213921440971
 20
211.5188720703125
 10
105.3213921440971
 20
233.2393378363715
 10
105.3213921440971
 20
233.2393378363715
 10
105.3213921440971
 20
233.2393378363715
 10
175.0046495225693
 20
233.243127441406
 10
175.0046495225693
 20
233.243127441406
 10
175.6268337673611
 20
233.2560465494791
 10
189.7165852864583
 20
233.3962619357638
 10
191.3037407769094
 20
219.5690266927083
 10
191.3037407769094
 20
219.4332899305555
 10
191.3037407769094
 20
186.1142211914062
 10
191.3037407769094
 20
186.1142211914062
 10
191.3037407769094
 20
186.1142211914062
 10
191.3051188151039
 20
186.0880384657115
 10
191.3051188151039
 20
186.0880384657115
 10
191.3054633246526
 20
186.0787367078991
 10
191.3109754774304
 20
185.9566080729166
 10
191.3109754774304
 20
185.7399115668401
 10
191.3109754774304
 20
184.2090833875865
 10
191.0488037109374
 20
177.9643310546874
 10
186.9866916232638
 20
173.5652886284722
 10
184.2540418836804
 20
170.6064683702255
 10
180.3224989149304
 20
169.0308539496526
 10
175.300927734375
 20
168.8825425889756
 10
175.300927734375
 20
168.8825425889756
 10
107.0094889322916
 20
168.8828870985243
 10
107.0094889322916
 20
168.8828870985243
 10
107.0094889322916
 20
168.8828870985243
 10
107.0094889322916
 20
166.8830091688368
 10
107.0094889322916
 20
166.8830091688368
 10
107.0094889322916
 20
166.8830091688368
 10
175.3305555555555
 20
166.8830091688368
 10
175.3305555555555
 20
166.8830091688368
 10
180.9467502170138
 20
167.0485460069444
 10
185.3571614583333
 20
168.8448187934026
 10
188.4687717013888
 20
172.2223904079861
 10
192.9649658203124
 20
177.1034016927083
 10
193.3136094835069
 20
183.7202243381076
 10
193.3136094835069
 20
185.6520616319443
 10
193.3136094835069
 20
185.9247409396701
 10
193.3070638020833
 20
186.0868326822916
 10
193.3039632161458
 20
186.1548733181423
 97
        1
330
25B4
 75
     0
 76
     1
 98
        1
 10
0.0
 20
0.0
  0
HATCH
  5
25D5
330
25B3
100
AcDbEntity
  8
0
  6
Continuous
100
AcDbHatch
 10
0.0
 20
0.0
 30
0.0
210
0.0
220
0.0
230
1.0
  2
SOLID
 70
     1
 71
     1
 91
        2
 92
        1
 93
        1
 72
     4
 94
        3
 73
     0
 74
     0
 95
       23
 96
       19
 40
0.0
 40
0.0
 40
0.0
 40
0.0
 40
1.0
 40
1.0
 40
1.0
 40
2.0
 40
2.0
 40
2.0
 40
3.0
 40
3.0
 40
3.0
 40
4.0
 40
4.0
 40
4.0
 40
5.0
 40
5.0
 40
5.0
 40
6.0
 40
6.0
 40
6.0
 40
6.0
 10
148.6593153211804
 20
211.3929538302948
 10
148.6593153211804
 20
211.3929538302948
 10
148.6593153211804
 20
189.6308024088539
 10
148.6593153211804
 20
189.6308024088539
 10
148.6593153211804
 20
189.6308024088539
 10
161.3152180989583
 20
189.6308024088539
 10
161.3152180989583
 20
189.6308024088539
 10
162.8431179470484
 20
189.6308024088539
 10
170.4657362196179
 20
190.1880466037322
 10
170.4657362196179
 20
201.1911648220483
 10
170.4657362196179
 20
211.1288872612844
 10
162.3356553819444
 20
211.3914035373261
 10
162.2536621093749
 20
211.3927815755205
 10
162.2536621093749
 20
211.3927815755205
 10
149.6594265407986
 20
211.3929538302948
 10
149.6594265407986
 20
211.3929538302948
 10
149.6594265407986
 20
211.3929538302948
 10
148.6593153211804
 20
211.3929538302948
 10
148.6593153211804
 20
211.3929538302948
 97
        1
330
25B5
 92
       16
 93
        1
 72
     4
 94
        3
 73
     0
 74
     0
 95
       20
 96
       16
 40
0.0
 40
0.0
 40
0.0
 40
0.0
 40
1.0
 40
1.0
 40
1.0
 40
2.0
 40
2.0
 40
2.0
 40
3.0
 40
3.0
 40
3.0
 40
4.0
 40
4.0
 40
4.0
 40
5.0
 40
5.0
 40
5.0
 40
5.0
 10
162.2354031032985
 20
209.3930759006072
 10
162.467947048611
 20
209.3861857096351
 10
168.4655137803819
 20
209.1283203124997
 10
168.4655137803819
 20
201.1911648220483
 10
168.4655137803819
 20
192.3202162000865
 10
162.9926350911458
 20
191.6306803385413
 10
161.3152180989583
 20
191.6306803385413
 10
161.3152180989583
 20
191.6306803385413
 10
152.3310980902776
 20
191.6306803385413
 10
150.6595377604166
 20
191.6306803385413
 10
150.6595377604166
 20
193.3373806423608
 10
150.6595377604166
 20
207.6863755967879
 10
150.6595377604166
 20
209.3930759006072
 10
152.353835720486
 20
209.3930759006072
 10
162.2354031032985
 20
209.3930759006072
 10
162.2354031032985
 20
209.3930759006072
 97
        0
 75
     0
 76
     1
 98
        0
  0
ENDBLK
  5
25D7
330
25B3
100
AcDbEntity
  8
0
100
AcDbBlockEnd
  0
BLOCK
  5
25DA
330
25D8
100
AcDbEntity
  8
0
100
AcDbBlockBegin
  2
HD logo-new
 70
     0
 10
0.0
 20
0.0
 30
0.0
  3
HD logo-new
  1

  0
INSERT
  5
25D9
330
25D8
100
AcDbEntity
  8
0
 62
     3
100
AcDbBlockReference
  2
HD_LLC_logo_OT5
 10
-27.1607188578505
 20
-68.37367811463031
 30
0.0
 41
0.2999999999999971
 42
0.3000000000000007
 43
0.3
  0
ENDBLK
  5
25DB
330
25D8
100
AcDbEntity
  8
0
100
AcDbBlockEnd
  0
BLOCK
  5
25DE
330
25DC
100
AcDbEntity
  8
0
100
AcDbBlockBegin
  2
HD Logo
 70
     0
 10
0.0
 20
0.0
 30
0.0
  3
HD Logo
  1

  0
INSERT
  5
25DD
330
25DC
100
AcDbEntity
  8
0
100
AcDbBlockReference
  2
HD logo-new
 10
0.9700256734946606
 20
7.273795608420527
 30
0.0
  0
ENDBLK
  5
25DF
330
25DC
100
AcDbEntity
  8
0
100
AcDbBlockEnd
  0
BLOCK
  5
25F6
330
25F4
100
AcDbEntity
  8
0
100
AcDbBlockBegin
  2
Harmonic Drive LLC
 70
     0
 10
0.0
 20
0.0
 30
0.0
  3
Harmonic Drive LLC
  1

  0
MTEXT
  5
25F5
330
25F4
100
AcDbEntity
  8
0
100
AcDbMText
 10
189.3064368747374
 20
-164.4147342669637
 30
0.0
 40
3.5
 41
76.932
 71
     5
 72
     5
  1
Harmonic Drive LLC\P800-921-3332\Pwww.harmonicdrive.net
 73
     1
 44
1.0
  0
ENDBLK
  5
25F7
330
25F4
100
AcDbEntity
  8
0
100
AcDbBlockEnd
  0
BLOCK
  5
2608
330
2605
100
AcDbEntity
  8
0
100
AcDbBlockBegin
  2
NTC
 70
     0
 10
0.0
 20
0.0
 30
0.0
  3
NTC
  1

  0
LWPOLYLINE
  5
2606
330
2605
100
AcDbEntity
  8
0
100
AcDbPolyline
 90
        8
 70
     1
 43
0.0
 10
4.581008201925953
 20
-10.78862239032818
 10
319.3921777697513
 20
-10.78862239032818
 42
-0.4142135623730951
 10
324.9046777697513
 20
-16.30112239032816
 10
324.9046777697513
 20
-117.4075202476924
 42
-0.4142135623730951
 10
319.3921777697513
 20
-122.9200202476925
 10
4.581008201925838
 20
-122.9200202476925
 42
-0.4142135623730951
 10
-0.9314917980741483
 20
-117.4075202476924
 10
-0.9314917980740915
 20
-16.30112239032816
 42
-0.4142135623730951
  0
MTEXT
  5
2607
330
2605
100
AcDbEntity
  8
0
  6
Continuous
370
    30
100
AcDbMText
 10
21.65307678143926
 20
-17.4535155144544
 30
0.0
 40
8.75
 41
294.5432999999998
 71
     1
 72
     5
  3
{\fTxt|b1|i0|c0|p2;Notice:\P\Ftxt.shx;\H0.5714x;All specifications and dimensions shown in the drawing are subject to change without notice. This drawing is the property of Harmonic Drive LLC.   This data is believed to be accurate, however, Harmonic
  1
 Drive LLC assumes no liability for any errors or omissions in the specifications, models, or drawings.\P\PHarmonic Drive LLC\PTel: 800-921-3332\Pwww.harmonicdrive.net}
 73
     1
 44
1.0
  0
ENDBLK
  5
2609
330
2605
100
AcDbEntity
  8
0
100
AcDbBlockEnd
  0
ENDSEC
  0
SECTION
  2
ENTITIES
  0
LINE
  5
2377
330
2358
100
AcDbEntity
  8
1
  6
CENTER
 62
     3
100
AcDbLine
 10
196.8750002811423
 20
188.5553589642738
 30
0.0
 11
221.0416669478096
 21
188.5553589642738
 31
0.0
  0
LINE
  5
2378
330
2358
100
AcDbEntity
  8
1
 62
     7
100
AcDbLine
 10
184.3750002811423
 20
218.955358964274
 30
0.0
 11
184.3750002811423
 21
158.1553589642735
 31
0.0
  0
LINE
  5
2379
330
2358
100
AcDbEntity
  8
1
  6
CENTER
 62
     3
100
AcDbLine
 10
297.7019572422861
 20
221.888692297607
 30
0.0
 11
297.7019572422861
 21
155.2220256309404
 31
0.0
  0
LINE
  5
237A
330
2358
100
AcDbEntity
  8
1
  6
CENTER
 62
     3
100
AcDbLine
 10
264.3686239089526
 20
188.5553589642738
 30
0.0
 11
331.0352905756195
 21
188.5553589642738
 31
0.0
  0
LINE
  5
237B
330
2358
100
AcDbEntity
  8
1
  6
CENTER
 62
     3
100
AcDbLine
 10
181.0416669478096
 20
188.5553589642738
 30
0.0
 11
187.0030002811428
 21
188.5553589642738
 31
0.0
  0
LINE
  5
237C
330
2358
100
AcDbEntity
  8
1
 62
     7
100
AcDbLine
 10
204.7750002811429
 20
218.555358964274
 30
0.0
 11
210.4750002811428
 21
218.555358964274
 31
0.0
  0
LINE
  5
237D
330
2358
100
AcDbEntity
  8
1
 62
     7
100
AcDbLine
 10
204.1750002811428
 20
212.5553589642738
 30
0.0
 11
202.275000281143
 21
212.5553589642738
 31
0.0
  0
LINE
  5
237E
330
2358
100
AcDbEntity
  8
1
 62
     7
100
AcDbLine
 10
204.1750002811428
 20
164.555358964274
 30
0.0
 11
202.275000281143
 21
164.555358964274
 31
0.0
  0
LINE
  5
237F
330
2358
100
AcDbEntity
  8
1
 62
     7
100
AcDbLine
 10
204.7750002811429
 20
158.555358964274
 30
0.0
 11
210.4750002811428
 21
158.555358964274
 31
0.0
  0
LINE
  5
2380
330
2358
100
AcDbEntity
  8
1
 62
     7
100
AcDbLine
 10
188.4030002811428
 20
209.4163589642739
 30
0.0
 11
210.3750002811429
 21
209.4163589642739
 31
0.0
  0
LINE
  5
2381
330
2358
100
AcDbEntity
  8
1
 62
     7
100
AcDbLine
 10
188.4030002811428
 20
167.694358964274
 30
0.0
 11
210.3750002811429
 21
167.694358964274
 31
0.0
  0
LINE
  5
2382
330
2358
100
AcDbEntity
  8
1
 62
     7
100
AcDbLine
 10
210.8164216373801
 20
209.8589376080364
 30
0.0
 11
210.2850002811428
 21
210.3903589642736
 31
0.0
  0
LINE
  5
2383
330
2358
100
AcDbEntity
  8
1
 62
     7
100
AcDbLine
 10
210.8164216373801
 20
167.2517803205113
 30
0.0
 11
210.2850002811428
 21
166.7203589642739
 31
0.0
  0
LINE
  5
2384
330
2358
100
AcDbEntity
  8
1
 62
     7
100
AcDbLine
 10
210.3750002811429
 20
167.694358964274
 30
0.0
 11
210.6854674723912
 21
167.6780880682404
 31
0.0
  0
LINE
  5
2385
330
2358
100
AcDbEntity
  8
1
 62
     7
100
AcDbLine
 10
210.3750002811429
 20
209.4163589642739
 30
0.0
 11
210.6854674723912
 21
209.4326298603077
 31
0.0
  0
LINE
  5
2386
330
2358
100
AcDbEntity
  8
1
 62
     7
100
AcDbLine
 10
210.8750002811428
 20
209.6323557672584
 30
0.0
 11
210.8750002811428
 21
209.7175162517991
 31
0.0
  0
LINE
  5
2387
330
2358
100
AcDbEntity
  8
1
 62
     7
100
AcDbLine
 10
188.3750002811428
 20
209.7883589642739
 30
0.0
 11
198.0400002811423
 21
209.7883589642739
 31
0.0
  0
LINE
  5
2388
330
2358
100
AcDbEntity
  8
1
 62
     7
100
AcDbLine
 10
188.3750002811428
 20
167.322358964274
 30
0.0
 11
197.9949558586351
 21
167.322358964274
 31
0.0
  0
LINE
  5
2389
330
2358
100
AcDbEntity
  8
1
 62
     7
100
AcDbLine
 10
201.8750002811429
 20
164.9553589642739
 30
0.0
 11
201.8750002811429
 21
166.9883744317573
 31
0.0
  0
LINE
  5
238A
330
2358
100
AcDbEntity
  8
1
 62
     7
100
AcDbLine
 10
201.8750002811429
 20
212.1553589642738
 30
0.0
 11
201.8750002811429
 21
210.1279166206373
 31
0.0
  0
LINE
  5
238B
330
2358
100
AcDbEntity
  8
1
 62
     7
100
AcDbLine
 10
204.7750002811429
 20
218.555358964274
 30
0.0
 11
204.3750002811429
 21
218.1553589642738
 31
0.0
  0
LINE
  5
238C
330
2358
100
AcDbEntity
  8
1
 62
     7
100
AcDbLine
 10
210.8750002811428
 20
218.1553589642738
 30
0.0
 11
210.4750002811428
 21
218.555358964274
 31
0.0
  0
LINE
  5
238D
330
2358
100
AcDbEntity
  8
1
 62
     7
100
AcDbLine
 10
201.8750002811429
 20
212.1553589642738
 30
0.0
 11
202.275000281143
 21
212.5553589642738
 31
0.0
  0
LINE
  5
238E
330
2358
100
AcDbEntity
  8
1
 62
     7
100
AcDbLine
 10
201.8750002811429
 20
210.3903589642736
 30
0.0
 11
210.8750002811428
 21
210.3903589642736
 31
0.0
  0
LINE
  5
238F
330
2358
100
AcDbEntity
  8
1
 62
     7
100
AcDbLine
 10
201.8750002811429
 20
166.7203589642739
 30
0.0
 11
210.8750002811428
 21
166.7203589642739
 31
0.0
  0
LINE
  5
2390
330
2358
100
AcDbEntity
  8
1
 62
     7
100
AcDbLine
 10
201.8750002811429
 20
164.9553589642739
 30
0.0
 11
202.275000281143
 21
164.555358964274
 31
0.0
  0
LINE
  5
2391
330
2358
100
AcDbEntity
  8
1
 62
     7
100
AcDbLine
 10
204.7750002811429
 20
158.555358964274
 30
0.0
 11
204.3750002811429
 21
158.9553589642739
 31
0.0
  0
LINE
  5
2392
330
2358
100
AcDbEntity
  8
1
 62
     7
100
AcDbLine
 10
210.8750002811428
 20
158.9553589642739
 30
0.0
 11
210.4750002811428
 21
158.555358964274
 31
0.0
  0
LINE
  5
2393
330
2358
100
AcDbEntity
  8
1
  6
CENTER
 62
     3
100
AcDbLine
 10
187.6750002811428
 20
221.5553589642738
 30
0.0
 11
184.0750002811428
 21
221.5553589642738
 31
0.0
  0
LINE
  5
2394
330
2358
100
AcDbEntity
  8
1
 62
     7
100
AcDbLine
 10
187.3750002811423
 20
223.3053589642738
 30
0.0
 11
184.3750002811423
 21
223.3053589642738
 31
0.0
  0
LINE
  5
2395
330
2358
100
AcDbEntity
  8
1
 62
     7
100
AcDbLine
 10
187.3750002811423
 20
219.8053589642738
 30
0.0
 11
184.3750002811423
 21
219.8053589642738
 31
0.0
  0
LINE
  5
2396
330
2358
100
AcDbEntity
  8
1
  6
CENTER
 62
     3
100
AcDbLine
 10
203.7250002811428
 20
161.555358964274
 30
0.0
 11
211.5250002811428
 21
161.555358964274
 31
0.0
  0
LINE
  5
2397
330
2358
100
AcDbEntity
  8
1
 62
     7
100
AcDbLine
 10
204.3750002811429
 20
159.855358964274
 30
0.0
 11
210.8750002811428
 21
159.855358964274
 31
0.0
  0
LINE
  5
2398
330
2358
100
AcDbEntity
  8
1
 62
     7
100
AcDbLine
 10
204.3750002811429
 20
163.2553589642739
 30
0.0
 11
210.8750002811428
 21
163.2553589642739
 31
0.0
  0
LINE
  5
2399
330
2358
100
AcDbEntity
  8
1
 62
     7
100
AcDbLine
 10
204.3750002811429
 20
158.9553589642739
 30
0.0
 11
204.3750002811429
 21
164.355358964274
 31
0.0
  0
LINE
  5
239A
330
2358
100
AcDbEntity
  8
1
 62
     3
100
AcDbLine
 10
204.3750002811429
 20
214.0553589642738
 30
0.0
 11
210.8750002811428
 21
214.0553589642738
 31
0.0
  0
LINE
  5
239B
330
2358
100
AcDbEntity
  8
1
 62
     3
100
AcDbLine
 10
204.3750002811429
 20
217.0553589642738
 30
0.0
 11
210.8750002811428
 21
217.0553589642738
 31
0.0
  0
LINE
  5
239C
330
2358
100
AcDbEntity
  8
1
  6
CENTER
 62
     3
100
AcDbLine
 10
203.0750002811428
 20
215.5553589642738
 30
0.0
 11
212.1750002811428
 21
215.5553589642738
 31
0.0
  0
LINE
  5
239D
330
2358
100
AcDbEntity
  8
1
 62
     7
100
AcDbLine
 10
204.3750002811429
 20
214.3553589642734
 30
0.0
 11
210.8750002811428
 21
214.3553589642734
 31
0.0
  0
LINE
  5
239E
330
2358
100
AcDbEntity
  8
1
 62
     7
100
AcDbLine
 10
204.3750002811429
 20
216.7553589642739
 30
0.0
 11
210.8750002811428
 21
216.7553589642739
 31
0.0
  0
LINE
  5
239F
330
2358
100
AcDbEntity
  8
1
 62
     7
100
AcDbLine
 10
204.3750002811429
 20
218.1553589642738
 30
0.0
 11
204.3750002811429
 21
212.7553589642739
 31
0.0
  0
LINE
  5
23A0
330
2358
100
AcDbEntity
  8
1
 62
     7
100
AcDbLine
 10
215.0750002811428
 20
197.5553589642738
 30
0.0
 11
215.0750002811428
 21
192.5553589642738
 31
0.0
  0
LINE
  5
23A1
330
2358
100
AcDbEntity
  8
1
 62
     7
100
AcDbLine
 10
212.6750002811428
 20
197.5553589642738
 30
0.0
 11
212.6750002811428
 21
192.5553589642738
 31
0.0
  0
LINE
  5
23A2
330
2358
100
AcDbEntity
  8
1
  6
CENTER
 62
     3
100
AcDbLine
 10
213.8750002811427
 20
198.5553589642738
 30
0.0
 11
213.8750002811427
 21
186.1553589642736
 31
0.0
  0
LINE
  5
23A3
330
2358
100
AcDbEntity
  8
1
 62
     3
100
AcDbLine
 10
215.3750002811428
 20
197.5553589642738
 30
0.0
 11
215.3750002811428
 21
192.5553589642738
 31
0.0
  0
LINE
  5
23A4
330
2358
100
AcDbEntity
  8
1
 62
     3
100
AcDbLine
 10
212.3750002811429
 20
197.5553589642738
 30
0.0
 11
212.3750002811429
 21
192.5553589642738
 31
0.0
  0
LINE
  5
23A5
330
2358
100
AcDbEntity
  8
1
 62
     7
100
AcDbLine
 10
210.1250002811428
 20
197.5553589642738
 30
0.0
 11
210.1250002811428
 21
197.0553589642738
 31
0.0
  0
LINE
  5
23A6
330
2358
100
AcDbEntity
  8
1
 62
     7
100
AcDbLine
 10
197.5750002811428
 20
178.5553589642738
 30
0.0
 11
197.5750002811428
 21
174.0553589642738
 31
0.0
  0
LINE
  5
23A7
330
2358
100
AcDbEntity
  8
1
 62
     7
100
AcDbLine
 10
200.3750002811429
 20
203.0553589642738
 30
0.0
 11
201.5750002811429
 21
203.0553589642738
 31
0.0
  0
LINE
  5
23A8
330
2358
100
AcDbEntity
  8
1
 62
     7
100
AcDbLine
 10
201.5750002811429
 20
207.0553589642738
 30
0.0
 11
203.5750002811428
 21
207.0553589642738
 31
0.0
  0
LINE
  5
23A9
330
2358
100
AcDbEntity
  8
1
 62
     7
100
AcDbLine
 10
201.5750002811429
 20
207.0553589642738
 30
0.0
 11
201.5750002811429
 21
203.0553589642738
 31
0.0
  0
LINE
  5
23AA
330
2358
100
AcDbEntity
  8
1
 62
     7
100
AcDbLine
 10
203.5750002811428
 20
207.0553589642738
 30
0.0
 11
203.5750002811428
 21
203.0553589642738
 31
0.0
  0
LINE
  5
23AB
330
2358
100
AcDbEntity
  8
1
 62
     7
100
AcDbLine
 10
200.3750002811429
 20
173.7651595065249
 30
0.0
 11
197.3750002811429
 21
173.7651595065249
 31
0.0
  0
LINE
  5
23AC
330
2358
100
AcDbEntity
  8
1
 62
     7
100
AcDbLine
 10
211.4750002811426
 20
199.655358964274
 30
0.0
 11
210.2750002811428
 21
199.655358964274
 31
0.0
  0
LINE
  5
23AD
330
2358
100
AcDbEntity
  8
1
 62
     7
100
AcDbLine
 10
210.1250002811428
 20
197.0553589642738
 30
0.0
 11
211.4750002811426
 21
197.0553589642738
 31
0.0
  0
LINE
  5
23AE
330
2358
100
AcDbEntity
  8
1
 62
     7
100
AcDbLine
 10
211.4750002811426
 20
197.0553589642738
 30
0.0
 11
211.4750002811426
 21
199.655358964274
 31
0.0
  0
LINE
  5
23AF
330
2358
100
AcDbEntity
  8
1
 62
     7
100
AcDbLine
 10
210.2750002811428
 20
200.8053589642738
 30
0.0
 11
210.2750002811428
 21
197.0553589642738
 31
0.0
  0
LINE
  5
23B0
330
2358
100
AcDbEntity
  8
1
 62
     7
100
AcDbLine
 10
210.2750002811428
 20
176.3053589642738
 30
0.0
 11
209.0750002811428
 21
176.3053589642738
 31
0.0
  0
LINE
  5
23B1
330
2358
100
AcDbEntity
  8
1
 62
     7
100
AcDbLine
 10
210.5750002811428
 20
173.407858964274
 30
0.0
 11
203.7750002811427
 21
173.407858964274
 31
0.0
  0
LINE
  5
23B2
330
2358
100
AcDbEntity
  8
1
 62
     7
100
AcDbLine
 10
200.3750002811429
 20
203.5553589642737
 30
0.0
 11
200.3750002811429
 21
197.5553589642738
 31
0.0
  0
LINE
  5
23B3
330
2358
100
AcDbEntity
  8
1
 62
     7
100
AcDbLine
 10
203.5750002811428
 20
174.0553589642738
 30
0.0
 11
203.5750002811428
 21
170.055358964274
 31
0.0
  0
LINE
  5
23B4
330
2358
100
AcDbEntity
  8
1
 62
     7
100
AcDbLine
 10
201.5750002811429
 20
174.0553589642738
 30
0.0
 11
201.5750002811429
 21
170.055358964274
 31
0.0
  0
LINE
  5
23B5
330
2358
100
AcDbEntity
  8
1
 62
     7
100
AcDbLine
 10
203.7750002811427
 20
174.0553589642738
 30
0.0
 11
203.5750002811428
 21
174.0553589642738
 31
0.0
  0
LINE
  5
23B6
330
2358
100
AcDbEntity
  8
1
 62
     7
100
AcDbLine
 10
203.5750002811428
 20
170.055358964274
 30
0.0
 11
201.5750002811429
 21
170.055358964274
 31
0.0
  0
LINE
  5
23B7
330
2358
100
AcDbEntity
  8
1
 62
     7
100
AcDbLine
 10
201.5750002811429
 20
174.0553589642738
 30
0.0
 11
197.5750002811428
 21
174.0553589642738
 31
0.0
  0
LINE
  5
23B8
330
2358
100
AcDbEntity
  8
1
 62
     7
100
AcDbLine
 10
200.3750002811429
 20
179.3053589642738
 30
0.0
 11
197.3750002811429
 21
179.3053589642738
 31
0.0
  0
LINE
  5
23B9
330
2358
100
AcDbEntity
  8
1
 62
     7
100
AcDbLine
 10
211.4750002811426
 20
180.0553589642738
 30
0.0
 11
210.1250002811428
 21
180.0553589642738
 31
0.0
  0
LINE
  5
23BA
330
2358
100
AcDbEntity
  8
1
 62
     7
100
AcDbLine
 10
210.1250002811428
 20
180.0553589642738
 30
0.0
 11
210.1250002811428
 21
179.5553589642738
 31
0.0
  0
LINE
  5
23BB
330
2358
100
AcDbEntity
  8
1
 62
     7
100
AcDbLine
 10
210.2750002811428
 20
180.0553589642738
 30
0.0
 11
210.2750002811428
 21
176.2553589642739
 31
0.0
  0
LINE
  5
23BC
330
2358
100
AcDbEntity
  8
1
 62
     7
100
AcDbLine
 10
211.4750002811426
 20
176.2553589642739
 30
0.0
 11
211.4750002811426
 21
180.0553589642738
 31
0.0
  0
LINE
  5
23BD
330
2358
100
AcDbEntity
  8
1
 62
     7
100
AcDbLine
 10
210.2750002811428
 20
176.2553589642739
 30
0.0
 11
211.4750002811426
 21
176.2553589642739
 31
0.0
  0
LINE
  5
23BE
330
2358
100
AcDbEntity
  8
1
 62
     7
100
AcDbLine
 10
206.3750002811429
 20
203.0553589642738
 30
0.0
 11
203.5750002811428
 21
203.0553589642738
 31
0.0
  0
LINE
  5
23BF
330
2358
100
AcDbEntity
  8
1
 62
     7
100
AcDbLine
 10
206.5750002811428
 20
203.7028589642736
 30
0.0
 11
206.5750002811428
 21
197.8053589642738
 31
0.0
  0
LINE
  5
23C0
330
2358
100
AcDbEntity
  8
1
 62
     7
100
AcDbLine
 10
203.7750002811427
 20
203.7028589642736
 30
0.0
 11
210.5750002811428
 21
203.7028589642736
 31
0.0
  0
LINE
  5
23C1
330
2358
100
AcDbEntity
  8
1
 62
     7
100
AcDbLine
 10
203.7750002811427
 20
203.7028589642736
 30
0.0
 11
203.7750002811427
 21
197.5553589642738
 31
0.0
  0
LINE
  5
23C2
330
2358
100
AcDbEntity
  8
1
 62
     7
100
AcDbLine
 10
206.3750002811429
 20
198.5553589642738
 30
0.0
 11
206.3750002811429
 21
203.0553589642738
 31
0.0
  0
LINE
  5
23C3
330
2358
100
AcDbEntity
  8
1
 62
     7
100
AcDbLine
 10
206.3750002811429
 20
198.5553589642738
 30
0.0
 11
203.5750002811428
 21
198.5553589642738
 31
0.0
  0
LINE
  5
23C4
330
2358
100
AcDbEntity
  8
1
 62
     7
100
AcDbLine
 10
200.5750002811428
 20
198.5553589642738
 30
0.0
 11
200.3750002811429
 21
198.5553589642738
 31
0.0
  0
LINE
  5
23C5
330
2358
100
AcDbEntity
  8
1
 62
     7
100
AcDbLine
 10
203.5750002811428
 20
198.5553589642738
 30
0.0
 11
203.5750002811428
 21
197.5553589642738
 31
0.0
  0
LINE
  5
23C6
330
2358
100
AcDbEntity
  8
1
 62
     7
100
AcDbLine
 10
200.5750002811428
 20
197.8053589642738
 30
0.0
 11
203.5750002811428
 21
197.8053589642738
 31
0.0
  0
LINE
  5
23C7
330
2358
100
AcDbEntity
  8
1
 62
     7
100
AcDbLine
 10
200.5750002811428
 20
198.5553589642738
 30
0.0
 11
200.5750002811428
 21
197.5553589642738
 31
0.0
  0
LINE
  5
23C8
330
2358
100
AcDbEntity
  8
1
 62
     7
100
AcDbLine
 10
200.3750002811429
 20
179.5553589642738
 30
0.0
 11
200.3750002811429
 21
173.7651595065249
 31
0.0
  0
LINE
  5
23C9
330
2358
100
AcDbEntity
  8
1
 62
     7
100
AcDbLine
 10
200.5750002811428
 20
178.5553589642738
 30
0.0
 11
200.5750002811428
 21
179.5553589642738
 31
0.0
  0
LINE
  5
23CA
330
2358
100
AcDbEntity
  8
1
 62
     7
100
AcDbLine
 10
203.5750002811428
 20
179.3053589642738
 30
0.0
 11
200.5750002811428
 21
179.3053589642738
 31
0.0
  0
LINE
  5
23CB
330
2358
100
AcDbEntity
  8
1
 62
     7
100
AcDbLine
 10
203.5750002811428
 20
178.5553589642738
 30
0.0
 11
203.5750002811428
 21
179.5553589642738
 31
0.0
  0
LINE
  5
23CC
330
2358
100
AcDbEntity
  8
1
 62
     7
100
AcDbLine
 10
203.5750002811428
 20
178.5553589642738
 30
0.0
 11
203.7750002811427
 21
178.5553589642738
 31
0.0
  0
LINE
  5
23CD
330
2358
100
AcDbEntity
  8
1
 62
     7
100
AcDbLine
 10
203.7750002811427
 20
173.407858964274
 30
0.0
 11
203.7750002811427
 21
179.5553589642738
 31
0.0
  0
LINE
  5
23CE
330
2358
100
AcDbEntity
  8
1
 62
     7
100
AcDbLine
 10
200.5750002811428
 20
178.5553589642738
 30
0.0
 11
197.5750002811428
 21
178.5553589642738
 31
0.0
  0
LINE
  5
23CF
330
2358
100
AcDbEntity
  8
1
 62
     7
100
AcDbLine
 10
197.7750002811428
 20
192.5553589642738
 30
0.0
 11
216.4750002811429
 21
192.5553589642738
 31
0.0
  0
LINE
  5
23D0
330
2358
100
AcDbEntity
  8
1
 62
     7
100
AcDbLine
 10
197.3750002811429
 20
203.5553589642737
 30
0.0
 11
200.3750002811429
 21
203.5553589642737
 31
0.0
  0
LINE
  5
23D1
330
2358
100
AcDbEntity
  8
1
 62
     7
100
AcDbLine
 10
216.4750002811429
 20
184.5553589642738
 30
0.0
 11
197.7750002811428
 21
184.5553589642738
 31
0.0
  0
LINE
  5
23D2
330
2358
100
AcDbEntity
  8
1
 62
     7
100
AcDbLine
 10
216.8750002811429
 20
184.1553589642735
 30
0.0
 11
216.4750002811429
 21
184.5553589642738
 31
0.0
  0
LINE
  5
23D3
330
2358
100
AcDbEntity
  8
1
 62
     7
100
AcDbLine
 10
216.4750002811429
 20
192.5553589642738
 30
0.0
 11
216.8750002811429
 21
192.9553589642736
 31
0.0
  0
LINE
  5
23D4
330
2358
100
AcDbEntity
  8
1
 62
     7
100
AcDbLine
 10
197.3750002811429
 20
192.9553589642736
 30
0.0
 11
197.7750002811428
 21
192.5553589642738
 31
0.0
  0
LINE
  5
23D5
330
2358
100
AcDbEntity
  8
1
 62
     7
100
AcDbLine
 10
197.7750002811428
 20
184.5553589642738
 30
0.0
 11
197.3750002811429
 21
184.1553589642735
 31
0.0
  0
LINE
  5
23D6
330
2358
100
AcDbEntity
  8
1
 62
     7
100
AcDbLine
 10
216.8750002811429
 20
179.9553589642739
 30
0.0
 11
216.4750002811429
 21
179.5553589642738
 31
0.0
  0
LINE
  5
23D7
330
2358
100
AcDbEntity
  8
1
 62
     7
100
AcDbLine
 10
216.4750002811429
 20
197.5553589642738
 30
0.0
 11
216.8750002811429
 21
197.1553589642738
 31
0.0
  0
LINE
  5
23D8
330
2358
100
AcDbEntity
  8
1
 62
     7
100
AcDbLine
 10
216.8750002811429
 20
197.1553589642738
 30
0.0
 11
216.8750002811429
 21
188.5553589642738
 31
0.0
  0
LINE
  5
23D9
330
2358
100
AcDbEntity
  8
1
 62
     7
100
AcDbLine
 10
197.3750002811429
 20
197.1075128444596
 30
0.0
 11
197.3750002811429
 21
173.7651595065249
 31
0.0
  0
LINE
  5
23DA
330
2358
100
AcDbEntity
  8
1
 62
     7
100
AcDbLine
 10
216.4750002811429
 20
197.5553589642738
 30
0.0
 11
211.8150002811427
 21
197.5553589642738
 31
0.0
  0
LINE
  5
23DB
330
2358
100
AcDbEntity
  8
1
 62
     7
100
AcDbLine
 10
211.4750002811426
 20
197.5553589642738
 30
0.0
 11
211.8150002811427
 21
197.5553589642738
 31
0.0
  0
LINE
  5
23DC
330
2358
100
AcDbEntity
  8
1
 62
     7
100
AcDbLine
 10
216.4750002811429
 20
179.5553589642738
 30
0.0
 11
211.4750002811426
 21
179.5553589642738
 31
0.0
  0
LINE
  5
23DD
330
2358
100
AcDbEntity
  8
1
  6
DIVIDE
 62
     7
100
AcDbLine
 10
211.8750002811427
 20
166.055358964274
 30
0.0
 11
210.8750002811428
 21
166.055358964274
 31
0.0
  0
LINE
  5
23DE
330
2358
100
AcDbEntity
  8
1
  6
DIVIDE
 62
     7
100
AcDbLine
 10
211.8750002811427
 20
211.0553589642738
 30
0.0
 11
210.8750002811428
 21
211.0553589642738
 31
0.0
  0
LINE
  5
23DF
330
2358
100
AcDbEntity
  8
1
  6
DIVIDE
 62
     7
100
AcDbLine
 10
211.8750002811427
 20
211.0553589642738
 30
0.0
 11
211.8750002811427
 21
206.980037513838
 31
0.0
  0
LINE
  5
23E0
330
2358
100
AcDbEntity
  8
1
  6
DIVIDE
 62
     7
100
AcDbLine
 10
211.8750002811427
 20
166.055358964274
 30
0.0
 11
211.8750002811427
 21
169.8323990511463
 31
0.0
  0
LINE
  5
23E1
330
2358
100
AcDbEntity
  8
1
 62
     7
100
AcDbLine
 10
210.8750002811428
 20
158.9553589642739
 30
0.0
 11
210.8750002811428
 21
169.2812406522893
 31
0.0
  0
LINE
  5
23E2
330
2358
100
AcDbEntity
  8
1
 62
     7
100
AcDbLine
 10
210.8750002811428
 20
218.1553589642738
 30
0.0
 11
210.8750002811428
 21
207.9066599810601
 31
0.0
  0
LINE
  5
23E3
330
2358
100
AcDbEntity
  8
1
 62
     7
100
AcDbLine
 10
216.8750002811429
 20
188.5553589642738
 30
0.0
 11
216.8750002811429
 21
179.9553589642739
 31
0.0
  0
LINE
  5
23E4
330
2358
100
AcDbEntity
  8
1
  6
DASHED
 62
     4
100
AcDbLine
 10
306.5760769169354
 20
190.0553589642738
 30
0.0
 11
301.410056485834
 21
190.0553589642738
 31
0.0
  0
LINE
  5
23E5
330
2358
100
AcDbEntity
  8
1
  6
DASHED
 62
     4
100
AcDbLine
 10
301.410056485834
 20
187.0553589642738
 30
0.0
 11
306.5760769169354
 21
187.0553589642738
 31
0.0
  0
LINE
  5
23E6
330
2358
100
AcDbEntity
  8
1
  6
DASHED
 62
     4
100
AcDbLine
 10
306.634482081322
 20
187.4553589642736
 30
0.0
 11
301.5477341468918
 21
187.4553589642736
 31
0.0
  0
LINE
  5
23E7
330
2358
100
AcDbEntity
  8
1
  6
DASHED
 62
     4
100
AcDbLine
 10
301.5477341468918
 20
189.655358964274
 30
0.0
 11
306.634482081322
 21
189.655358964274
 31
0.0
  0
LINE
  5
23E8
330
2358
100
AcDbEntity
  8
1
  6
DASHED
 62
     4
100
AcDbLine
 10
299.2019572422861
 20
192.2298717589371
 30
0.0
 11
299.2019572422861
 21
197.4294786389234
 31
0.0
  0
LINE
  5
23E9
330
2358
100
AcDbEntity
  8
1
  6
DASHED
 62
     4
100
AcDbLine
 10
296.601957242286
 20
192.4011358688798
 30
0.0
 11
296.601957242286
 21
197.4878838033103
 31
0.0
  0
LINE
  5
23EA
330
2358
100
AcDbEntity
  8
1
  6
DASHED
 62
     4
100
AcDbLine
 10
298.801957242286
 20
197.4878838033103
 30
0.0
 11
298.801957242286
 21
192.4011358688798
 31
0.0
  0
LINE
  5
23EB
330
2358
100
AcDbEntity
  8
1
  6
DASHED
 62
     4
100
AcDbLine
 10
296.2019572422858
 20
197.4294786389234
 30
0.0
 11
296.2019572422858
 21
192.2298717589371
 31
0.0
  0
LINE
  5
23EC
330
2358
100
AcDbEntity
  8
1
 62
     7
100
AcDbLine
 10
299.5019572422862
 20
176.4383254989408
 30
0.0
 11
299.5019572422862
 21
179.7371958902545
 31
0.0
  0
LINE
  5
23ED
330
2358
100
AcDbEntity
  8
1
 62
     7
100
AcDbLine
 10
295.901957242286
 20
176.4383254989408
 30
0.0
 11
295.901957242286
 21
179.7371958902545
 31
0.0
  0
LINE
  5
23EE
330
2358
100
AcDbEntity
  8
1
 62
     7
100
AcDbLine
 10
295.901957242286
 20
176.2553589642739
 30
0.0
 11
295.901957242286
 21
176.4383254989408
 31
0.0
  0
LINE
  5
23EF
330
2358
100
AcDbEntity
  8
1
 62
     7
100
AcDbLine
 10
299.5019572422862
 20
176.2553589642739
 30
0.0
 11
299.5019572422862
 21
176.4383254989408
 31
0.0
  0
LINE
  5
23F0
330
2358
100
AcDbEntity
  8
1
 62
     7
100
AcDbLine
 10
299.5019572422862
 20
176.2553589642739
 30
0.0
 11
301.2019572422861
 21
176.2553589642739
 31
0.0
  0
LINE
  5
23F1
330
2358
100
AcDbEntity
  8
1
 62
     7
100
AcDbLine
 10
295.901957242286
 20
176.2553589642739
 30
0.0
 11
294.2019572422858
 21
176.2553589642739
 31
0.0
  0
LINE
  5
23F2
330
2358
100
AcDbEntity
  8
1
 62
     7
100
AcDbLine
 10
303.2019572422861
 20
178.2553589642739
 30
0.0
 11
303.2019572422861
 21
178.6313237625686
 31
0.0
  0
LINE
  5
23F3
330
2358
100
AcDbEntity
  8
1
 62
     7
100
AcDbLine
 10
292.2019572422858
 20
178.2553589642739
 30
0.0
 11
292.2019572422858
 21
178.6313237625686
 31
0.0
  0
LINE
  5
23F4
330
2358
100
AcDbEntity
  8
1
  6
CENTER
 62
     3
100
AcDbLine
 10
312.5619572422861
 20
214.2936339647472
 30
0.0
 11
309.8419572422861
 21
209.58245576816
 31
0.0
  0
LINE
  5
23F5
330
2358
100
AcDbEntity
  8
1
  6
CENTER
 62
     3
100
AcDbLine
 10
312.5619572422861
 20
162.8170839638005
 30
0.0
 11
309.841957242286
 21
167.5282621603878
 31
0.0
  0
LINE
  5
23F6
330
2358
100
AcDbEntity
  8
1
  6
CENTER
 62
     3
100
AcDbLine
 10
282.8419572422859
 20
162.8170839638005
 30
0.0
 11
285.5619572422861
 21
167.5282621603878
 31
0.0
  0
LINE
  5
23F7
330
2358
100
AcDbEntity
  8
1
  6
CENTER
 62
     3
100
AcDbLine
 10
282.8419572422859
 20
214.2936339647472
 30
0.0
 11
285.5619572422861
 21
209.58245576816
 31
0.0
  0
LINE
  5
23F8
330
2358
100
AcDbEntity
  8
1
  6
CENTER
 62
     3
100
AcDbLine
 10
271.9636822418124
 20
203.4153589642734
 30
0.0
 11
276.6748604383999
 21
200.6953589642739
 31
0.0
  0
LINE
  5
23F9
330
2358
100
AcDbEntity
  8
1
  6
CENTER
 62
     3
100
AcDbLine
 10
323.4402322427595
 20
173.6953589642739
 30
0.0
 11
318.729054046172
 21
176.415358964274
 31
0.0
  0
LINE
  5
23FA
330
2358
100
AcDbEntity
  8
1
  6
CENTER
 62
     3
100
AcDbLine
 10
271.9636822418124
 20
173.6953589642739
 30
0.0
 11
276.6748604383999
 21
176.415358964274
 31
0.0
  0
LINE
  5
23FB
330
2358
100
AcDbEntity
  8
1
  6
CENTER
 62
     3
100
AcDbLine
 10
323.4402322427596
 20
203.4153589642734
 30
0.0
 11
318.729054046172
 21
200.6953589642739
 31
0.0
  0
LINE
  5
23FC
330
2358
100
AcDbEntity
  8
1
  6
CENTER
 62
     3
100
AcDbLine
 10
305.3940592627327
 20
217.262674521585
 30
0.0
 11
303.9860836573751
 21
212.0080380265724
 31
0.0
  0
LINE
  5
23FD
330
2358
100
AcDbEntity
  8
1
  6
CENTER
 62
     3
100
AcDbLine
 10
290.0098552218389
 20
159.8480434069628
 30
0.0
 11
291.4178308271969
 21
165.1026799019755
 31
0.0
  0
LINE
  5
23FE
330
2358
100
AcDbEntity
  8
1
 62
     7
100
AcDbLine
 10
210.5750002811428
 20
203.7028589642736
 30
0.0
 11
210.5750002811428
 21
201.1249897793232
 31
0.0
  0
LINE
  5
23FF
330
2358
100
AcDbEntity
  8
1
 62
     7
100
AcDbLine
 10
210.5750002811428
 20
176.0288857018716
 30
0.0
 11
210.5750002811428
 21
173.407858964274
 31
0.0
  0
LINE
  5
2400
330
2358
100
AcDbEntity
  8
1
 62
     7
100
AcDbLine
 10
209.0750002811428
 20
201.3053589642737
 30
0.0
 11
210.5750002811428
 21
201.3053589642737
 31
0.0
  0
LINE
  5
2401
330
2358
100
AcDbEntity
  8
1
 62
     7
100
AcDbLine
 10
209.0750002811428
 20
200.8053589642738
 30
0.0
 11
210.2750002811428
 21
200.8053589642738
 31
0.0
  0
LINE
  5
2402
330
2358
100
AcDbEntity
  8
1
 62
     7
100
AcDbLine
 10
203.7750002811427
 20
197.8053589642738
 30
0.0
 11
210.2750002811428
 21
197.8053589642738
 31
0.0
  0
LINE
  5
2403
330
2358
100
AcDbEntity
  8
1
 62
     7
100
AcDbLine
 10
209.0750002811428
 20
201.3053589642737
 30
0.0
 11
209.0750002811428
 21
197.5553589642738
 31
0.0
  0
LINE
  5
2404
330
2358
100
AcDbEntity
  8
1
 62
     7
100
AcDbLine
 10
200.3750002811429
 20
197.5553589642738
 30
0.0
 11
210.1250002811428
 21
197.5553589642738
 31
0.0
  0
LINE
  5
2405
330
2358
100
AcDbEntity
  8
1
 62
     7
100
AcDbLine
 10
210.1250002811428
 20
179.5553589642738
 30
0.0
 11
200.3750002811429
 21
179.5553589642738
 31
0.0
  0
LINE
  5
2406
330
2358
100
AcDbEntity
  8
1
 62
     7
100
AcDbLine
 10
210.2750002811428
 20
179.3053589642738
 30
0.0
 11
203.7750002811427
 21
179.3053589642738
 31
0.0
  0
LINE
  5
2407
330
2358
100
AcDbEntity
  8
1
 62
     7
100
AcDbLine
 10
209.0750002811428
 20
179.5553589642738
 30
0.0
 11
209.0750002811428
 21
175.8053589642738
 31
0.0
  0
LINE
  5
2408
330
2358
100
AcDbEntity
  8
1
 62
     7
100
AcDbLine
 10
209.0750002811428
 20
175.8053589642738
 30
0.0
 11
210.5750002811428
 21
175.8053589642738
 31
0.0
  0
LINE
  5
2409
330
2358
100
AcDbEntity
  8
1
  6
CENTER
 62
     3
100
AcDbLine
 10
187.0030002811428
 20
188.5553589642738
 30
0.0
 11
192.6069750420206
 21
188.5553589642738
 31
0.0
  0
LINE
  5
240A
330
2358
100
AcDbEntity
  8
1
 62
     7
100
AcDbLine
 10
187.3750002811423
 20
224.1553589642736
 30
0.0
 11
187.3750002811423
 21
210.6883589642736
 31
0.0
  0
LINE
  5
240B
330
2358
100
AcDbEntity
  8
1
 62
     7
100
AcDbLine
 10
187.3750002811423
 20
224.1553589642736
 30
0.0
 11
186.9750002811428
 21
224.5553589642738
 31
0.0
  0
LINE
  5
240C
330
2358
100
AcDbEntity
  8
1
 62
     7
100
AcDbLine
 10
184.7750002811428
 20
224.5553589642738
 30
0.0
 11
186.9750002811428
 21
224.5553589642738
 31
0.0
  0
LINE
  5
240D
330
2358
100
AcDbEntity
  8
1
 62
     7
100
AcDbLine
 10
184.3750002811423
 20
224.1553589642736
 30
0.0
 11
184.3750002811423
 21
218.955358964274
 31
0.0
  0
LINE
  5
240E
330
2358
100
AcDbEntity
  8
1
 62
     7
100
AcDbLine
 10
184.3750002811423
 20
224.1553589642736
 30
0.0
 11
184.7750002811428
 21
224.5553589642738
 31
0.0
  0
LINE
  5
240F
330
2358
100
AcDbEntity
  8
1
 62
     7
100
AcDbLine
 10
184.7750002811428
 20
218.555358964274
 30
0.0
 11
184.3750002811423
 21
218.955358964274
 31
0.0
  0
LINE
  5
2410
330
2358
100
AcDbEntity
  8
1
  6
CENTER
 62
     3
100
AcDbLine
 10
184.0750002811428
 20
155.555358964274
 30
0.0
 11
187.6750002811428
 21
155.555358964274
 31
0.0
  0
LINE
  5
2411
330
2358
100
AcDbEntity
  8
1
 62
     7
100
AcDbLine
 10
184.3750002811423
 20
153.805358964274
 30
0.0
 11
187.3750002811423
 21
153.805358964274
 31
0.0
  0
LINE
  5
2412
330
2358
100
AcDbEntity
  8
1
 62
     7
100
AcDbLine
 10
184.3750002811423
 20
157.3053589642738
 30
0.0
 11
187.3750002811423
 21
157.3053589642738
 31
0.0
  0
LINE
  5
2413
330
2358
100
AcDbEntity
  8
1
 62
     7
100
AcDbLine
 10
187.0030002811428
 20
218.2553589642739
 30
0.0
 11
187.0030002811428
 21
158.855358964274
 31
0.0
  0
LINE
  5
2414
330
2358
100
AcDbEntity
  8
1
 62
     7
100
AcDbLine
 10
187.3750002811423
 20
166.4223589642739
 30
0.0
 11
187.3750002811423
 21
152.955358964274
 31
0.0
  0
LINE
  5
2415
330
2358
100
AcDbEntity
  8
1
 62
     7
100
AcDbLine
 10
186.9750002811428
 20
152.555358964274
 30
0.0
 11
187.3750002811423
 21
152.955358964274
 31
0.0
  0
LINE
  5
2416
330
2358
100
AcDbEntity
  8
1
 62
     7
100
AcDbLine
 10
186.9750002811428
 20
152.555358964274
 30
0.0
 11
184.7750002811428
 21
152.555358964274
 31
0.0
  0
LINE
  5
2417
330
2358
100
AcDbEntity
  8
1
 62
     7
100
AcDbLine
 10
184.3750002811423
 20
158.1553589642735
 30
0.0
 11
184.3750002811423
 21
152.955358964274
 31
0.0
  0
LINE
  5
2418
330
2358
100
AcDbEntity
  8
1
 62
     7
100
AcDbLine
 10
184.7750002811428
 20
152.555358964274
 30
0.0
 11
184.3750002811423
 21
152.955358964274
 31
0.0
  0
LINE
  5
2419
330
2358
100
AcDbEntity
  8
1
 62
     7
100
AcDbLine
 10
186.7030002811429
 20
158.555358964274
 30
0.0
 11
184.7750002811428
 21
158.555358964274
 31
0.0
  0
LINE
  5
241A
330
2358
100
AcDbEntity
  8
1
 62
     7
100
AcDbLine
 10
184.3750002811423
 20
158.1553589642735
 30
0.0
 11
184.7750002811428
 21
158.555358964274
 31
0.0
  0
LINE
  5
241B
330
2358
100
AcDbEntity
  8
1
  6
CENTER
 62
     3
100
AcDbLine
 10
63.0926184305851
 20
188.5553589642738
 30
0.0
 11
69.0926184305851
 21
188.5553589642738
 31
0.0
  0
LINE
  5
241C
330
2358
100
AcDbEntity
  8
1
  6
CENTER
 62
     3
100
AcDbLine
 10
69.0926184305851
 20
188.5553589642738
 30
0.0
 11
141.092618430585
 21
188.5553589642738
 31
0.0
  0
LINE
  5
241D
330
2358
100
AcDbEntity
  8
1
  6
CENTER
 62
     3
100
AcDbLine
 10
102.0926184305851
 20
149.555358964274
 30
0.0
 11
102.0926184305851
 21
227.5553589642738
 31
0.0
  0
LINE
  5
241E
330
2358
100
AcDbEntity
  8
1
  6
CENTER
 62
     3
100
AcDbLine
 10
84.28011843058511
 20
219.4075139740947
 30
0.0
 11
86.9051184305851
 21
214.8608806042263
 31
0.0
  0
LINE
  5
241F
330
2358
100
AcDbEntity
  8
1
  6
CENTER
 62
     3
100
AcDbLine
 10
71.24046342076458
 20
206.3678589642738
 30
0.0
 11
75.78709679063276
 21
203.7428589642737
 31
0.0
  0
LINE
  5
2420
330
2358
100
AcDbEntity
  8
1
  6
CENTER
 62
     3
100
AcDbLine
 10
71.24046342076458
 20
170.7428589642738
 30
0.0
 11
75.78709679063276
 21
173.3678589642738
 31
0.0
  0
LINE
  5
2421
330
2358
100
AcDbEntity
  8
1
  6
CENTER
 62
     3
100
AcDbLine
 10
84.28011843058511
 20
157.7032039544533
 30
0.0
 11
86.9051184305851
 21
162.2498373243215
 31
0.0
  0
LINE
  5
2422
330
2358
100
AcDbEntity
  8
1
  6
CENTER
 62
     3
100
AcDbLine
 10
119.9051184305852
 20
157.7032039544533
 30
0.0
 11
117.2801184305851
 21
162.2498373243215
 31
0.0
  0
LINE
  5
2423
330
2358
100
AcDbEntity
  8
1
  6
CENTER
 62
     3
100
AcDbLine
 10
132.9447734404054
 20
170.742858964274
 30
0.0
 11
128.3981400705374
 21
173.3678589642738
 31
0.0
  0
LINE
  5
2424
330
2358
100
AcDbEntity
  8
1
  6
CENTER
 62
     3
100
AcDbLine
 10
132.9447734404054
 20
206.3678589642738
 30
0.0
 11
128.3981400705374
 21
203.7428589642737
 31
0.0
  0
LINE
  5
2425
330
2358
100
AcDbEntity
  8
1
  6
CENTER
 62
     3
100
AcDbLine
 10
119.9051184305852
 20
219.4075139740947
 30
0.0
 11
117.280118430585
 21
214.8608806042263
 31
0.0
  0
LINE
  5
2426
330
2358
100
AcDbEntity
  8
1
  6
PHANTOM
 62
     4
100
AcDbLine
 10
186.4750002811428
 20
207.5553589642737
 30
0.0
 11
193.7750002811428
 21
207.5553589642737
 31
0.0
  0
LINE
  5
2427
330
2358
100
AcDbEntity
  8
1
  6
PHANTOM
 62
     4
100
AcDbLine
 10
186.4750002811428
 20
218.555358964274
 30
0.0
 11
186.4750002811428
 21
207.5553589642737
 31
0.0
  0
LINE
  5
2428
330
2358
100
AcDbEntity
  8
1
 62
     7
100
AcDbLine
 10
184.7750002811428
 20
218.555358964274
 30
0.0
 11
186.6030002811428
 21
218.555358964274
 31
0.0
  0
LINE
  5
2429
330
2358
100
AcDbEntity
  8
1
  6
PHANTOM
 62
     4
100
AcDbLine
 10
187.9750002811428
 20
211.0553589642738
 30
0.0
 11
195.7750002811429
 21
211.0553589642738
 31
0.0
  0
LINE
  5
242A
330
2358
100
AcDbEntity
  8
1
  6
PHANTOM
 62
     4
100
AcDbLine
 10
187.9750002811428
 20
218.555358964274
 30
0.0
 11
187.9750002811428
 21
211.0553589642738
 31
0.0
  0
LINE
  5
242B
330
2358
100
AcDbEntity
  8
1
 62
     7
100
AcDbLine
 10
197.3750002811429
 20
197.1075128444596
 30
0.0
 11
197.3750002811429
 21
203.5553589642737
 31
0.0
  0
LINE
  5
242C
330
2358
100
AcDbEntity
  8
1
  6
PHANTOM
 62
     4
100
AcDbLine
 10
187.9750002811428
 20
166.0553589642738
 30
0.0
 11
187.9750002811428
 21
158.5553589642738
 31
0.0
  0
LINE
  5
242D
330
2358
100
AcDbEntity
  8
1
  6
PHANTOM
 62
     4
100
AcDbLine
 10
195.7750002811429
 20
166.0553589642738
 30
0.0
 11
187.9750002811428
 21
166.0553589642738
 31
0.0
  0
LINE
  5
242E
330
2358
100
AcDbEntity
  8
1
  6
PHANTOM
 62
     4
100
AcDbLine
 10
186.4750002811428
 20
169.5553589642738
 30
0.0
 11
186.4750002811428
 21
158.5553589642738
 31
0.0
  0
LINE
  5
242F
330
2358
100
AcDbEntity
  8
1
  6
PHANTOM
 62
     4
100
AcDbLine
 10
193.7750002811428
 20
169.5553589642738
 30
0.0
 11
186.4750002811428
 21
169.5553589642738
 31
0.0
  0
LINE
  5
2434
330
2358
100
AcDbEntity
  8
1
 62
     7
100
AcDbLine
 10
204.1550002811427
 20
204.7453589642738
 30
0.0
 11
204.1550002811427
 21
208.5853589642737
 31
0.0
  0
LINE
  5
2435
330
2358
100
AcDbEntity
  8
1
 62
     7
100
AcDbLine
 10
210.3150002811423
 20
204.7453589642738
 30
0.0
 11
210.3150002811425
 21
208.5853589642737
 31
0.0
  0
LINE
  5
2436
330
2358
100
AcDbEntity
  8
1
 62
     7
100
AcDbLine
 10
204.1550002811427
 20
172.3653589642739
 30
0.0
 11
204.1550002811427
 21
168.5253589642738
 31
0.0
  0
LINE
  5
2437
330
2358
100
AcDbEntity
  8
1
 62
     7
100
AcDbLine
 10
210.3150002811423
 20
168.5253589642738
 30
0.0
 11
210.115000281143
 21
168.725358964274
 31
0.0
  0
LINE
  5
2438
330
2358
100
AcDbEntity
  8
1
 62
     7
100
AcDbLine
 10
210.3150002811423
 20
168.5253589642738
 30
0.0
 11
210.3150002811423
 21
167.9830340988688
 31
0.0
  0
LINE
  5
2439
330
2358
100
AcDbEntity
  8
1
 62
     7
100
AcDbLine
 10
204.1550002811427
 20
208.5853589642737
 30
0.0
 11
204.3550002811428
 21
208.3853589642739
 31
0.0
  0
LINE
  5
243A
330
2358
100
AcDbEntity
  8
1
 62
     7
100
AcDbLine
 10
210.3150002811425
 20
208.5853589642737
 30
0.0
 11
210.115000281143
 21
208.3853589642739
 31
0.0
  0
LINE
  5
243B
330
2358
100
AcDbEntity
  8
1
 62
     7
100
AcDbLine
 10
204.1550002811427
 20
168.5253589642738
 30
0.0
 11
204.3550002811428
 21
168.725358964274
 31
0.0
  0
LINE
  5
243C
330
2358
100
AcDbEntity
  8
1
 62
     7
100
AcDbLine
 10
204.1550002811427
 20
209.1276838296793
 30
0.0
 11
204.6550002811428
 21
209.4163589642739
 31
0.0
  0
LINE
  5
243D
330
2358
100
AcDbEntity
  8
1
 62
     7
100
AcDbLine
 10
210.3150002811425
 20
209.1276838296793
 30
0.0
 11
209.8150002811427
 21
209.4163589642739
 31
0.0
  0
LINE
  5
243E
330
2358
100
AcDbEntity
  8
1
 62
     7
100
AcDbLine
 10
210.3150002811425
 20
208.5853589642737
 30
0.0
 11
210.3150002811425
 21
209.1276838296793
 31
0.0
  0
LINE
  5
243F
330
2358
100
AcDbEntity
  8
1
 62
     7
100
AcDbLine
 10
204.6550002811428
 20
209.4163589642739
 30
0.0
 11
209.8150002811427
 21
209.4163589642739
 31
0.0
  0
LINE
  5
2440
330
2358
100
AcDbEntity
  8
1
 62
     7
100
AcDbLine
 10
204.1550002811427
 20
208.5853589642737
 30
0.0
 11
204.1550002811427
 21
209.1276838296793
 31
0.0
  0
LINE
  5
2441
330
2358
100
AcDbEntity
  8
1
 62
     7
100
AcDbLine
 10
204.1550002811427
 20
167.9830340988688
 30
0.0
 11
204.6550002811428
 21
167.694358964274
 31
0.0
  0
LINE
  5
2442
330
2358
100
AcDbEntity
  8
1
 62
     7
100
AcDbLine
 10
204.6550002811428
 20
167.694358964274
 30
0.0
 11
209.8150002811427
 21
167.694358964274
 31
0.0
  0
LINE
  5
2443
330
2358
100
AcDbEntity
  8
1
 62
     7
100
AcDbLine
 10
204.1550002811427
 20
168.5253589642738
 30
0.0
 11
204.1550002811427
 21
167.9830340988688
 31
0.0
  0
LINE
  5
2444
330
2358
100
AcDbEntity
  8
1
 62
     7
100
AcDbLine
 10
210.3150002811423
 20
167.9830340988688
 30
0.0
 11
209.8150002811427
 21
167.694358964274
 31
0.0
  0
LINE
  5
2445
330
2358
100
AcDbEntity
  8
1
 62
     7
100
AcDbLine
 10
210.3150002811423
 20
168.5253589642738
 30
0.0
 11
210.3150002811425
 21
172.3653589642739
 31
0.0
  0
LINE
  5
2446
330
2358
100
AcDbEntity
  8
1
 62
     7
100
AcDbLine
 10
210.5750002811428
 20
204.4853589642736
 30
0.0
 11
210.2750002811428
 21
204.7853589642739
 31
0.0
  0
LINE
  5
2447
330
2358
100
AcDbEntity
  8
1
 62
     7
100
AcDbLine
 10
210.5750002811428
 20
204.0053589642738
 30
0.0
 11
210.2750002811428
 21
203.7053589642736
 31
0.0
  0
LINE
  5
2448
330
2358
100
AcDbEntity
  8
1
 62
     7
100
AcDbLine
 10
203.895000281143
 20
204.0053589642738
 30
0.0
 11
204.1950002811427
 21
203.7053589642736
 31
0.0
  0
LINE
  5
2449
330
2358
100
AcDbEntity
  8
1
 62
     7
100
AcDbLine
 10
203.895000281143
 20
204.4853589642736
 30
0.0
 11
204.1950002811427
 21
204.7853589642739
 31
0.0
  0
LINE
  5
244A
330
2358
100
AcDbEntity
  8
1
 62
     7
100
AcDbLine
 10
210.5750002811428
 20
204.0053589642738
 30
0.0
 11
210.5750002811428
 21
204.4853589642736
 31
0.0
  0
LINE
  5
244B
330
2358
100
AcDbEntity
  8
1
 62
     7
100
AcDbLine
 10
203.895000281143
 20
204.4853589642736
 30
0.0
 11
203.895000281143
 21
204.0053589642738
 31
0.0
  0
LINE
  5
244C
330
2358
100
AcDbEntity
  8
1
 62
     7
100
AcDbLine
 10
204.1950002811427
 20
203.7053589642736
 30
0.0
 11
210.2750002811428
 21
203.7053589642736
 31
0.0
  0
LINE
  5
244D
330
2358
100
AcDbEntity
  8
1
 62
     7
100
AcDbLine
 10
208.1067800698511
 20
204.7853589642739
 30
0.0
 11
210.2750002811428
 21
204.7853589642739
 31
0.0
  0
LINE
  5
244E
330
2358
100
AcDbEntity
  8
1
 62
     7
100
AcDbLine
 10
206.3632204924342
 20
204.7853589642739
 30
0.0
 11
204.1950002811427
 21
204.7853589642739
 31
0.0
  0
LINE
  5
244F
330
2358
100
AcDbEntity
  8
1
 62
     7
100
AcDbLine
 10
210.115000281143
 20
208.3853589642739
 30
0.0
 11
208.1067800698511
 21
208.3853589642739
 31
0.0
  0
LINE
  5
2450
330
2358
100
AcDbEntity
  8
1
 62
     7
100
AcDbLine
 10
204.3550002811428
 20
208.3853589642739
 30
0.0
 11
206.3632204924342
 21
208.3853589642739
 31
0.0
  0
LINE
  5
2451
330
2358
100
AcDbEntity
  8
1
 62
     7
100
AcDbLine
 10
204.3550002811428
 20
168.725358964274
 30
0.0
 11
206.3632204924342
 21
168.725358964274
 31
0.0
  0
LINE
  5
2452
330
2358
100
AcDbEntity
  8
1
 62
     7
100
AcDbLine
 10
210.115000281143
 20
168.725358964274
 30
0.0
 11
208.1067800698511
 21
168.725358964274
 31
0.0
  0
LINE
  5
2453
330
2358
100
AcDbEntity
  8
1
 62
     7
100
AcDbLine
 10
204.1950002811427
 20
172.3253589642736
 30
0.0
 11
206.3632204924342
 21
172.3253589642736
 31
0.0
  0
LINE
  5
2454
330
2358
100
AcDbEntity
  8
1
 62
     7
100
AcDbLine
 10
210.2750002811428
 20
172.3253589642736
 30
0.0
 11
208.1067800698511
 21
172.3253589642736
 31
0.0
  0
LINE
  5
2455
330
2358
100
AcDbEntity
  8
1
 62
     7
100
AcDbLine
 10
210.2750002811428
 20
173.405358964274
 30
0.0
 11
204.1950002811427
 21
173.405358964274
 31
0.0
  0
LINE
  5
2456
330
2358
100
AcDbEntity
  8
1
 62
     7
100
AcDbLine
 10
203.895000281143
 20
173.1053589642739
 30
0.0
 11
203.895000281143
 21
172.6253589642738
 31
0.0
  0
LINE
  5
2457
330
2358
100
AcDbEntity
  8
1
 62
     7
100
AcDbLine
 10
210.5750002811428
 20
172.6253589642738
 30
0.0
 11
210.5750002811428
 21
173.1053589642739
 31
0.0
  0
LINE
  5
2458
330
2358
100
AcDbEntity
  8
1
 62
     7
100
AcDbLine
 10
204.1950002811427
 20
172.3253589642736
 30
0.0
 11
203.895000281143
 21
172.6253589642738
 31
0.0
  0
LINE
  5
2459
330
2358
100
AcDbEntity
  8
1
 62
     7
100
AcDbLine
 10
204.1950002811427
 20
173.405358964274
 30
0.0
 11
203.895000281143
 21
173.1053589642739
 31
0.0
  0
LINE
  5
245A
330
2358
100
AcDbEntity
  8
1
 62
     7
100
AcDbLine
 10
210.2750002811428
 20
173.405358964274
 30
0.0
 11
210.5750002811428
 21
173.1053589642739
 31
0.0
  0
LINE
  5
245B
330
2358
100
AcDbEntity
  8
1
 62
     7
100
AcDbLine
 10
210.2750002811428
 20
172.3253589642736
 30
0.0
 11
210.5750002811428
 21
172.6253589642738
 31
0.0
  0
LINE
  5
245C
330
2358
100
AcDbEntity
  8
1
 62
     7
100
AcDbLine
 10
205.8367513762624
 20
171.9553589642736
 30
0.0
 11
205.2350002811429
 21
171.9553589642736
 31
0.0
  0
LINE
  5
245D
330
2358
100
AcDbEntity
  8
1
 62
     7
100
AcDbLine
 10
204.3771503268244
 20
171.9553589642736
 30
0.0
 11
205.2350002811429
 21
171.9553589642736
 31
0.0
  0
LINE
  5
245E
330
2358
100
AcDbEntity
  8
1
 62
     7
100
AcDbLine
 10
204.2084174810454
 20
171.764641175895
 30
0.0
 11
204.3550002811428
 21
170.5708200715183
 31
0.0
  0
LINE
  5
245F
330
2358
100
AcDbEntity
  8
1
 62
     7
100
AcDbLine
 10
204.3550002811428
 20
169.335358964274
 30
0.0
 11
204.3550002811428
 21
170.5708200715183
 31
0.0
  0
LINE
  5
2460
330
2358
100
AcDbEntity
  8
1
 62
     7
100
AcDbLine
 10
204.5250002811429
 20
169.165358964274
 30
0.0
 11
205.2350002811429
 21
169.165358964274
 31
0.0
  0
LINE
  5
2461
330
2358
100
AcDbEntity
  8
1
 62
     7
100
AcDbLine
 10
205.2350002811429
 20
171.9553589642736
 30
0.0
 11
205.2350002811429
 21
169.165358964274
 31
0.0
  0
LINE
  5
2462
330
2358
100
AcDbEntity
  8
1
 62
     7
100
AcDbLine
 10
205.768576058757
 20
169.165358964274
 30
0.0
 11
205.2350002811429
 21
169.165358964274
 31
0.0
  0
LINE
  5
2463
330
2358
100
AcDbEntity
  8
1
 62
     7
100
AcDbLine
 10
204.3771503268244
 20
205.1553589642737
 30
0.0
 11
205.2350002811429
 21
205.1553589642737
 31
0.0
  0
LINE
  5
2464
330
2358
100
AcDbEntity
  8
1
 62
     7
100
AcDbLine
 10
204.2084174810454
 20
205.3460767526527
 30
0.0
 11
204.3550002811428
 21
206.5398978570295
 31
0.0
  0
LINE
  5
2465
330
2358
100
AcDbEntity
  8
1
 62
     7
100
AcDbLine
 10
204.3550002811428
 20
207.7753589642738
 30
0.0
 11
204.3550002811428
 21
206.5398978570295
 31
0.0
  0
LINE
  5
2466
330
2358
100
AcDbEntity
  8
1
 62
     7
100
AcDbLine
 10
205.2350002811429
 20
207.9453589642739
 30
0.0
 11
205.768576058757
 21
207.9453589642739
 31
0.0
  0
LINE
  5
2467
330
2358
100
AcDbEntity
  8
1
 62
     7
100
AcDbLine
 10
205.2350002811429
 20
207.9453589642739
 30
0.0
 11
205.2350002811429
 21
205.1553589642737
 31
0.0
  0
LINE
  5
2468
330
2358
100
AcDbEntity
  8
1
 62
     7
100
AcDbLine
 10
204.5250002811429
 20
207.9453589642739
 30
0.0
 11
205.2350002811429
 21
207.9453589642739
 31
0.0
  0
LINE
  5
2469
330
2358
100
AcDbEntity
  8
1
 62
     7
100
AcDbLine
 10
205.2350002811429
 20
205.1553589642737
 30
0.0
 11
205.8367513762624
 21
205.1553589642737
 31
0.0
  0
ARC
  5
246A
330
2358
100
AcDbEntity
  8
1
 62
     7
100
AcDbCircle
 10
198.3843442281578
 20
226.7383589642739
 30
0.0
 40
16.95349736054025
100
AcDbArc
 50
268.8361804511821
 51
285.3598109350006
  0
ARC
  5
246B
330
2358
100
AcDbEntity
  8
1
 62
     7
100
AcDbCircle
 10
198.3811652083144
 20
150.3723589642739
 30
0.0
 40
16.95439936010068
100
AcDbArc
 50
74.62982550519787
 51
91.30527065139522
  0
ARC
  5
246C
330
2358
100
AcDbEntity
  8
1
 62
     7
100
AcDbCircle
 10
297.7019572422861
 20
188.5553589642738
 30
0.0
 40
12.25
100
AcDbArc
 50
261.550434450842
 51
278.4495655491578
  0
ARC
  5
246D
330
2358
100
AcDbEntity
  8
1
 62
     7
100
AcDbCircle
 10
297.7019572422861
 20
188.5553589642738
 30
0.0
 40
12.24999999999997
100
AcDbArc
 50
295.9974438375595
 51
244.0025561624404
  0
ARC
  5
246E
330
2358
100
AcDbEntity
  8
1
 62
     7
100
AcDbCircle
 10
297.7019572422861
 20
188.5553589642738
 30
0.0
 40
8.999999999999969
100
AcDbArc
 50
258.4630409671834
 51
281.5369590328165
  0
ARC
  5
246F
330
2358
100
AcDbEntity
  8
1
 62
     7
100
AcDbCircle
 10
297.7019572422861
 20
188.5553589642738
 30
0.0
 40
8.99999999999998
100
AcDbArc
 50
281.5369590328165
 51
258.4630409671834
  0
ARC
  5
2470
330
2358
100
AcDbEntity
  8
1
 62
     7
100
AcDbCircle
 10
297.8729812589678
 20
189.200324009429
 30
0.0
 40
10.45643367125294
100
AcDbArc
 50
308.2401292018792
 51
90.93716381754648
  0
ARC
  5
2471
330
2358
100
AcDbEntity
  8
1
 62
     7
100
AcDbCircle
 10
297.5309332256043
 20
189.200324009429
 30
0.0
 40
10.45643367125282
100
AcDbArc
 50
89.06283618245346
 51
231.7598707981205
  0
ARC
  5
2472
330
2358
100
AcDbEntity
  8
1
 62
     7
100
AcDbCircle
 10
297.7019572422861
 20
206.5853589642737
 30
0.0
 40
1.999999999999992
100
AcDbArc
 50
117.4345810005076
 51
244.0596575359968
  0
ARC
  5
2473
330
2358
100
AcDbEntity
  8
1
 62
     7
100
AcDbCircle
 10
297.7019572422861
 20
206.5853589642737
 30
0.0
 40
2.000000000000015
100
AcDbArc
 50
294.5135966068216
 51
0.0
  0
ARC
  5
2474
330
2358
100
AcDbEntity
  8
1
 62
     7
100
AcDbCircle
 10
297.7019572422861
 20
206.5853589642737
 30
0.0
 40
2.0
100
AcDbArc
 50
0.0
 51
62.56541899949224
  0
ARC
  5
2475
330
2358
100
AcDbEntity
  8
1
 62
     7
100
AcDbCircle
 10
297.7019572422861
 20
206.5853589642737
 30
0.0
 40
2.169999999999956
100
AcDbArc
 50
143.8296759522465
 51
224.0393227027963
  0
ARC
  5
2476
330
2358
100
AcDbEntity
  8
1
 62
     7
100
AcDbCircle
 10
292.83752264403
 20
205.9167579873736
 30
0.0
 40
2.16999999999986
100
AcDbArc
 50
331.6128472971982
 51
51.82249404775141
  0
ARC
  5
2477
330
2358
100
AcDbEntity
  8
1
 62
     7
100
AcDbCircle
 10
297.7019572422861
 20
188.5553589642738
 30
0.0
 40
19.38999999999996
100
AcDbArc
 50
95.18338940748893
 51
100.4687805925105
  0
ARC
  5
2478
330
2358
100
AcDbEntity
  8
1
 62
     7
100
AcDbCircle
 10
297.7019572422861
 20
188.5553589642738
 30
0.0
 40
16.59500000000002
100
AcDbArc
 50
95.39377496286094
 51
100.2583950371396
  0
ARC
  5
2479
330
2358
100
AcDbEntity
  8
1
 62
     7
100
AcDbCircle
 10
297.7019572422861
 20
188.5553589642738
 30
0.0
 40
19.39000000000005
100
AcDbArc
 50
110.8355594074894
 51
116.1209505925097
  0
ARC
  5
247A
330
2358
100
AcDbEntity
  8
1
 62
     7
100
AcDbCircle
 10
297.7019572422861
 20
188.5553589642738
 30
0.0
 40
19.39
100
AcDbArc
 50
126.4877294074894
 51
131.7731205925109
  0
ARC
  5
247B
330
2358
100
AcDbEntity
  8
1
 62
     7
100
AcDbCircle
 10
297.7019572422861
 20
188.5553589642738
 30
0.0
 40
19.38999999999996
100
AcDbArc
 50
142.1398994074886
 51
147.4252905925103
  0
ARC
  5
247C
330
2358
100
AcDbEntity
  8
1
 62
     7
100
AcDbCircle
 10
297.7019572422861
 20
188.5553589642738
 30
0.0
 40
19.39000000000008
100
AcDbArc
 50
157.792069407489
 51
163.0774605925103
  0
ARC
  5
247D
330
2358
100
AcDbEntity
  8
1
 62
     7
100
AcDbCircle
 10
297.7019572422861
 20
188.5553589642738
 30
0.0
 40
19.39000000000008
100
AcDbArc
 50
173.4442394074893
 51
178.72963059251
  0
ARC
  5
247E
330
2358
100
AcDbEntity
  8
1
 62
     7
100
AcDbCircle
 10
297.7019572422861
 20
188.5553589642738
 30
0.0
 40
19.38999999999989
100
AcDbArc
 50
189.096409407489
 51
194.3818005925092
  0
ARC
  5
247F
330
2358
100
AcDbEntity
  8
1
 62
     7
100
AcDbCircle
 10
297.7019572422861
 20
188.5553589642738
 30
0.0
 40
19.38999999999995
100
AcDbArc
 50
204.7485794074893
 51
210.0339705925094
  0
ARC
  5
2480
330
2358
100
AcDbEntity
  8
1
 62
     7
100
AcDbCircle
 10
297.7019572422861
 20
188.5553589642738
 30
0.0
 40
19.38999999999984
100
AcDbArc
 50
220.4007494074897
 51
225.6861405925092
  0
ARC
  5
2481
330
2358
100
AcDbEntity
  8
1
 62
     7
100
AcDbCircle
 10
297.7019572422861
 20
188.5553589642738
 30
0.0
 40
19.39
100
AcDbArc
 50
236.0529194074897
 51
241.3383105925098
  0
ARC
  5
2482
330
2358
100
AcDbEntity
  8
1
 62
     7
100
AcDbCircle
 10
297.7019572422861
 20
188.5553589642738
 30
0.0
 40
19.38999999999996
100
AcDbArc
 50
251.7050894074885
 51
256.9904805925094
  0
ARC
  5
2483
330
2358
100
AcDbEntity
  8
1
 62
     7
100
AcDbCircle
 10
297.7019572422861
 20
188.5553589642738
 30
0.0
 40
19.38999999999994
100
AcDbArc
 50
267.3572594074892
 51
272.64265059251
  0
ARC
  5
2484
330
2358
100
AcDbEntity
  8
1
 62
     7
100
AcDbCircle
 10
297.7019572422861
 20
188.5553589642738
 30
0.0
 40
19.38999999999996
100
AcDbArc
 50
283.0094294074886
 51
288.2948205925092
  0
ARC
  5
2485
330
2358
100
AcDbEntity
  8
1
 62
     7
100
AcDbCircle
 10
297.7019572422861
 20
188.5553589642738
 30
0.0
 40
19.38999999999996
100
AcDbArc
 50
298.6615994074885
 51
303.9469905925096
  0
ARC
  5
2486
330
2358
100
AcDbEntity
  8
1
 62
     7
100
AcDbCircle
 10
297.7019572422861
 20
188.5553589642738
 30
0.0
 40
19.38999999999989
100
AcDbArc
 50
314.3137694074882
 51
319.5991605925105
  0
ARC
  5
2487
330
2358
100
AcDbEntity
  8
1
 62
     7
100
AcDbCircle
 10
297.7019572422861
 20
188.5553589642738
 30
0.0
 40
19.38999999999984
100
AcDbArc
 50
329.9659394074897
 51
335.2513305925092
  0
ARC
  5
2488
330
2358
100
AcDbEntity
  8
1
 62
     7
100
AcDbCircle
 10
297.7019572422861
 20
188.5553589642738
 30
0.0
 40
19.38999999999984
100
AcDbArc
 50
345.6181094074886
 51
350.9035005925089
  0
ARC
  5
2489
330
2358
100
AcDbEntity
  8
1
 62
     7
100
AcDbCircle
 10
297.7019572422861
 20
188.5553589642738
 30
0.0
 40
19.38999999999996
100
AcDbArc
 50
1.270279407488561
 51
6.555670592510861
  0
ARC
  5
248A
330
2358
100
AcDbEntity
  8
1
 62
     7
100
AcDbCircle
 10
297.7019572422861
 20
188.5553589642738
 30
0.0
 40
19.38999999999983
100
AcDbArc
 50
16.92244940748959
 51
22.20784059251016
  0
ARC
  5
248B
330
2358
100
AcDbEntity
  8
1
 62
     7
100
AcDbCircle
 10
297.7019572422861
 20
188.5553589642738
 30
0.0
 40
19.39000000000008
100
AcDbArc
 50
32.57461940748845
 51
37.86001059250936
  0
ARC
  5
248C
330
2358
100
AcDbEntity
  8
1
 62
     7
100
AcDbCircle
 10
297.7019572422861
 20
188.5553589642738
 30
0.0
 40
19.39
100
AcDbArc
 50
48.22678940748946
 51
53.51218059251037
  0
ARC
  5
248D
330
2358
100
AcDbEntity
  8
1
 62
     7
100
AcDbCircle
 10
297.7019572422861
 20
188.5553589642738
 30
0.0
 40
19.38999999999992
100
AcDbArc
 50
63.87895940748895
 51
69.16435059250999
  0
ARC
  5
248E
330
2358
100
AcDbEntity
  8
1
 62
     7
100
AcDbCircle
 10
297.7019572422861
 20
188.5553589642738
 30
0.0
 40
19.38999999999996
100
AcDbArc
 50
79.53112940748811
 51
84.81652059251013
  0
ARC
  5
248F
330
2358
100
AcDbEntity
  8
1
 62
     7
100
AcDbCircle
 10
297.7019572422861
 20
188.5553589642738
 30
0.0
 40
16.59500000000002
100
AcDbArc
 50
111.0459449628594
 51
115.9105650371401
  0
ARC
  5
2490
330
2358
100
AcDbEntity
  8
1
 62
     7
100
AcDbCircle
 10
297.7019572422861
 20
188.5553589642738
 30
0.0
 40
16.59499999999996
100
AcDbArc
 50
126.6981149628592
 51
131.5627350371401
  0
ARC
  5
2491
330
2358
100
AcDbEntity
  8
1
 62
     7
100
AcDbCircle
 10
297.7019572422861
 20
188.5553589642738
 30
0.0
 40
16.59500000000008
100
AcDbArc
 50
142.3502849628605
 51
147.214905037139
  0
ARC
  5
2492
330
2358
100
AcDbEntity
  8
1
 62
     7
100
AcDbCircle
 10
297.7019572422861
 20
188.5553589642738
 30
0.0
 40
16.59499999999998
100
AcDbArc
 50
158.0024549628604
 51
162.8670750371403
  0
ARC
  5
2493
330
2358
100
AcDbEntity
  8
1
 62
     7
100
AcDbCircle
 10
297.7019572422861
 20
188.5553589642738
 30
0.0
 40
16.59499999999993
100
AcDbArc
 50
173.6546249628604
 51
178.5192450371398
  0
ARC
  5
2494
330
2358
100
AcDbEntity
  8
1
 62
     7
100
AcDbCircle
 10
297.7019572422861
 20
188.5553589642738
 30
0.0
 40
16.59499999999992
100
AcDbArc
 50
189.3067949628596
 51
194.1714150371398
  0
ARC
  5
2495
330
2358
100
AcDbEntity
  8
1
 62
     7
100
AcDbCircle
 10
297.7019572422861
 20
188.5553589642738
 30
0.0
 40
16.59500000000002
100
AcDbArc
 50
204.9589649628596
 51
209.8235850371394
  0
ARC
  5
2496
330
2358
100
AcDbEntity
  8
1
 62
     7
100
AcDbCircle
 10
297.7019572422861
 20
188.5553589642738
 30
0.0
 40
16.59500000000001
100
AcDbArc
 50
220.6111349628601
 51
225.4757550371396
  0
ARC
  5
2497
330
2358
100
AcDbEntity
  8
1
 62
     7
100
AcDbCircle
 10
297.7019572422861
 20
188.5553589642738
 30
0.0
 40
16.59499999999995
100
AcDbArc
 50
236.2633049628586
 51
241.12792503714
  0
ARC
  5
2498
330
2358
100
AcDbEntity
  8
1
 62
     7
100
AcDbCircle
 10
297.7019572422861
 20
188.5553589642738
 30
0.0
 40
16.59499999999993
100
AcDbArc
 50
251.9154749628587
 51
256.7800950371392
  0
ARC
  5
2499
330
2358
100
AcDbEntity
  8
1
 62
     7
100
AcDbCircle
 10
297.7019572422861
 20
188.5553589642738
 30
0.0
 40
16.59499999999991
100
AcDbArc
 50
267.5676449628601
 51
272.432265037139
  0
ARC
  5
249A
330
2358
100
AcDbEntity
  8
1
 62
     7
100
AcDbCircle
 10
297.7019572422861
 20
188.5553589642738
 30
0.0
 40
16.59499999999988
100
AcDbArc
 50
283.2198149628593
 51
288.0844350371388
  0
ARC
  5
249B
330
2358
100
AcDbEntity
  8
1
 62
     7
100
AcDbCircle
 10
297.7019572422861
 20
188.5553589642738
 30
0.0
 40
16.59500000000001
100
AcDbArc
 50
298.8719849628596
 51
303.7366050371388
  0
ARC
  5
249C
330
2358
100
AcDbEntity
  8
1
 62
     7
100
AcDbCircle
 10
297.7019572422861
 20
188.5553589642738
 30
0.0
 40
16.59499999999982
100
AcDbArc
 50
314.5241549628591
 51
319.3887750371396
  0
ARC
  5
249D
330
2358
100
AcDbEntity
  8
1
 62
     7
100
AcDbCircle
 10
297.7019572422861
 20
188.5553589642738
 30
0.0
 40
16.59499999999998
100
AcDbArc
 50
330.1763249628588
 51
335.0409450371399
  0
ARC
  5
249E
330
2358
100
AcDbEntity
  8
1
 62
     7
100
AcDbCircle
 10
297.7019572422861
 20
188.5553589642738
 30
0.0
 40
16.59499999999982
100
AcDbArc
 50
345.8284949628589
 51
350.6931150371389
  0
ARC
  5
249F
330
2358
100
AcDbEntity
  8
1
 62
     7
100
AcDbCircle
 10
297.7019572422861
 20
188.5553589642738
 30
0.0
 40
16.59499999999993
100
AcDbArc
 50
1.480664962859469
 51
6.345285037139952
  0
ARC
  5
24A0
330
2358
100
AcDbEntity
  8
1
 62
     7
100
AcDbCircle
 10
297.7019572422861
 20
188.5553589642738
 30
0.0
 40
16.59499999999982
100
AcDbArc
 50
17.13283496285988
 51
21.99745503713919
  0
ARC
  5
24A1
330
2358
100
AcDbEntity
  8
1
 62
     7
100
AcDbCircle
 10
297.7019572422861
 20
188.5553589642738
 30
0.0
 40
16.59499999999998
100
AcDbArc
 50
32.78500496285919
 51
37.64962503714031
  0
ARC
  5
24A2
330
2358
100
AcDbEntity
  8
1
 62
     7
100
AcDbCircle
 10
297.7019572422861
 20
188.5553589642738
 30
0.0
 40
16.59499999999991
100
AcDbArc
 50
48.43717496285933
 51
53.30179503713972
  0
ARC
  5
24A3
330
2358
100
AcDbEntity
  8
1
 62
     7
100
AcDbCircle
 10
297.7019572422861
 20
188.5553589642738
 30
0.0
 40
16.59499999999991
100
AcDbArc
 50
64.08934496285858
 51
68.95396503713908
  0
ARC
  5
24A4
330
2358
100
AcDbEntity
  8
1
 62
     7
100
AcDbCircle
 10
297.7019572422861
 20
188.5553589642738
 30
0.0
 40
16.59499999999995
100
AcDbArc
 50
79.74151496285988
 51
84.60613503713915
  0
ARC
  5
24A5
330
2358
100
AcDbEntity
  8
1
 62
     7
100
AcDbCircle
 10
288.3338607273563
 20
203.9605421078447
 30
0.0
 40
2.170000000000031
100
AcDbArc
 50
347.2650172972007
 51
67.47466404775295
  0
ARC
  5
24A6
330
2358
100
AcDbEntity
  8
1
 62
     7
100
AcDbCircle
 10
284.5249873277735
 20
200.861794836289
 30
0.0
 40
2.169999999999946
100
AcDbArc
 50
2.917187297201278
 51
83.12683404775196
  0
ARC
  5
24A7
330
2358
100
AcDbEntity
  8
1
 62
     7
100
AcDbCircle
 10
281.6933890205286
 20
196.8503359678186
 30
0.0
 40
2.170000000000102
100
AcDbArc
 50
18.56935729720207
 51
98.77900404775495
  0
ARC
  5
24A8
330
2358
100
AcDbEntity
  8
1
 62
     7
100
AcDbCircle
 10
280.0490723940208
 20
192.2236769076755
 30
0.0
 40
2.169999999999911
100
AcDbArc
 50
34.22152729720314
 51
114.4311740477576
  0
ARC
  5
24A9
330
2358
100
AcDbEntity
  8
1
 62
     7
100
AcDbCircle
 10
279.713988829593
 20
187.3249556222916
 30
0.0
 40
2.170000000000034
100
AcDbArc
 50
49.87369729720145
 51
130.0833440477549
  0
ARC
  5
24AA
330
2358
100
AcDbEntity
  8
1
 62
     7
100
AcDbCircle
 10
280.7129899299661
 20
182.5174876787196
 30
0.0
 40
2.169999999999943
100
AcDbArc
 50
65.52586729720494
 51
145.735514047754
  0
ARC
  5
24AB
330
2358
100
AcDbEntity
  8
1
 62
     7
100
AcDbCircle
 10
282.9719843904657
 20
178.1578208044674
 30
0.0
 40
2.169999999999926
100
AcDbArc
 50
81.17803729720469
 51
161.3876840477508
  0
ARC
  5
24AC
330
2358
100
AcDbEntity
  8
1
 62
     7
100
AcDbCircle
 10
286.3234330094167
 20
174.5692913867879
 30
0.0
 40
2.169999999999971
100
AcDbArc
 50
96.83020729719808
 51
177.0398540477508
  0
ARC
  5
24AD
330
2358
100
AcDbEntity
  8
1
 62
     7
100
AcDbCircle
 10
290.5187742981159
 20
172.018044103917
 30
0.0
 40
2.169999999999991
100
AcDbArc
 50
112.4823772972051
 51
192.6920240477534
  0
ARC
  5
24AE
330
2358
100
AcDbEntity
  8
1
 62
     7
100
AcDbCircle
 10
295.2468591401956
 20
170.6932932016274
 30
0.0
 40
2.17000000000005
100
AcDbArc
 50
128.1345472972018
 51
208.3441940477519
  0
ARC
  5
24AF
330
2358
100
AcDbEntity
  8
1
 62
     7
100
AcDbCircle
 10
300.1570272867057
 20
170.6932893451901
 30
0.0
 40
2.169999999999964
100
AcDbArc
 50
143.7867172971998
 51
223.9963640477533
  0
ARC
  5
24B0
330
2358
100
AcDbEntity
  8
1
 62
     7
100
AcDbCircle
 10
304.8851142096936
 20
172.01803282062
 30
0.0
 40
2.169999999999991
100
AcDbArc
 50
159.4388872972004
 51
239.6485340477548
  0
ARC
  5
24B1
330
2358
100
AcDbEntity
  8
1
 62
     7
100
AcDbCircle
 10
309.0804595058775
 20
174.5692735134609
 30
0.0
 40
2.169999999999959
100
AcDbArc
 50
175.0910572972015
 51
255.30070404775
  0
ARC
  5
24B2
330
2358
100
AcDbEntity
  8
1
 62
     7
100
AcDbCircle
 10
312.4319137616732
 20
178.1577976666928
 30
0.0
 40
2.170000000000039
100
AcDbArc
 50
190.7432272972033
 51
270.9528740477499
  0
ARC
  5
24B3
330
2358
100
AcDbEntity
  8
1
 62
     7
100
AcDbCircle
 10
314.6909150703188
 20
182.5174609925191
 30
0.0
 40
2.17000000000005
100
AcDbArc
 50
206.3953972971991
 51
286.6050440477491
  0
ARC
  5
24B4
330
2358
100
AcDbEntity
  8
1
 62
     7
100
AcDbCircle
 10
315.6899237222436
 20
187.3249273668584
 30
0.0
 40
2.170000000000154
100
AcDbArc
 50
222.0475672971996
 51
302.2572140477507
  0
ARC
  5
24B5
330
2358
100
AcDbEntity
  8
1
 62
     7
100
AcDbCircle
 10
315.3548478527099
 20
192.223649178584
 30
0.0
 40
2.169999999999911
100
AcDbArc
 50
237.6997372972059
 51
317.9093840477548
  0
ARC
  5
24B6
330
2358
100
AcDbEntity
  8
1
 62
     7
100
AcDbCircle
 10
313.7105384937429
 20
196.8503108216085
 30
0.0
 40
2.169999999999904
100
AcDbArc
 50
253.3519072972085
 51
333.5615540477525
  0
ARC
  5
24B7
330
2358
100
AcDbEntity
  8
1
 62
     7
100
AcDbCircle
 10
310.8789464876867
 20
200.8617741379381
 30
0.0
 40
2.169999999999964
100
AcDbArc
 50
269.0040772972017
 51
349.213724047754
  0
ARC
  5
24B8
330
2358
100
AcDbEntity
  8
1
 62
     7
100
AcDbCircle
 10
307.0700779556095
 20
203.9605273924538
 30
0.0
 40
2.169999999999959
100
AcDbArc
 50
284.6562472971991
 51
4.865894047751547
  0
ARC
  5
24B9
330
2358
100
AcDbEntity
  8
1
 62
     7
100
AcDbCircle
 10
302.5664191117578
 20
205.9167503463163
 30
0.0
 40
2.17000000000011
100
AcDbArc
 50
300.3084172972002
 51
20.51806404774787
  0
ARC
  5
24BA
330
2358
100
AcDbEntity
  8
1
 62
     7
100
AcDbCircle
 10
297.701985563744
 20
206.5853589642515
 30
0.0
 40
2.170000000000018
100
AcDbArc
 50
315.9605872972046
 51
36.17023404775491
  0
ARC
  5
24BB
330
2358
100
AcDbEntity
  8
1
 62
     7
100
AcDbCircle
 10
292.83752264403
 20
205.9167579873736
 30
0.0
 40
2.17000000000011
100
AcDbArc
 50
159.4818459522466
 51
239.6914927027968
  0
ARC
  5
24BC
330
2358
100
AcDbEntity
  8
1
 62
     7
100
AcDbCircle
 10
288.3338607273563
 20
203.9605421078447
 30
0.0
 40
2.170000000000003
100
AcDbArc
 50
175.1340159522463
 51
255.3436627027997
  0
ARC
  5
24BD
330
2358
100
AcDbEntity
  8
1
 62
     7
100
AcDbCircle
 10
284.5249873277735
 20
200.861794836289
 30
0.0
 40
2.169999999999884
100
AcDbArc
 50
190.7861859522468
 51
270.9958327027984
  0
ARC
  5
24BE
330
2358
100
AcDbEntity
  8
1
 62
     7
100
AcDbCircle
 10
281.6933890205286
 20
196.8503359678186
 30
0.0
 40
2.170000000000054
100
AcDbArc
 50
206.4383559522472
 51
286.648002702801
  0
ARC
  5
24BF
330
2358
100
AcDbEntity
  8
1
 62
     7
100
AcDbCircle
 10
280.0490723940208
 20
192.2236769076755
 30
0.0
 40
2.170000000000182
100
AcDbArc
 50
222.090525952243
 51
302.3001727027963
  0
ARC
  5
24C0
330
2358
100
AcDbEntity
  8
1
 62
     7
100
AcDbCircle
 10
279.713988829593
 20
187.3249556222916
 30
0.0
 40
2.169999999999939
100
AcDbArc
 50
237.7426959522506
 51
317.9523427028011
  0
ARC
  5
24C1
330
2358
100
AcDbEntity
  8
1
 62
     7
100
AcDbCircle
 10
280.7129899299661
 20
182.5174876787196
 30
0.0
 40
2.170000000000126
100
AcDbArc
 50
253.3948659522482
 51
333.6045127027949
  0
ARC
  5
24C2
330
2358
100
AcDbEntity
  8
1
 62
     7
100
AcDbCircle
 10
282.9719843904657
 20
178.1578208044674
 30
0.0
 40
2.169999999999971
100
AcDbArc
 50
269.047035952248
 51
349.2566827027967
  0
ARC
  5
24C3
330
2358
100
AcDbEntity
  8
1
 62
     7
100
AcDbCircle
 10
286.3234330094167
 20
174.5692913867879
 30
0.0
 40
2.170000000000019
100
AcDbArc
 50
284.6992059522479
 51
4.908852702800721
  0
ARC
  5
24C4
330
2358
100
AcDbEntity
  8
1
 62
     7
100
AcDbCircle
 10
290.5187742981159
 20
172.018044103917
 30
0.0
 40
2.170000000000074
100
AcDbArc
 50
300.3513759522456
 51
20.56102270279807
  0
ARC
  5
24C5
330
2358
100
AcDbEntity
  8
1
 62
     7
100
AcDbCircle
 10
295.2468591401956
 20
170.6932932016274
 30
0.0
 40
2.16999999999988
100
AcDbArc
 50
316.0035459522446
 51
36.21319270280108
  0
ARC
  5
24C6
330
2358
100
AcDbEntity
  8
1
 62
     7
100
AcDbCircle
 10
300.1570272867057
 20
170.6932893451901
 30
0.0
 40
2.170000000000094
100
AcDbArc
 50
331.6557159522468
 51
51.86536270280043
  0
ARC
  5
24C7
330
2358
100
AcDbEntity
  8
1
 62
     7
100
AcDbCircle
 10
304.8851142096936
 20
172.01803282062
 30
0.0
 40
2.17000000000009
100
AcDbArc
 50
347.3078859522471
 51
67.5175327027949
  0
ARC
  5
24C8
330
2358
100
AcDbEntity
  8
1
 62
     7
100
AcDbCircle
 10
309.0804595058775
 20
174.5692735134609
 30
0.0
 40
2.170000000000015
100
AcDbArc
 50
2.960055952249204
 51
83.16970270280355
  0
ARC
  5
24C9
330
2358
100
AcDbEntity
  8
1
 62
     7
100
AcDbCircle
 10
312.4319137616732
 20
178.1577976666928
 30
0.0
 40
2.170000000000026
100
AcDbArc
 50
18.61222595224663
 51
98.82187270279406
  0
ARC
  5
24CA
330
2358
100
AcDbEntity
  8
1
 62
     7
100
AcDbCircle
 10
314.6909150703188
 20
182.5174609925191
 30
0.0
 40
2.16999999999995
100
AcDbArc
 50
34.26439595225012
 51
114.4740427028019
  0
ARC
  5
24CB
330
2358
100
AcDbEntity
  8
1
 62
     7
100
AcDbCircle
 10
315.6899237222436
 20
187.3249273668584
 30
0.0
 40
2.170000000000035
100
AcDbArc
 50
49.91656595224696
 51
130.1262127027984
  0
ARC
  5
24CC
330
2358
100
AcDbEntity
  8
1
 62
     7
100
AcDbCircle
 10
315.3548478527099
 20
192.223649178584
 30
0.0
 40
2.170000000000039
100
AcDbArc
 50
65.56873595224655
 51
145.7783827027968
  0
ARC
  5
24CD
330
2358
100
AcDbEntity
  8
1
 62
     7
100
AcDbCircle
 10
313.7105384937429
 20
196.8503108216085
 30
0.0
 40
2.170000000000102
100
AcDbArc
 50
81.22090595223987
 51
161.4305527027966
  0
ARC
  5
24CE
330
2358
100
AcDbEntity
  8
1
 62
     7
100
AcDbCircle
 10
310.8789464876867
 20
200.8617741379381
 30
0.0
 40
2.170000000000078
100
AcDbArc
 50
96.87307595224268
 51
177.0827227027972
  0
ARC
  5
24CF
330
2358
100
AcDbEntity
  8
1
 62
     7
100
AcDbCircle
 10
307.0700779556095
 20
203.9605273924538
 30
0.0
 40
2.170000000000034
100
AcDbArc
 50
112.5252459522474
 51
192.7348927027994
  0
ARC
  5
24D0
330
2358
100
AcDbEntity
  8
1
 62
     7
100
AcDbCircle
 10
302.5664191117578
 20
205.9167503463163
 30
0.0
 40
2.169999999999895
100
AcDbArc
 50
128.1774159522432
 51
208.3870627028006
  0
ARC
  5
24D1
330
2358
100
AcDbEntity
  8
1
 62
     7
100
AcDbCircle
 10
292.83752264403
 20
205.9167579873736
 30
0.0
 40
2.000000000000003
100
AcDbArc
 50
133.0867510005099
 51
259.7118275359899
  0
ARC
  5
24D2
330
2358
100
AcDbEntity
  8
1
 62
     7
100
AcDbCircle
 10
288.3338607273563
 20
203.9605421078447
 30
0.0
 40
2.000000000000111
100
AcDbArc
 50
148.738921000509
 51
275.3639975359961
  0
ARC
  5
24D3
330
2358
100
AcDbEntity
  8
1
 62
     7
100
AcDbCircle
 10
284.5249873277735
 20
200.861794836289
 30
0.0
 40
1.999999999999839
100
AcDbArc
 50
164.3910910005095
 51
291.0161675359979
  0
ARC
  5
24D4
330
2358
100
AcDbEntity
  8
1
 62
     7
100
AcDbCircle
 10
281.6933890205286
 20
196.8503359678186
 30
0.0
 40
2.000000000000066
100
AcDbArc
 50
180.0432610005091
 51
306.6683375359954
  0
ARC
  5
24D5
330
2358
100
AcDbEntity
  8
1
 62
     7
100
AcDbCircle
 10
280.0490723940208
 20
192.2236769076755
 30
0.0
 40
2.000000000000238
100
AcDbArc
 50
195.6954310005078
 51
322.3205075359931
  0
ARC
  5
24D6
330
2358
100
AcDbEntity
  8
1
 62
     7
100
AcDbCircle
 10
279.713988829593
 20
187.3249556222916
 30
0.0
 40
2.000000000000043
100
AcDbArc
 50
211.3476010005096
 51
337.9726775359967
  0
ARC
  5
24D7
330
2358
100
AcDbEntity
  8
1
 62
     7
100
AcDbCircle
 10
280.7129899299661
 20
182.5174876787196
 30
0.0
 40
2.000000000000051
100
AcDbArc
 50
226.9997710005099
 51
353.6248475359942
  0
ARC
  5
24D8
330
2358
100
AcDbEntity
  8
1
 62
     7
100
AcDbCircle
 10
282.9719843904657
 20
178.1578208044674
 30
0.0
 40
2.000000000000005
100
AcDbArc
 50
242.6519410005084
 51
9.277017535996302
  0
ARC
  5
24D9
330
2358
100
AcDbEntity
  8
1
 62
     7
100
AcDbCircle
 10
286.3234330094167
 20
174.5692913867879
 30
0.0
 40
1.99999999999996
100
AcDbArc
 50
258.304111000513
 51
24.92918753599675
  0
ARC
  5
24DA
330
2358
100
AcDbEntity
  8
1
 62
     7
100
AcDbCircle
 10
290.5187742981159
 20
172.018044103917
 30
0.0
 40
2.00000000000009
100
AcDbArc
 50
273.9562810005129
 51
40.58135753599644
  0
ARC
  5
24DB
330
2358
100
AcDbEntity
  8
1
 62
     7
100
AcDbCircle
 10
295.2468591401956
 20
170.6932932016274
 30
0.0
 40
1.999999999999969
100
AcDbArc
 50
289.6084510005043
 51
56.23352753599677
  0
ARC
  5
24DC
330
2358
100
AcDbEntity
  8
1
 62
     7
100
AcDbCircle
 10
300.1570272867057
 20
170.6932893451901
 30
0.0
 40
2.000000000000115
100
AcDbArc
 50
305.260621000513
 51
71.88569753598945
  0
ARC
  5
24DD
330
2358
100
AcDbEntity
  8
1
 62
     7
100
AcDbCircle
 10
304.8851142096936
 20
172.01803282062
 30
0.0
 40
2.0
100
AcDbArc
 50
320.9127910005075
 51
87.53786753599888
  0
ARC
  5
24DE
330
2358
100
AcDbEntity
  8
1
 62
     7
100
AcDbCircle
 10
309.0804595058775
 20
174.5692735134609
 30
0.0
 40
1.999999999999938
100
AcDbArc
 50
336.5649610005088
 51
103.1900375359962
  0
ARC
  5
24DF
330
2358
100
AcDbEntity
  8
1
 62
     7
100
AcDbCircle
 10
312.4319137616732
 20
178.1577976666928
 30
0.0
 40
2.000000000000146
100
AcDbArc
 50
352.2171310005109
 51
118.8422075359944
  0
ARC
  5
24E0
330
2358
100
AcDbEntity
  8
1
 62
     7
100
AcDbCircle
 10
314.6909150703188
 20
182.5174609925191
 30
0.0
 40
2.000000000000043
100
AcDbArc
 50
7.869301000509705
 51
134.4943775359964
  0
ARC
  5
24E1
330
2358
100
AcDbEntity
  8
1
 62
     7
100
AcDbCircle
 10
315.6899237222436
 20
187.3249273668584
 30
0.0
 40
1.999999999999968
100
AcDbArc
 50
23.52147100050934
 51
150.1465475359944
  0
ARC
  5
24E2
330
2358
100
AcDbEntity
  8
1
 62
     7
100
AcDbCircle
 10
315.3548478527099
 20
192.223649178584
 30
0.0
 40
2.000000000000123
100
AcDbArc
 50
39.17364100050718
 51
165.7987175359944
  0
ARC
  5
24E3
330
2358
100
AcDbEntity
  8
1
 62
     7
100
AcDbCircle
 10
313.7105384937429
 20
196.8503108216085
 30
0.0
 40
2.000000000000091
100
AcDbArc
 50
54.82581100050793
 51
181.4508875359937
  0
ARC
  5
24E4
330
2358
100
AcDbEntity
  8
1
 62
     7
100
AcDbCircle
 10
310.8789464876867
 20
200.8617741379381
 30
0.0
 40
2.000000000000138
100
AcDbArc
 50
70.47798100050943
 51
197.1030575359944
  0
ARC
  5
24E5
330
2358
100
AcDbEntity
  8
1
 62
     7
100
AcDbCircle
 10
307.0700779556095
 20
203.9605273924538
 30
0.0
 40
2.000000000000023
100
AcDbArc
 50
86.13015100050642
 51
212.7552275359946
  0
ARC
  5
24E6
330
2358
100
AcDbEntity
  8
1
 62
     7
100
AcDbCircle
 10
302.5664191117578
 20
205.9167503463163
 30
0.0
 40
1.999999999999968
100
AcDbArc
 50
101.7823210005037
 51
228.4073975359983
  0
ARC
  5
24E7
330
2358
100
AcDbEntity
  8
1
 62
     7
100
AcDbCircle
 10
288.3338607273563
 20
203.9605421078447
 30
0.0
 40
2.000000000000071
100
AcDbArc
 50
31.30433999999862
 51
93.86975899948998
  0
ARC
  5
24E8
330
2358
100
AcDbEntity
  8
1
 62
     7
100
AcDbCircle
 10
284.5249873277735
 20
200.861794836289
 30
0.0
 40
2.000000000000023
100
AcDbArc
 50
46.95650999999823
 51
109.5219289994886
  0
ARC
  5
24E9
330
2358
100
AcDbEntity
  8
1
 62
     7
100
AcDbCircle
 10
281.6933890205286
 20
196.8503359678186
 30
0.0
 40
2.000000000000079
100
AcDbArc
 50
62.60868000000013
 51
125.1740989994884
  0
ARC
  5
24EA
330
2358
100
AcDbEntity
  8
1
 62
     7
100
AcDbCircle
 10
280.0490723940208
 20
192.2236769076755
 30
0.0
 40
1.999999999999938
100
AcDbArc
 50
78.26085000000176
 51
140.82626899949
  0
ARC
  5
24EB
330
2358
100
AcDbEntity
  8
1
 62
     7
100
AcDbCircle
 10
279.713988829593
 20
187.3249556222916
 30
0.0
 40
1.99999999999998
100
AcDbArc
 50
93.91301999999528
 51
156.4784389994912
  0
ARC
  5
24EC
330
2358
100
AcDbEntity
  8
1
 62
     7
100
AcDbCircle
 10
280.7129899299661
 20
182.5174876787196
 30
0.0
 40
1.999999999999974
100
AcDbArc
 50
109.565190000004
 51
172.1306089994945
  0
ARC
  5
24ED
330
2358
100
AcDbEntity
  8
1
 62
     7
100
AcDbCircle
 10
282.9719843904657
 20
178.1578208044674
 30
0.0
 40
1.999999999999992
100
AcDbArc
 50
125.2173599999995
 51
187.7827789994904
  0
ARC
  5
24EE
330
2358
100
AcDbEntity
  8
1
 62
     7
100
AcDbCircle
 10
286.3234330094167
 20
174.5692913867879
 30
0.0
 40
1.999999999999916
100
AcDbArc
 50
140.8695299999978
 51
203.4349489994887
  0
ARC
  5
24EF
330
2358
100
AcDbEntity
  8
1
 62
     7
100
AcDbCircle
 10
290.5187742981159
 20
172.018044103917
 30
0.0
 40
1.999999999999968
100
AcDbArc
 50
156.5217000000022
 51
219.0871189994914
  0
ARC
  5
24F0
330
2358
100
AcDbEntity
  8
1
 62
     7
100
AcDbCircle
 10
295.2468591401956
 20
170.6932932016274
 30
0.0
 40
2.00000000000007
100
AcDbArc
 50
172.1738699999999
 51
234.7392889994869
  0
ARC
  5
24F1
330
2358
100
AcDbEntity
  8
1
 62
     7
100
AcDbCircle
 10
300.1570272867057
 20
170.6932893451901
 30
0.0
 40
2.000000000000071
100
AcDbArc
 50
187.8260400000004
 51
250.3914589994958
  0
ARC
  5
24F2
330
2358
100
AcDbEntity
  8
1
 62
     7
100
AcDbCircle
 10
304.8851142096936
 20
172.01803282062
 30
0.0
 40
2.00000000000006
100
AcDbArc
 50
203.4782099999989
 51
266.0436289994904
  0
ARC
  5
24F3
330
2358
100
AcDbEntity
  8
1
 62
     7
100
AcDbCircle
 10
309.0804595058775
 20
174.5692735134609
 30
0.0
 40
1.999999999999948
100
AcDbArc
 50
219.1303799999992
 51
281.6957989994891
  0
ARC
  5
24F4
330
2358
100
AcDbEntity
  8
1
 62
     7
100
AcDbCircle
 10
312.4319137616732
 20
178.1577976666928
 30
0.0
 40
1.99999999999998
100
AcDbArc
 50
234.7825499999993
 51
297.3479689994928
  0
ARC
  5
24F5
330
2358
100
AcDbEntity
  8
1
 62
     7
100
AcDbCircle
 10
314.6909150703188
 20
182.5174609925191
 30
0.0
 40
1.999999999999964
100
AcDbArc
 50
250.4347199999998
 51
313.0001389994943
  0
ARC
  5
24F6
330
2358
100
AcDbEntity
  8
1
 62
     7
100
AcDbCircle
 10
315.6899237222436
 20
187.3249273668584
 30
0.0
 40
2.000000000000046
100
AcDbArc
 50
266.0868899999961
 51
328.652308999491
  0
ARC
  5
24F7
330
2358
100
AcDbEntity
  8
1
 62
     7
100
AcDbCircle
 10
315.3548478527099
 20
192.223649178584
 30
0.0
 40
2.000000000000043
100
AcDbArc
 50
281.7390600000058
 51
344.3044789994936
  0
ARC
  5
24F8
330
2358
100
AcDbEntity
  8
1
 62
     7
100
AcDbCircle
 10
313.7105384937429
 20
196.8503108216085
 30
0.0
 40
2.000000000000043
100
AcDbArc
 50
297.3912300000062
 51
359.9566489994902
  0
ARC
  5
24F9
330
2358
100
AcDbEntity
  8
1
 62
     7
100
AcDbCircle
 10
310.8789464876867
 20
200.8617741379381
 30
0.0
 40
1.999999999999944
100
AcDbArc
 50
313.0434000000028
 51
15.60881899949276
  0
ARC
  5
24FA
330
2358
100
AcDbEntity
  8
1
 62
     7
100
AcDbCircle
 10
307.0700779556095
 20
203.9605273924538
 30
0.0
 40
2.00000000000017
100
AcDbArc
 50
328.6955700000043
 51
31.26098899949095
  0
ARC
  5
24FB
330
2358
100
AcDbEntity
  8
1
 62
     7
100
AcDbCircle
 10
302.5664191117578
 20
205.9167503463163
 30
0.0
 40
2.000000000000115
100
AcDbArc
 50
344.3477400000001
 51
46.91315899948871
  0
ARC
  5
24FC
330
2358
100
AcDbEntity
  8
1
 62
     7
100
AcDbCircle
 10
292.83752264403
 20
205.9167579873736
 30
0.0
 40
1.99999999999998
100
AcDbArc
 50
310.1657666068212
 51
78.21758899949442
  0
ARC
  5
24FD
330
2358
100
AcDbEntity
  8
1
 62
     7
100
AcDbCircle
 10
288.3338607273563
 20
203.9605421078447
 30
0.0
 40
2.000000000000022
100
AcDbArc
 50
325.8179366068238
 51
31.30433999999862
  0
ARC
  5
24FE
330
2358
100
AcDbEntity
  8
1
 62
     7
100
AcDbCircle
 10
284.5249873277735
 20
200.861794836289
 30
0.0
 40
2.00000000000006
100
AcDbArc
 50
341.4701066068225
 51
46.95650999999823
  0
ARC
  5
24FF
330
2358
100
AcDbEntity
  8
1
 62
     7
100
AcDbCircle
 10
281.6933890205286
 20
196.8503359678186
 30
0.0
 40
1.99999999999998
100
AcDbArc
 50
357.1222766068236
 51
62.60868000000013
  0
ARC
  5
2500
330
2358
100
AcDbEntity
  8
1
 62
     7
100
AcDbCircle
 10
280.0490723940208
 20
192.2236769076755
 30
0.0
 40
1.999999999999784
100
AcDbArc
 50
12.77444660682326
 51
78.26085000000176
  0
ARC
  5
2501
330
2358
100
AcDbEntity
  8
1
 62
     7
100
AcDbCircle
 10
279.713988829593
 20
187.3249556222916
 30
0.0
 40
2.000000000000099
100
AcDbArc
 50
28.4266166068226
 51
93.91301999999528
  0
ARC
  5
2502
330
2358
100
AcDbEntity
  8
1
 62
     7
100
AcDbCircle
 10
280.7129899299661
 20
182.5174876787196
 30
0.0
 40
1.999999999999887
100
AcDbArc
 50
44.07878660682209
 51
109.565190000004
  0
ARC
  5
2503
330
2358
100
AcDbEntity
  8
1
 62
     7
100
AcDbCircle
 10
282.9719843904657
 20
178.1578208044674
 30
0.0
 40
2.0
100
AcDbArc
 50
59.73095660682123
 51
125.2173599999995
  0
ARC
  5
2504
330
2358
100
AcDbEntity
  8
1
 62
     7
100
AcDbCircle
 10
286.3234330094167
 20
174.5692913867879
 30
0.0
 40
2.000000000000071
100
AcDbArc
 50
75.38312660682091
 51
140.8695299999978
  0
ARC
  5
2505
330
2358
100
AcDbEntity
  8
1
 62
     7
100
AcDbCircle
 10
290.5187742981159
 20
172.018044103917
 30
0.0
 40
1.99999999999993
100
AcDbArc
 50
91.03529660682184
 51
156.5217000000022
  0
ARC
  5
2506
330
2358
100
AcDbEntity
  8
1
 62
     7
100
AcDbCircle
 10
295.2468591401956
 20
170.6932932016274
 30
0.0
 40
2.000000000000003
100
AcDbArc
 50
106.6874666068243
 51
172.1738699999999
  0
ARC
  5
2507
330
2358
100
AcDbEntity
  8
1
 62
     7
100
AcDbCircle
 10
300.1570272867057
 20
170.6932893451901
 30
0.0
 40
1.999999999999871
100
AcDbArc
 50
122.3396366068165
 51
187.8260400000004
  0
ARC
  5
2508
330
2358
100
AcDbEntity
  8
1
 62
     7
100
AcDbCircle
 10
304.8851142096936
 20
172.01803282062
 30
0.0
 40
1.999999999999938
100
AcDbArc
 50
137.9918066068198
 51
203.4782099999989
  0
ARC
  5
2509
330
2358
100
AcDbEntity
  8
1
 62
     7
100
AcDbCircle
 10
309.0804595058775
 20
174.5692735134609
 30
0.0
 40
2.000000000000071
100
AcDbArc
 50
153.6439766068208
 51
219.1303799999992
  0
ARC
  5
250A
330
2358
100
AcDbEntity
  8
1
 62
     7
100
AcDbCircle
 10
312.4319137616732
 20
178.1577976666928
 30
0.0
 40
1.999999999999884
100
AcDbArc
 50
169.2961466068215
 51
234.7825499999993
  0
ARC
  5
250B
330
2358
100
AcDbEntity
  8
1
 62
     7
100
AcDbCircle
 10
314.6909150703188
 20
182.5174609925191
 30
0.0
 40
2.000000000000158
100
AcDbArc
 50
184.9483166068204
 51
250.4347199999998
  0
ARC
  5
250C
330
2358
100
AcDbEntity
  8
1
 62
     7
100
AcDbCircle
 10
315.6899237222436
 20
187.3249273668584
 30
0.0
 40
2.000000000000031
100
AcDbArc
 50
200.6004866068215
 51
266.0868899999961
  0
ARC
  5
250D
330
2358
100
AcDbEntity
  8
1
 62
     7
100
AcDbCircle
 10
315.3548478527099
 20
192.223649178584
 30
0.0
 40
1.999999999999934
100
AcDbArc
 50
216.2526566068223
 51
281.7390600000058
  0
ARC
  5
250E
330
2358
100
AcDbEntity
  8
1
 62
     7
100
AcDbCircle
 10
313.7105384937429
 20
196.8503108216085
 30
0.0
 40
1.999999999999923
100
AcDbArc
 50
231.9048266068227
 51
297.3912300000062
  0
ARC
  5
250F
330
2358
100
AcDbEntity
  8
1
 62
     7
100
AcDbCircle
 10
310.8789464876867
 20
200.8617741379381
 30
0.0
 40
1.999999999999952
100
AcDbArc
 50
247.5569966068227
 51
313.0434000000028
  0
ARC
  5
2510
330
2358
100
AcDbEntity
  8
1
 62
     7
100
AcDbCircle
 10
307.0700779556095
 20
203.9605273924538
 30
0.0
 40
2.00000000000001
100
AcDbArc
 50
263.20916660682
 51
328.6955700000043
  0
ARC
  5
2511
330
2358
100
AcDbEntity
  8
1
 62
     7
100
AcDbCircle
 10
302.5664191117578
 20
205.9167503463163
 30
0.0
 40
2.00000000000006
100
AcDbArc
 50
278.8613366068267
 51
344.3477400000001
  0
ARC
  5
2512
330
2358
100
AcDbEntity
  8
1
 62
     7
100
AcDbCircle
 10
207.2350002811429
 20
206.5853589642737
 30
0.0
 40
1.99999999999996
100
AcDbArc
 50
295.841932763163
 51
64.15806723683691
  0
ARC
  5
2513
330
2358
100
AcDbEntity
  8
1
 62
     7
100
AcDbCircle
 10
207.2350002811429
 20
206.5853589642737
 30
0.0
 40
2.000000000000102
100
AcDbArc
 50
137.1563569564052
 51
225.6431991617489
  0
ARC
  5
2514
330
2358
100
AcDbEntity
  8
1
 62
     7
100
AcDbCircle
 10
207.2350002811429
 20
206.5853589642737
 30
0.0
 40
2.000000000000071
100
AcDbArc
 50
115.8419327631703
 51
137.1563569564052
  0
ARC
  5
2515
330
2358
100
AcDbEntity
  8
1
 62
     7
100
AcDbCircle
 10
207.2350002811429
 20
206.5853589642737
 30
0.0
 40
2.000000000000079
100
AcDbArc
 50
244.1580672368294
 51
295.841932763163
  0
ARC
  5
2516
330
2358
100
AcDbEntity
  8
1
 62
     7
100
AcDbCircle
 10
207.2350002811429
 20
206.5853589642737
 30
0.0
 40
2.000000000000015
100
AcDbArc
 50
225.6431991617489
 51
244.1580672368294
  0
ARC
  5
2517
330
2358
100
AcDbEntity
  8
1
 62
     7
100
AcDbCircle
 10
207.2350002811429
 20
206.5853589642737
 30
0.0
 40
1.999999999999956
100
AcDbArc
 50
64.15806723683691
 51
115.8419327631703
  0
ARC
  5
2518
330
2358
100
AcDbEntity
  8
1
 62
     7
100
AcDbCircle
 10
207.2350002811429
 20
170.5253589642738
 30
0.0
 40
1.999999999999911
100
AcDbArc
 50
295.8419327631651
 51
64.15806723683691
  0
ARC
  5
2519
330
2358
100
AcDbEntity
  8
1
 62
     7
100
AcDbCircle
 10
207.2350002811429
 20
170.5253589642738
 30
0.0
 40
2.000000000000031
100
AcDbArc
 50
244.1580672368281
 51
295.8419327631651
  0
ARC
  5
251A
330
2358
100
AcDbEntity
  8
1
 62
     7
100
AcDbCircle
 10
207.2350002811429
 20
170.5253589642738
 30
0.0
 40
2.000000000000079
100
AcDbArc
 50
115.8419327631703
 51
134.3568008382507
  0
ARC
  5
251B
330
2358
100
AcDbEntity
  8
1
 62
     7
100
AcDbCircle
 10
207.2350002811429
 20
170.5253589642738
 30
0.0
 40
1.99999999999996
100
AcDbArc
 50
64.15806723683691
 51
115.8419327631703
  0
ARC
  5
251C
330
2358
100
AcDbEntity
  8
1
 62
     7
100
AcDbCircle
 10
207.2350002811429
 20
170.5253589642738
 30
0.0
 40
2.000000000000063
100
AcDbArc
 50
222.8436430435921
 51
244.1580672368281
  0
ARC
  5
251D
330
2358
100
AcDbEntity
  8
1
 62
     7
100
AcDbCircle
 10
207.2350002811429
 20
170.5253589642738
 30
0.0
 40
2.000000000000015
100
AcDbArc
 50
134.3568008382507
 51
222.8436430435921
  0
CIRCLE
  5
251E
330
2358
100
AcDbEntity
  8
1
 62
     7
100
AcDbCircle
 10
311.2019572422858
 20
211.9380448664537
 30
0.0
 40
1.699999999999918
  0
CIRCLE
  5
251F
330
2358
100
AcDbEntity
  8
1
 62
     7
100
AcDbCircle
 10
321.084643144466
 20
202.0553589642743
 30
0.0
 40
1.700000000000065
  0
CIRCLE
  5
2520
330
2358
100
AcDbEntity
  8
1
 62
     7
100
AcDbCircle
 10
324.7019572422858
 20
188.5553589642738
 30
0.0
 40
1.699999999999902
  0
CIRCLE
  5
2521
330
2358
100
AcDbEntity
  8
1
 62
     7
100
AcDbCircle
 10
321.084643144466
 20
175.0553589642738
 30
0.0
 40
1.699999999999971
  0
CIRCLE
  5
2522
330
2358
100
AcDbEntity
  8
1
 62
     7
100
AcDbCircle
 10
311.2019572422862
 20
165.1726730620941
 30
0.0
 40
1.700000000000004
  0
CIRCLE
  5
2523
330
2358
100
AcDbEntity
  8
1
 62
     7
100
AcDbCircle
 10
297.7019572422861
 20
161.5553589642738
 30
0.0
 40
1.699999999999989
  0
CIRCLE
  5
2524
330
2358
100
AcDbEntity
  8
1
 62
     7
100
AcDbCircle
 10
284.2019572422858
 20
165.1726730620941
 30
0.0
 40
1.700000000000004
  0
CIRCLE
  5
2525
330
2358
100
AcDbEntity
  8
1
 62
     7
100
AcDbCircle
 10
274.3192713401063
 20
175.0553589642738
 30
0.0
 40
1.699999999999971
  0
CIRCLE
  5
2526
330
2358
100
AcDbEntity
  8
1
 62
     7
100
AcDbCircle
 10
270.7019572422859
 20
188.5553589642738
 30
0.0
 40
1.700000000000003
  0
CIRCLE
  5
2527
330
2358
100
AcDbEntity
  8
1
 62
     7
100
AcDbCircle
 10
274.3192713401063
 20
202.055358964274
 30
0.0
 40
1.699999999999969
  0
CIRCLE
  5
2528
330
2358
100
AcDbEntity
  8
1
 62
     7
100
AcDbCircle
 10
284.2019572422858
 20
211.9380448664537
 30
0.0
 40
1.699999999999914
  0
CIRCLE
  5
2529
330
2358
100
AcDbEntity
  8
1
 62
     7
100
AcDbCircle
 10
297.7019572422861
 20
215.5553589642738
 30
0.0
 40
1.699999999999989
  0
CIRCLE
  5
252A
330
2358
100
AcDbEntity
  8
1
 62
     7
100
AcDbCircle
 10
213.8750002811427
 20
188.5553589642738
 30
0.0
 40
1.100000000000189
  0
CIRCLE
  5
252B
330
2358
100
AcDbEntity
  8
1
 62
     3
100
AcDbCircle
 10
213.8750002811427
 20
188.5553589642738
 30
0.0
 40
1.499999999999988
  0
CIRCLE
  5
252C
330
2358
100
AcDbEntity
  8
1
 62
     7
100
AcDbCircle
 10
297.7019572422861
 20
188.5553589642738
 30
0.0
 40
4.0
  0
CIRCLE
  5
252D
330
2358
100
AcDbEntity
  8
1
 62
     7
100
AcDbCircle
 10
290.7138430245182
 20
162.475361654469
 30
0.0
 40
1.099999999999897
  0
CIRCLE
  5
252E
330
2358
100
AcDbEntity
  8
1
 62
     7
100
AcDbCircle
 10
304.6900714600541
 20
214.6353562740788
 30
0.0
 40
1.099999999999928
  0
CIRCLE
  5
252F
330
2358
100
AcDbEntity
  8
1
 62
     7
100
AcDbCircle
 10
294.0519572422859
 20
178.2553589642739
 30
0.0
 40
0.849999999999909
  0
CIRCLE
  5
2530
330
2358
100
AcDbEntity
  8
1
 62
     7
100
AcDbCircle
 10
301.351957242286
 20
178.2553589642739
 30
0.0
 40
0.8499999999999657
  0
CIRCLE
  5
2531
330
2358
100
AcDbEntity
  8
1
 62
     3
100
AcDbCircle
 10
290.7138430245182
 20
162.475361654469
 30
0.0
 40
1.499999999999864
  0
CIRCLE
  5
2532
330
2358
100
AcDbEntity
  8
1
 62
     3
100
AcDbCircle
 10
304.6900714600541
 20
214.6353562740788
 30
0.0
 40
1.500000000000017
  0
CIRCLE
  5
2533
330
2358
100
AcDbEntity
  8
1
 62
     7
100
AcDbCircle
 10
297.7019572422861
 20
188.5553589642738
 30
0.0
 40
15.14750000000001
  0
CIRCLE
  5
2534
330
2358
100
AcDbEntity
  8
1
 62
     7
100
AcDbCircle
 10
297.7019572422861
 20
188.5553589642738
 30
0.0
 40
16.23150000000001
  0
CIRCLE
  5
2535
330
2358
100
AcDbEntity
  8
1
 62
     7
100
AcDbCircle
 10
297.7019572422861
 20
188.5553589642738
 30
0.0
 40
19.82650000000001
  0
CIRCLE
  5
2536
330
2358
100
AcDbEntity
  8
1
 62
     7
100
AcDbCircle
 10
297.7019572422861
 20
188.5553589642738
 30
0.0
 40
20.84300000000006
  0
CIRCLE
  5
2537
330
2358
100
AcDbEntity
  8
1
 62
     7
100
AcDbCircle
 10
297.7019572422861
 20
188.5553589642738
 30
0.0
 40
30.0
  0
CIRCLE
  5
2538
330
2358
100
AcDbEntity
  8
1
  6
CENTER
 62
     3
100
AcDbCircle
 10
297.7019572422861
 20
188.5553589642738
 30
0.0
 40
27.0
  0
CIRCLE
  5
2539
330
2358
100
AcDbEntity
  8
1
 62
     7
100
AcDbCircle
 10
297.7019572422861
 20
188.5553589642738
 30
0.0
 40
21.95100000000011
  0
CIRCLE
  5
253A
330
2358
100
AcDbEntity
  8
1
  6
CENTER
 62
     3
100
AcDbCircle
 10
297.7019572422861
 20
188.5553589642738
 30
0.0
 40
21.4915
  0
CIRCLE
  5
253B
330
2358
100
AcDbEntity
  8
1
 62
     7
100
AcDbCircle
 10
297.7019572422861
 20
188.5553589642738
 30
0.0
 40
21.245
  0
CIRCLE
  5
253C
330
2358
100
AcDbEntity
  8
1
 62
     7
100
AcDbCircle
 10
102.0926184305851
 20
188.5553589642738
 30
0.0
 40
20.86099999999996
  0
CIRCLE
  5
253D
330
2358
100
AcDbEntity
  8
1
 62
     7
100
AcDbCircle
 10
102.0926184305851
 20
188.5553589642738
 30
0.0
 40
30.0
  0
CIRCLE
  5
253E
330
2358
100
AcDbEntity
  8
1
 62
     7
100
AcDbCircle
 10
102.0926184305851
 20
188.5553589642738
 30
0.0
 40
36.0
  0
CIRCLE
  5
253F
330
2358
100
AcDbEntity
  8
1
  6
CENTER
 62
     3
100
AcDbCircle
 10
102.0926184305851
 20
188.5553589642738
 30
0.0
 40
32.99999999999999
  0
CIRCLE
  5
2540
330
2358
100
AcDbEntity
  8
1
 62
     7
100
AcDbCircle
 10
102.0926184305851
 20
221.5553589642738
 30
0.0
 40
1.75
  0
CIRCLE
  5
2541
330
2358
100
AcDbEntity
  8
1
 62
     7
100
AcDbCircle
 10
85.59261843058511
 20
217.1341972891604
 30
0.0
 40
1.749999999999944
  0
CIRCLE
  5
2542
330
2358
100
AcDbEntity
  8
1
 62
     7
100
AcDbCircle
 10
73.5137801056987
 20
205.0553589642738
 30
0.0
 40
1.750000000000019
  0
CIRCLE
  5
2543
330
2358
100
AcDbEntity
  8
1
 62
     7
100
AcDbCircle
 10
69.0926184305851
 20
188.5553589642738
 30
0.0
 40
1.75
  0
CIRCLE
  5
2544
330
2358
100
AcDbEntity
  8
1
 62
     7
100
AcDbCircle
 10
73.51378010569878
 20
172.0553589642738
 30
0.0
 40
1.749999999999984
  0
CIRCLE
  5
2545
330
2358
100
AcDbEntity
  8
1
 62
     7
100
AcDbCircle
 10
85.59261843058511
 20
159.9765206393873
 30
0.0
 40
1.750000000000019
  0
CIRCLE
  5
2546
330
2358
100
AcDbEntity
  8
1
 62
     7
100
AcDbCircle
 10
102.0926184305851
 20
155.555358964274
 30
0.0
 40
1.75
  0
CIRCLE
  5
2547
330
2358
100
AcDbEntity
  8
1
 62
     7
100
AcDbCircle
 10
118.5926184305851
 20
159.9765206393873
 30
0.0
 40
1.749999999999952
  0
CIRCLE
  5
2548
330
2358
100
AcDbEntity
  8
1
 62
     7
100
AcDbCircle
 10
130.6714567554714
 20
172.0553589642738
 30
0.0
 40
1.750000000000011
  0
CIRCLE
  5
2549
330
2358
100
AcDbEntity
  8
1
 62
     7
100
AcDbCircle
 10
135.0926184305849
 20
188.5553589642738
 30
0.0
 40
1.75
  0
CIRCLE
  5
254A
330
2358
100
AcDbEntity
  8
1
 62
     7
100
AcDbCircle
 10
130.6714567554714
 20
205.0553589642738
 30
0.0
 40
1.750000000000019
  0
CIRCLE
  5
254B
330
2358
100
AcDbEntity
  8
1
 62
     7
100
AcDbCircle
 10
118.5926184305851
 20
217.1341972891604
 30
0.0
 40
1.750000000000193
  0
ARC
  5
254C
330
2358
100
AcDbEntity
  8
1
 62
     7
100
AcDbCircle
 10
188.3250002811428
 20
210.7383589642739
 30
0.0
 40
0.95131487952201
100
AcDbArc
 50
183.0127875041814
 51
273.0127875041846
  0
ARC
  5
254D
330
2358
100
AcDbEntity
  8
1
 62
     7
100
AcDbCircle
 10
210.6750002811428
 20
167.4783621612895
 30
0.0
 40
0.2000000000000206
100
AcDbArc
 50
0.0
 51
87.00000000002537
  0
ARC
  5
254E
330
2358
100
AcDbEntity
  8
1
 62
     7
100
AcDbCircle
 10
210.6750002811428
 20
167.3932016767485
 30
0.0
 40
0.1999999999999946
100
AcDbArc
 50
315.0000000000056
 51
0.0
  0
ARC
  5
254F
330
2358
100
AcDbEntity
  8
1
 62
     7
100
AcDbCircle
 10
210.6750002811428
 20
209.6323557672584
 30
0.0
 40
0.1999999999998698
100
AcDbArc
 50
272.9999999999761
 51
0.0
  0
ARC
  5
2550
330
2358
100
AcDbEntity
  8
1
 62
     7
100
AcDbCircle
 10
210.6750002811428
 20
209.7175162517991
 30
0.0
 40
0.2000000000000206
100
AcDbArc
 50
0.0
 51
45.0
  0
ARC
  5
2551
330
2358
100
AcDbEntity
  8
1
 62
     7
100
AcDbCircle
 10
188.3530002811429
 20
210.766358964274
 30
0.0
 40
1.350925608610737
100
AcDbArc
 50
182.1210963966609
 51
272.1210963966611
  0
ARC
  5
2552
330
2358
100
AcDbEntity
  8
1
 62
     7
100
AcDbCircle
 10
186.6530002811428
 20
218.2053589642736
 30
0.0
 40
0.353553390593267
100
AcDbArc
 50
8.130102354152985
 51
98.13010235415806
  0
ARC
  5
2553
330
2358
100
AcDbEntity
  8
1
 62
     7
100
AcDbCircle
 10
204.1750002811428
 20
212.7553589642739
 30
0.0
 40
0.1999999999999886
100
AcDbArc
 50
270.0
 51
0.0
  0
ARC
  5
2554
330
2358
100
AcDbEntity
  8
1
 62
     7
100
AcDbCircle
 10
204.1750002811428
 20
164.355358964274
 30
0.0
 40
0.2000000000000171
100
AcDbArc
 50
0.0
 51
90.0
  0
ARC
  5
2555
330
2358
100
AcDbEntity
  8
1
 62
     7
100
AcDbCircle
 10
294.2019572422858
 20
178.2553589642739
 30
0.0
 40
2.0
100
AcDbArc
 50
180.0
 51
200.8077444686863
  0
ARC
  5
2556
330
2358
100
AcDbEntity
  8
1
 62
     7
100
AcDbCircle
 10
301.2019572422861
 20
178.2553589642739
 30
0.0
 40
2.0
100
AcDbArc
 50
270.0
 51
339.1922555313137
  0
ARC
  5
2557
330
2358
100
AcDbEntity
  8
1
 62
     7
100
AcDbCircle
 10
289.2019572422857
 20
178.6313237625686
 30
0.0
 40
3.0
100
AcDbArc
 50
0.0
 51
51.75987079812292
  0
ARC
  5
2558
330
2358
100
AcDbEntity
  8
1
 62
     7
100
AcDbCircle
 10
306.2019572422858
 20
178.6313237625686
 30
0.0
 40
2.999999999999916
100
AcDbArc
 50
128.2401292018791
 51
180.0
  0
ARC
  5
2559
330
2358
100
AcDbEntity
  8
1
 62
     7
100
AcDbCircle
 10
294.2019572422858
 20
178.2553589642739
 30
0.0
 40
2.000000000000003
100
AcDbArc
 50
200.8077444686863
 51
270.0
  0
ARC
  5
255A
330
2358
100
AcDbEntity
  8
1
 62
     7
100
AcDbCircle
 10
301.2019572422861
 20
178.2553589642739
 30
0.0
 40
1.99999999999995
100
AcDbArc
 50
339.1922555313137
 51
0.0
  0
ARC
  5
255B
330
2358
100
AcDbEntity
  8
1
 62
     7
100
AcDbCircle
 10
188.3250002811428
 20
166.372358964274
 30
0.0
 40
0.9513148795220327
100
AcDbArc
 50
86.98721249581526
 51
176.9872124958169
  0
ARC
  5
255C
330
2358
100
AcDbEntity
  8
1
 62
     7
100
AcDbCircle
 10
188.3530002811429
 20
166.3443589642739
 30
0.0
 40
1.350925608610652
100
AcDbArc
 50
87.8789036033388
 51
177.8789036033387
  0
ARC
  5
255D
330
2358
100
AcDbEntity
  8
1
 62
     7
100
AcDbCircle
 10
186.7030002811429
 20
158.855358964274
 30
0.0
 40
0.3000000000000114
100
AcDbArc
 50
270.0
 51
0.0
  0
ARC
  5
2562
330
2358
100
AcDbEntity
  8
1
 62
     7
100
AcDbCircle
 10
204.3771503268244
 20
171.7853589642739
 30
0.0
 40
0.1699999999999591
100
AcDbArc
 50
90.0
 51
186.9999999999992
  0
ARC
  5
2563
330
2358
100
AcDbEntity
  8
1
 62
     7
100
AcDbCircle
 10
204.5250002811429
 20
169.335358964274
 30
0.0
 40
0.1699999999999022
100
AcDbArc
 50
180.0
 51
270.0
  0
ARC
  5
2564
330
2358
100
AcDbEntity
  8
1
 62
     7
100
AcDbCircle
 10
204.3771503268244
 20
205.3253589642736
 30
0.0
 40
0.1700000000000675
100
AcDbArc
 50
172.999999999994
 51
270.0
  0
ARC
  5
2565
330
2358
100
AcDbEntity
  8
1
 62
     7
100
AcDbCircle
 10
204.5250002811429
 20
207.7753589642738
 30
0.0
 40
0.1700000000000195
100
AcDbArc
 50
90.0
 51
180.0
  0
TEXT
  5
256B
330
2358
100
AcDbEntity
  8
1
 62
     3
100
AcDbText
 10
90.55141100558881
 20
105.6872170054674
 30
0.0
 40
1.7
  1
 
 41
0.9
100
AcDbText
  0
TEXT
  5
2571
330
2358
100
AcDbEntity
  8
1
 62
     0
100
AcDbText
 10
139.7566644666385
 20
129.2857031285698
 30
0.0
 40
4.206191410418163
  1
REMARKS:  M.H.C = MINIMUM HOUSING CLEARANCE
 41
0.9
 72
     1
 11
194.656926303269
 21
131.3887988337789
 31
0.0
100
AcDbText
 73
     2
  0
TEXT
  5
2572
330
2358
100
AcDbEntity
  8
1
 62
     0
100
AcDbText
 10
274.1047774502854
 20
128.6628302397323
 30
0.0
 40
4.411539554408706
  1
SHF-17-XXX-2A-R.dxf
 41
0.9
100
AcDbText
  0
INSERT
  5
25E7
330
2358
100
AcDbEntity
  8
AM_0
100
AcDbBlockReference
  2
HD Logo
 10
226.1003911016743
 20
55.03507781674997
 30
0.0
 41
0.9
 42
0.9
 43
0.9
  0
INSERT
  5
25FD
330
2358
100
AcDbEntity
  8
AM_0
100
AcDbBlockReference
  2
Harmonic Drive LLC
 10
10.32291160294454
 20
317.2324582989372
 30
0.0
 41
1.576688067085901
 42
1.576688067085901
 43
1.576688067085901
  0
INSERT
  5
2611
330
2358
100
AcDbEntity
  8
AM_0
100
AcDbBlockReference
  2
NTC
 10
26.24220985102899
 20
91.44413716711438
 30
0.0
 41
0.5
 42
0.5
 43
0.5
  0
ENDSEC
  0
SECTION
  2
OBJECTS
  0
DICTIONARY
  5
2346
330
0
100
AcDbDictionary
281
     1
  3
ACAD_GROUP
350
2347
  3
ACAD_LAYOUT
350
2353
  3
ACAD_MLINESTYLE
350
2350
  3
ACAD_PLOTSETTINGS
350
2352
  3
ACAD_PLOTSTYLENAME
350
2348
  3
AcDbVariableDictionary
350
25FE
  0
DICTIONARY
  5
2347
102
{ACAD_REACTORS
330
2346
102
}
330
2346
100
AcDbDictionary
281
     1
  0
DICTIONARY
  5
2353
102
{ACAD_REACTORS
330
2346
102
}
330
2346
100
AcDbDictionary
281
     1
  3
Layout1
350
2357
  3
Model
350
235B
  0
DICTIONARY
  5
2350
102
{ACAD_REACTORS
330
2346
102
}
330
2346
100
AcDbDictionary
281
     1
  3
Standard
350
2351
  0
DICTIONARY
  5
2352
102
{ACAD_REACTORS
330
2346
102
}
330
2346
100
AcDbDictionary
281
     1
  0
ACDBDICTIONARYWDFLT
  5
2348
102
{ACAD_REACTORS
330
2346
102
}
330
2346
100
AcDbDictionary
281
     1
  3
Normal
350
2349
100
AcDbDictionaryWithDefault
340
2349
  0
DICTIONARY
  5
25FE
102
{ACAD_REACTORS
330
2346
102
}
330
2346
100
AcDbDictionary
281
     1
  3
DIMASSOC
350
25FF
  0
LAYOUT
  5
2357
102
{ACAD_REACTORS
330
2353
102
}
330
2353
100
AcDbPlotSettings
  1

  2
\\SERVER9\HP LaserJet 5100 PCL 5e
  4

  6

 40
0.0
 41
0.0
 42
0.0
 43
0.0
 44
0.0
 45
0.0
 46
0.0
 47
0.0
 48
0.0
 49
0.0
140
0.0
141
0.0
142
1.0
143
1.0
 70
   688
 72
     0
 73
     0
 74
     5
  7

 75
    16
147
1.0
148
0.0
149
0.0
100
AcDbLayout
  1
Layout1
 70
     1
 71
     1
 10
0.0
 20
0.0
 11
420.0
 21
297.0
 12
0.0
 22
0.0
 32
0.0
 14
1.000000000000000E+20
 24
1.000000000000000E+20
 34
1.000000000000000E+20
 15
-1.000000000000000E+20
 25
-1.000000000000000E+20
 35
-1.000000000000000E+20
146
0.0
 13
0.0
 23
0.0
 33
0.0
 16
1.0
 26
0.0
 36
0.0
 17
0.0
 27
1.0
 37
0.0
 76
     0
330
2354
  0
LAYOUT
  5
235B
102
{ACAD_REACTORS
330
2353
102
}
330
2353
100
AcDbPlotSettings
  1

  2
\\SERVER9\HP LaserJet 5100 PCL 5e
  4

  6

 40
0.0
 41
0.0
 42
0.0
 43
0.0
 44
0.0
 45
0.0
 46
0.0
 47
0.0
 48
0.0
 49
0.0
140
0.0
141
0.0
142
1.0
143
1.0
 70
  1712
 72
     0
 73
     0
 74
     0
  7

 75
     0
147
1.0
148
0.0
149
0.0
100
AcDbLayout
  1
Model
 70
     1
 71
     0
 10
0.0
 20
0.0
 11
12.0
 21
9.0
 12
0.0
 22
0.0
 32
0.0
 14
0.0
 24
0.0
 34
0.0
 15
0.0
 25
0.0
 35
0.0
146
0.0
 13
0.0
 23
0.0
 33
0.0
 16
1.0
 26
0.0
 36
0.0
 17
0.0
 27
1.0
 37
0.0
 76
     0
330
2358
  0
MLINESTYLE
  5
2351
102
{ACAD_REACTORS
330
2350
102
}
330
2350
100
AcDbMlineStyle
  2
STANDARD
 70
     0
  3

 62
   256
 51
90.0
 52
90.0
 71
     2
 49
0.5
 62
   256
  6
BYLAYER
 49
-0.5
 62
   256
  6
BYLAYER
  0
ACDBPLACEHOLDER
  5
2349
102
{ACAD_REACTORS
330
2348
102
}
330
2348
  0
DICTIONARYVAR
  5
25FF
102
{ACAD_REACTORS
330
25FE
102
}
330
25FE
100
DictionaryVariables
280
     0
  1
1
  0
ENDSEC
  0
EOF
