  0
SECTION
  2
HEADER
  9
$ACADVER
  1
AC1015
  9
$ACADMAINTVER
 70
    13
  9
$DWGCODEPAGE
  3
ANSI_1252
  9
$INSBASE
 10
0.0
 20
0.0
 30
0.0
  9
$EXTMIN
 10
-8.991379480951012
 20
-7.21297833577988
 30
0.0
  9
$EXTMAX
 10
399.516041464082
 20
231.2022321060295
 30
0.0
  9
$LIMMIN
 10
0.0
 20
0.0
  9
$LIMMAX
 10
420.0
 20
297.0
  9
$ORTHOMODE
 70
     0
  9
$REGENMODE
 70
     1
  9
$FILLMODE
 70
     1
  9
$QTEXTMODE
 70
     0
  9
$MIRRTEXT
 70
     1
  9
$LTSCALE
 40
1.0
  9
$ATTMODE
 70
     1
  9
$TEXTSIZE
 40
2.5
  9
$TRACEWID
 40
1.0
  9
$TEXTSTYLE
  7
STANDARD
  9
$CLAYER
  8
AM_0
  9
$CELTYPE
  6
ByLayer
  9
$CECOLOR
 62
   256
  9
$CELTSCALE
 40
1.0
  9
$DISPSILH
 70
     0
  9
$DIMSCALE
 40
1.0
  9
$DIMASZ
 40
2.5
  9
$DIMEXO
 40
0.625
  9
$DIMDLI
 40
3.75
  9
$DIMRND
 40
0.0
  9
$DIMDLE
 40
0.0
  9
$DIMEXE
 40
1.25
  9
$DIMTP
 40
0.0
  9
$DIMTM
 40
0.0
  9
$DIMTXT
 40
2.5
  9
$DIMCEN
 40
2.5
  9
$DIMTSZ
 40
0.0
  9
$DIMTOL
 70
     0
  9
$DIMLIM
 70
     0
  9
$DIMTIH
 70
     0
  9
$DIMTOH
 70
     0
  9
$DIMSE1
 70
     0
  9
$DIMSE2
 70
     0
  9
$DIMTAD
 70
     1
  9
$DIMZIN
 70
     8
  9
$DIMBLK
  1

  9
$DIMASO
 70
     1
  9
$DIMSHO
 70
     1
  9
$DIMPOST
  1

  9
$DIMAPOST
  1

  9
$DIMALT
 70
     0
  9
$DIMALTD
 70
     3
  9
$DIMALTF
 40
0.03937007874016
  9
$DIMLFAC
 40
1.0
  9
$DIMTOFL
 70
     1
  9
$DIMTVP
 40
0.0
  9
$DIMTIX
 70
     0
  9
$DIMSOXD
 70
     0
  9
$DIMSAH
 70
     0
  9
$DIMBLK1
  1

  9
$DIMBLK2
  1

  9
$DIMSTYLE
  2
ISO-25
  9
$DIMCLRD
 70
     0
  9
$DIMCLRE
 70
     0
  9
$DIMCLRT
 70
     0
  9
$DIMTFAC
 40
1.0
  9
$DIMGAP
 40
0.625
  9
$DIMJUST
 70
     0
  9
$DIMSD1
 70
     0
  9
$DIMSD2
 70
     0
  9
$DIMTOLJ
 70
     1
  9
$DIMTZIN
 70
     0
  9
$DIMALTZ
 70
     0
  9
$DIMALTTZ
 70
     0
  9
$DIMUPT
 70
     0
  9
$DIMDEC
 70
     4
  9
$DIMTDEC
 70
     4
  9
$DIMALTU
 70
     2
  9
$DIMALTTD
 70
     2
  9
$DIMTXSTY
  7
STANDARD
  9
$DIMAUNIT
 70
     0
  9
$DIMADEC
 70
     0
  9
$DIMALTRND
 40
0.0
  9
$DIMAZIN
 70
     0
  9
$DIMDSEP
 70
    46
  9
$DIMATFIT
 70
     3
  9
$DIMFRAC
 70
     0
  9
$DIMLDRBLK
  1

  9
$DIMLUNIT
 70
     2
  9
$DIMLWD
 70
    -2
  9
$DIMLWE
 70
    -2
  9
$DIMTMOVE
 70
     0
  9
$LUNITS
 70
     2
  9
$LUPREC
 70
     2
  9
$SKETCHINC
 40
1.0
  9
$FILLETRAD
 40
2.5
  9
$AUNITS
 70
     0
  9
$AUPREC
 70
     0
  9
$MENU
  1
.
  9
$ELEVATION
 40
0.0
  9
$PELEVATION
 40
0.0
  9
$THICKNESS
 40
0.0
  9
$LIMCHECK
 70
     0
  9
$CHAMFERA
 40
2.5
  9
$CHAMFERB
 40
2.5
  9
$CHAMFERC
 40
0.0
  9
$CHAMFERD
 40
0.0
  9
$SKPOLY
 70
     0
  9
$TDCREATE
 40
2452801.888190104
  9
$TDUCREATE
 40
2452802.054856770
  9
$TDUPDATE
 40
2453865.630384109
  9
$TDUUPDATE
 40
2453865.797050775
  9
$TDINDWG
 40
0.0347952894
  9
$TDUSRTIMER
 40
0.0347949306
  9
$USRTIMER
 70
     1
  9
$ANGBASE
 50
0.0
  9
$ANGDIR
 70
     0
  9
$PDMODE
 70
     0
  9
$PDSIZE
 40
0.0
  9
$PLINEWID
 40
0.0
  9
$SPLFRAME
 70
     0
  9
$SPLINETYPE
 70
     6
  9
$SPLINESEGS
 70
     8
  9
$HANDSEED
  5
24DA
  9
$SURFTAB1
 70
     6
  9
$SURFTAB2
 70
     6
  9
$SURFTYPE
 70
     6
  9
$SURFU
 70
     6
  9
$SURFV
 70
     6
  9
$UCSBASE
  2

  9
$UCSNAME
  2

  9
$UCSORG
 10
0.0
 20
0.0
 30
0.0
  9
$UCSXDIR
 10
1.0
 20
0.0
 30
0.0
  9
$UCSYDIR
 10
0.0
 20
1.0
 30
0.0
  9
$UCSORTHOREF
  2

  9
$UCSORTHOVIEW
 70
     0
  9
$UCSORGTOP
 10
0.0
 20
0.0
 30
0.0
  9
$UCSORGBOTTOM
 10
0.0
 20
0.0
 30
0.0
  9
$UCSORGLEFT
 10
0.0
 20
0.0
 30
0.0
  9
$UCSORGRIGHT
 10
0.0
 20
0.0
 30
0.0
  9
$UCSORGFRONT
 10
0.0
 20
0.0
 30
0.0
  9
$UCSORGBACK
 10
0.0
 20
0.0
 30
0.0
  9
$PUCSBASE
  2

  9
$PUCSNAME
  2

  9
$PUCSORG
 10
0.0
 20
0.0
 30
0.0
  9
$PUCSXDIR
 10
1.0
 20
0.0
 30
0.0
  9
$PUCSYDIR
 10
0.0
 20
1.0
 30
0.0
  9
$PUCSORTHOREF
  2

  9
$PUCSORTHOVIEW
 70
     0
  9
$PUCSORGTOP
 10
0.0
 20
0.0
 30
0.0
  9
$PUCSORGBOTTOM
 10
0.0
 20
0.0
 30
0.0
  9
$PUCSORGLEFT
 10
0.0
 20
0.0
 30
0.0
  9
$PUCSORGRIGHT
 10
0.0
 20
0.0
 30
0.0
  9
$PUCSORGFRONT
 10
0.0
 20
0.0
 30
0.0
  9
$PUCSORGBACK
 10
0.0
 20
0.0
 30
0.0
  9
$USERI1
 70
     0
  9
$USERI2
 70
     0
  9
$USERI3
 70
     0
  9
$USERI4
 70
     0
  9
$USERI5
 70
     0
  9
$USERR1
 40
0.0
  9
$USERR2
 40
0.0
  9
$USERR3
 40
0.0
  9
$USERR4
 40
0.0
  9
$USERR5
 40
0.0
  9
$WORLDVIEW
 70
     1
  9
$SHADEDGE
 70
     3
  9
$SHADEDIF
 70
    70
  9
$TILEMODE
 70
     1
  9
$MAXACTVP
 70
    64
  9
$PINSBASE
 10
0.0
 20
0.0
 30
0.0
  9
$PLIMCHECK
 70
     0
  9
$PEXTMIN
 10
1.000000000000000E+20
 20
1.000000000000000E+20
 30
1.000000000000000E+20
  9
$PEXTMAX
 10
-1.000000000000000E+20
 20
-1.000000000000000E+20
 30
-1.000000000000000E+20
  9
$PLIMMIN
 10
0.0
 20
0.0
  9
$PLIMMAX
 10
420.0
 20
297.0
  9
$UNITMODE
 70
     0
  9
$VISRETAIN
 70
     1
  9
$PLINEGEN
 70
     0
  9
$PSLTSCALE
 70
     1
  9
$TREEDEPTH
 70
  3020
  9
$CMLSTYLE
  2
Standard
  9
$CMLJUST
 70
     0
  9
$CMLSCALE
 40
1.0
  9
$PROXYGRAPHICS
 70
     1
  9
$MEASUREMENT
 70
     0
  9
$CELWEIGHT
370
    -1
  9
$ENDCAPS
280
     0
  9
$JOINSTYLE
280
     0
  9
$LWDISPLAY
290
     0
  9
$INSUNITS
 70
     0
  9
$HYPERLINKBASE
  1

  9
$STYLESHEET
  1

  9
$XEDIT
290
     1
  9
$CEPSNTYPE
380
     0
  9
$PSTYLEMODE
290
     1
  9
$FINGERPRINTGUID
  2
{BCD32540-37BA-4014-87AB-C882D6748146}
  9
$VERSIONGUID
  2
{84E366B0-8CB3-4C74-BD84-4669D909146E}
  9
$EXTNAMES
290
     1
  9
$PSVPSCALE
 40
0.0
  9
$OLESTARTUP
290
     0
  0
ENDSEC
  0
SECTION
  2
CLASSES
  0
CLASS
  1
ACDBDICTIONARYWDFLT
  2
AcDbDictionaryWithDefault
  3
AutoCAD 2000
 90
        0
280
     0
281
     0
  0
CLASS
  1
ACDBPLACEHOLDER
  2
AcDbPlaceHolder
  3
AutoCAD 2000
 90
        0
280
     0
281
     0
  0
CLASS
  1
LAYOUT
  2
AcDbLayout
  3
AutoCAD 2000
 90
        0
280
     0
281
     0
  0
CLASS
  1
DICTIONARYVAR
  2
AcDbDictionaryVar
  3
AutoCAD 2000
 90
        0
280
     0
281
     0
  0
ENDSEC
  0
SECTION
  2
TABLES
  0
TABLE
  2
VPORT
  5
21EB
330
0
100
AcDbSymbolTable
 70
     2
  0
VPORT
  5
24D9
330
21EB
100
AcDbSymbolTableRecord
100
AcDbViewportTableRecord
  2
*Active
 70
     0
 10
0.0
 20
0.0
 11
1.0
 21
1.0
 12
200.9477242407015
 22
118.7030186095289
 13
0.0
 23
0.0
 14
2.5
 24
2.5
 15
10.0
 25
10.0
 16
0.0
 26
0.0
 36
1.0
 17
0.0
 27
0.0
 37
0.0
 40
373.1779136372308
 41
1.182835820895522
 42
50.0
 43
0.0
 44
0.0
 50
0.0
 51
0.0
 71
     0
 72
   100
 73
     1
 74
     3
 75
     0
 76
     0
 77
     0
 78
     0
281
     0
 65
     1
110
0.0
120
0.0
130
0.0
111
1.0
121
0.0
131
0.0
112
0.0
122
1.0
132
0.0
 79
     0
146
0.0
  0
ENDTAB
  0
TABLE
  2
LTYPE
  5
21E8
330
0
100
AcDbSymbolTable
 70
     5
  0
LTYPE
  5
21F6
330
21E8
100
AcDbSymbolTableRecord
100
AcDbLinetypeTableRecord
  2
ByBlock
 70
     0
  3

 72
    65
 73
     0
 40
0.0
  0
LTYPE
  5
21F7
330
21E8
100
AcDbSymbolTableRecord
100
AcDbLinetypeTableRecord
  2
ByLayer
 70
     0
  3

 72
    65
 73
     0
 40
0.0
  0
LTYPE
  5
21F8
330
21E8
100
AcDbSymbolTableRecord
100
AcDbLinetypeTableRecord
  2
CONTINUOUS
 70
     0
  3
Solid line
 72
    65
 73
     0
 40
0.0
  0
LTYPE
  5
2207
330
21E8
100
AcDbSymbolTableRecord
100
AcDbLinetypeTableRecord
  2
CENTER
 70
     0
  3
Center ____ _ ____ _ ____ _ ____ _ ____ _ ____
 72
    65
 73
     4
 40
50.8
 49
31.75
 74
     0
 49
-6.349999999999997
 74
     0
 49
6.349999999999997
 74
     0
 49
-6.349999999999997
 74
     0
  0
LTYPE
  5
2208
330
21E8
100
AcDbSymbolTableRecord
100
AcDbLinetypeTableRecord
  2
DASHDOT
 70
     0
  3
__ . __ . __ .
 72
    65
 73
     4
 40
8.208951253520773
 49
4.104475626760383
 74
     0
 49
-2.052237813380194
 74
     0
 49
0.0
 74
     0
 49
-2.052237813380194
 74
     0
  0
LTYPE
  5
2209
330
21E8
100
AcDbSymbolTableRecord
100
AcDbLinetypeTableRecord
  2
DIVIDE
 70
     0
  3
__ . . __ . . 
 72
    65
 73
     6
 40
10.26118906690097
 49
4.104475626760383
 74
     0
 49
-2.052237813380194
 74
     0
 49
0.0
 74
     0
 49
-2.052237813380194
 74
     0
 49
0.0
 74
     0
 49
-2.052237813380194
 74
     0
  0
LTYPE
  5
220A
330
21E8
100
AcDbSymbolTableRecord
100
AcDbLinetypeTableRecord
  2
PHANTOM
 70
     0
  3
_____ _ _ _____ _ _ 
 72
    65
 73
     6
 40
20.52237813380194
 49
10.26118906690097
 74
     0
 49
-2.052237813380194
 74
     0
 49
2.052237813380194
 74
     0
 49
-2.052237813380194
 74
     0
 49
2.052237813380194
 74
     0
 49
-2.052237813380194
 74
     0
  0
ENDTAB
  0
TABLE
  2
LAYER
  5
21E5
330
0
100
AcDbSymbolTable
 70
     5
  0
LAYER
  5
21F3
330
21E5
100
AcDbSymbolTableRecord
100
AcDbLayerTableRecord
  2
0
 70
     0
 62
     7
  6
CONTINUOUS
370
    -3
390
21F2
  0
LAYER
  5
2205
330
21E5
100
AcDbSymbolTableRecord
100
AcDbLayerTableRecord
  2
AM_0
 70
     0
 62
     7
  6
CONTINUOUS
370
    -3
390
21F2
  0
LAYER
  5
220B
330
21E5
100
AcDbSymbolTableRecord
100
AcDbLayerTableRecord
  2
1
 70
     0
 62
     7
  6
CONTINUOUS
370
    -3
390
21F2
  0
LAYER
  5
220C
330
21E5
100
AcDbSymbolTableRecord
100
AcDbLayerTableRecord
  2
2
 70
     0
 62
     7
  6
CONTINUOUS
370
    -3
390
21F2
  0
LAYER
  5
24B3
330
21E5
100
AcDbSymbolTableRecord
100
AcDbLayerTableRecord
  2
LAYER_1
 70
     0
 62
     5
  6
CONTINUOUS
370
    -3
390
21F2
  0
ENDTAB
  0
TABLE
  2
STYLE
  5
21E6
330
0
100
AcDbSymbolTable
 70
     1
  0
STYLE
  5
21F4
330
21E6
100
AcDbSymbolTableRecord
100
AcDbTextStyleTableRecord
  2
STANDARD
 70
     0
 40
0.0
 41
1.0
 50
0.0
 71
     0
 42
2.5
  3
ISOCP.SHX
  4

  0
ENDTAB
  0
TABLE
  2
VIEW
  5
21E9
330
0
100
AcDbSymbolTable
 70
     0
  0
ENDTAB
  0
TABLE
  2
UCS
  5
21EA
330
0
100
AcDbSymbolTable
 70
     0
  0
ENDTAB
  0
TABLE
  2
APPID
  5
21EC
330
0
100
AcDbSymbolTable
 70
    13
  0
APPID
  5
21F5
330
21EC
100
AcDbSymbolTableRecord
100
AcDbRegAppTableRecord
  2
ACAD
 70
     0
  0
APPID
  5
220D
330
21EC
100
AcDbSymbolTableRecord
100
AcDbRegAppTableRecord
  2
GENIUS_GENDIM_13
 70
     0
  0
APPID
  5
220E
330
21EC
100
AcDbSymbolTableRecord
100
AcDbRegAppTableRecord
  2
GENIUS_GENDTOL_13
 70
     0
  0
APPID
  5
220F
330
21EC
100
AcDbSymbolTableRecord
100
AcDbRegAppTableRecord
  2
GENIUS_GE3DTOL_13
 70
     0
  0
APPID
  5
2210
330
21EC
100
AcDbSymbolTableRecord
100
AcDbRegAppTableRecord
  2
MCAD_NO_VIS
 70
     0
  0
APPID
  5
2211
330
21EC
100
AcDbSymbolTableRecord
100
AcDbRegAppTableRecord
  2
ACAD_TEMP_GRAPHIC
 70
     0
  0
APPID
  5
2212
330
21EC
100
AcDbSymbolTableRecord
100
AcDbRegAppTableRecord
  2
AD_DRAW
 70
     0
  0
APPID
  5
2213
330
21EC
100
AcDbSymbolTableRecord
100
AcDbRegAppTableRecord
  2
ACATTRIBSERVICES
 70
     0
  0
APPID
  5
2214
330
21EC
100
AcDbSymbolTableRecord
100
AcDbRegAppTableRecord
  2
ASURF_PCURVE_APPNAME
 70
     0
  0
APPID
  5
2215
330
21EC
100
AcDbSymbolTableRecord
100
AcDbRegAppTableRecord
  2
DESIGNERASSEMBLIES
 70
     0
  0
APPID
  5
2216
330
21EC
100
AcDbSymbolTableRecord
100
AcDbRegAppTableRecord
  2
ACADM_DIM_EDIT
 70
     0
  0
APPID
  5
2217
330
21EC
100
AcDbSymbolTableRecord
100
AcDbRegAppTableRecord
  2
G3V_ENTHND
 70
     0
  0
APPID
  5
2218
330
21EC
100
AcDbSymbolTableRecord
100
AcDbRegAppTableRecord
  2
GENIUS_GENDIMSH_14
 70
     0
  0
ENDTAB
  0
TABLE
  2
DIMSTYLE
  5
21ED
330
0
100
AcDbSymbolTable
 70
     2
100
AcDbDimStyleTable
 71
     0
  0
DIMSTYLE
105
2219
330
21ED
100
AcDbSymbolTableRecord
100
AcDbDimStyleTableRecord
  2
ISO-25
 70
     0
 41
2.5
 42
0.625
 43
3.75
 44
1.25
 73
     0
 74
     0
 77
     1
 78
     8
140
2.5
141
2.5
143
0.03937007874016
147
0.625
171
     3
172
     1
271
     2
272
     2
274
     3
279
     2
284
     8
285
     8
286
     8
340
21F4
  0
DIMSTYLE
105
24B4
330
21ED
100
AcDbSymbolTableRecord
100
AcDbDimStyleTableRecord
  2
Standard
 70
     0
340
21F4
  0
ENDTAB
  0
TABLE
  2
BLOCK_RECORD
  5
21E4
330
0
100
AcDbSymbolTable
 70
    21
  0
BLOCK_RECORD
  5
2201
330
21E4
100
AcDbSymbolTableRecord
100
AcDbBlockTableRecord
  2
*Model_Space
340
2204
  0
BLOCK_RECORD
  5
21FD
330
21E4
100
AcDbSymbolTableRecord
100
AcDbBlockTableRecord
  2
*Paper_Space
340
2200
  0
BLOCK_RECORD
  5
221B
330
21E4
100
AcDbSymbolTableRecord
100
AcDbBlockTableRecord
  2
$MODEL_SPACE
340
0
  0
BLOCK_RECORD
  5
221E
330
21E4
100
AcDbSymbolTableRecord
100
AcDbBlockTableRecord
  2
$PAPER_SPACE
340
0
  0
BLOCK_RECORD
  5
2447
330
21E4
100
AcDbSymbolTableRecord
100
AcDbBlockTableRecord
  2
AI9-BLK14
340
0
310
2800000020000000200000000100080000000000000400000000000000000000000000000000000000000000000080000080000000808000800000008000800080800000C0C0C000C0DCC000F0CAA6000020400000206000002080000020A0000020C0000020E00000400000004020000040400000406000004080000040A0
310
000040C0000040E00000600000006020000060400000606000006080000060A0000060C0000060E00000800000008020000080400000806000008080000080A0000080C0000080E00000A0000000A0200000A0400000A0600000A0800000A0A00000A0C00000A0E00000C0000000C0200000C0400000C0600000C0800000C0
310
A00000C0C00000C0E00000E0000000E0200000E0400000E0600000E0800000E0A00000E0C00000E0E00040000000400020004000400040006000400080004000A0004000C0004000E00040200000402020004020400040206000402080004020A0004020C0004020E000404000004040200040404000404060004040800040
310
40A0004040C0004040E00040600000406020004060400040606000406080004060A0004060C0004060E00040800000408020004080400040806000408080004080A0004080C0004080E00040A0000040A0200040A0400040A0600040A0800040A0A00040A0C00040A0E00040C0000040C0200040C0400040C0600040C08000
310
40C0A00040C0C00040C0E00040E0000040E0200040E0400040E0600040E0800040E0A00040E0C00040E0E00080000000800020008000400080006000800080008000A0008000C0008000E00080200000802020008020400080206000802080008020A0008020C0008020E00080400000804020008040400080406000804080
310
008040A0008040C0008040E00080600000806020008060400080606000806080008060A0008060C0008060E00080800000808020008080400080806000808080008080A0008080C0008080E00080A0000080A0200080A0400080A0600080A0800080A0A00080A0C00080A0E00080C0000080C0200080C0400080C0600080C0
310
800080C0A00080C0C00080C0E00080E0000080E0200080E0400080E0600080E0800080E0A00080E0C00080E0E000C0000000C0002000C0004000C0006000C0008000C000A000C000C000C000E000C0200000C0202000C0204000C0206000C0208000C020A000C020C000C020E000C0400000C0402000C0404000C0406000C0
310
408000C040A000C040C000C040E000C0600000C0602000C0604000C0606000C0608000C060A000C060C000C060E000C0800000C0802000C0804000C0806000C0808000C080A000C080C000C080E000C0A00000C0A02000C0A04000C0A06000C0A08000C0A0A000C0A0C000C0A0E000C0C00000C0C02000C0C04000C0C06000
310
C0C08000C0C0A000F0FBFF00A4A0A000808080000000FF0000FF000000FFFF00FF000000FF00FF00FFFF0000FFFFFF00FF00FFFFFFFF00FFFFFFFFFFFFFFFFFFFFFFFFFFFFFFFFFFFFFFFFFFFFFFFFFFFF00FFFFFFFF00FFFFFFFFFFFFFFFFFFFFFFFFFFFFFFFFFFFFFFFFFFFFFFFFFFFF00FFFFFFFF00FFFFFFFFFFFFFFFF
310
FFFFFFFFFFFFFFFFFFFFFFFFFFFFFFFFFFFF00FFFFFFFF00FFFFFFFFFFFFFFFFFFFFFFFFFFFFFFFFFFFFFFFFFFFFFFFFFFFF00FFFFFFFF00FFFFFFFFFFFFFFFFFFFFFFFFFFFFFFFFFFFFFFFFFFFFFFFFFFFF00FFFFFFFF00FFFFFFFFFFFFFFFFFFFFFFFFFFFFFFFFFFFFFFFFFFFFFFFFFFFF00FFFFFFFF00FFFFFFFFFFFFFF
310
FFFFFFFFFFFFFFFFFFFFFFFFFFFFFFFFFFFFFF00FFFFFFFF00FFFFFFFFFFFFFFFFFFFFFFFFFFFFFFFFFFFFFFFFFFFFFFFFFFFF00FFFFFFFF00FFFFFFFFFFFFFFFFFFFFFFFFFFFFFFFFFFFFFFFFFFFFFFFFFFFF00FFFFFFFF00FFFFFFFFFFFFFFFFFFFFFFFFFFFFFFFFFFFFFFFFFFFFFFFFFFFF00FFFFFFFF00FFFFFFFFFFFF
310
FFFFFFFFFFFFFFFFFFFFFFFFFFFFFFFFFFFFFFFF00FFFFFFFF00FFFFFFFFFFFFFFFFFFFFFFFFFFFFFFFFFFFFFFFFFFFFFFFFFFFF00FFFFFFFF00FFFFFFFFFFFFFFFFFFFFFFFFFFFFFFFFFFFFFFFFFFFFFFFFFFFF00FFFFFFFF0000000000000000000000000000000000000000000000000000FF00FFFFFFFFFFFFFFFFFFFF
310
FFFFFFFFFFFFFFFFFFFFFFFFFFFFFFFFFFFFFFFFFF00FFFFFFFFFFFFFFFFFFFFFFFFFFFFFFFFFFFFFFFFFFFFFFFFFFFFFFFFFFFFFF00FFFFFFFFFFFFFFFFFFFFFFFFFFFFFFFFFFFFFFFFFFFFFFFFFFFFFFFFFFFFFF00FFFFFFFFFFFFFFFFFFFFFFFFFFFFFFFFFFFFFFFFFFFFFFFFFFFFFFFFFF00FF00000000000000000000
310
0000000000000000000000000000000000000000FFFFFFFFFFFFFFFFFFFFFFFFFFFFFFFFFFFFFFFFFFFFFFFFFFFFFFFFFFFFFFFFFFFFFFFFFFFFFFFFFFFFFFFFFFFFFFFFFFFFFFFFFFFFFFFFFFFFFFFFFFFFFFFFFFFFFFFFFFFFFFFFFFFFFFFFFFFFFFFFFFFFFFFFFFFFFFFFFFFFFFFFFFFFFFFFFFFFFFFFFFFFFFFFFFFFFF
310
FFFFFFFFFFFFFFFFFFFFFFFFFFFFFFFFFFFFFFFFFFFFFFFFFFFFFFFFFFFFFFFFFFFFFFFFFFFFFFFFFFFFFFFFFFFFFFFFFFFFFFFFFFFFFFFFFFFFFFFFFFFFFFFFFFFFFFFFFFFFFFFFFFFFFFFFFFFFFFFFFFFFFFFFFFFFFFFFFFFFFFFFFFFFFFFFFFFFFFFFFFFFFFFFFFFFFFFFFFFFFFFFFFFFFFFFFFFFFFFFFFFFFFFFFFFFFF
310
FFFFFFFFFFFFFFFFFFFFFFFFFFFFFFFFFFFFFFFFFFFFFFFFFFFFFFFFFFFFFFFFFFFFFFFFFFFFFFFFFFFFFFFFFFFFFFFFFFFFFFFFFFFFFFFFFFFFFFFFFFFFFFFFFFFFFFFFFFFFFFFFFFFFFFFFFFFFFFFFFFFFFFFFFFFFFFFFFFFFFFFFFFFFFFFFFFFFFFFFFFFFFFFFFFFFFFFFFFFFFFFFFFFFFFFFFFFFFFFFFFFFFFFFFFFFFF
310
FFFFFFFFFFFFFFFFFFFFFFFFFFFFFFFFFFFFFFFFFFFFFFFFFFFFFFFFFFFFFFFFFFFFFFFFFFFFFFFFFFFFFFFFFFFFFFFFFFFFFFFFFFFFFFFF
102
{BLKREFS
331
2488
102
}
  0
BLOCK_RECORD
  5
244C
330
21E4
100
AcDbSymbolTableRecord
100
AcDbBlockTableRecord
  2
AI9-BLK13
340
0
310
2800000020000000200000000100080000000000000400000000000000000000000000000000000000000000000080000080000000808000800000008000800080800000C0C0C000C0DCC000F0CAA6000020400000206000002080000020A0000020C0000020E00000400000004020000040400000406000004080000040A0
310
000040C0000040E00000600000006020000060400000606000006080000060A0000060C0000060E00000800000008020000080400000806000008080000080A0000080C0000080E00000A0000000A0200000A0400000A0600000A0800000A0A00000A0C00000A0E00000C0000000C0200000C0400000C0600000C0800000C0
310
A00000C0C00000C0E00000E0000000E0200000E0400000E0600000E0800000E0A00000E0C00000E0E00040000000400020004000400040006000400080004000A0004000C0004000E00040200000402020004020400040206000402080004020A0004020C0004020E000404000004040200040404000404060004040800040
310
40A0004040C0004040E00040600000406020004060400040606000406080004060A0004060C0004060E00040800000408020004080400040806000408080004080A0004080C0004080E00040A0000040A0200040A0400040A0600040A0800040A0A00040A0C00040A0E00040C0000040C0200040C0400040C0600040C08000
310
40C0A00040C0C00040C0E00040E0000040E0200040E0400040E0600040E0800040E0A00040E0C00040E0E00080000000800020008000400080006000800080008000A0008000C0008000E00080200000802020008020400080206000802080008020A0008020C0008020E00080400000804020008040400080406000804080
310
008040A0008040C0008040E00080600000806020008060400080606000806080008060A0008060C0008060E00080800000808020008080400080806000808080008080A0008080C0008080E00080A0000080A0200080A0400080A0600080A0800080A0A00080A0C00080A0E00080C0000080C0200080C0400080C0600080C0
310
800080C0A00080C0C00080C0E00080E0000080E0200080E0400080E0600080E0800080E0A00080E0C00080E0E000C0000000C0002000C0004000C0006000C0008000C000A000C000C000C000E000C0200000C0202000C0204000C0206000C0208000C020A000C020C000C020E000C0400000C0402000C0404000C0406000C0
310
408000C040A000C040C000C040E000C0600000C0602000C0604000C0606000C0608000C060A000C060C000C060E000C0800000C0802000C0804000C0806000C0808000C080A000C080C000C080E000C0A00000C0A02000C0A04000C0A06000C0A08000C0A0A000C0A0C000C0A0E000C0C00000C0C02000C0C04000C0C06000
310
C0C08000C0C0A000F0FBFF00A4A0A000808080000000FF0000FF000000FFFF00FF000000FF00FF00FFFF0000FFFFFF00FFFFFFFFFFFFFFFFFFFFFFFFFFFFFFFFFFFFFFFFFFFFFFFFFFFFFFFFFFFFFFFFFFFFFFFFFFFFFFFFFFFFFF0000FFFFFFFFFFFF0000FFFFFFFFFFFFFFFFFFFFFFFFFFFFFFFFFFFFFFFFFFFF0000FFFF
310
FFFFFFFF0000FFFFFFFFFFFFFFFFFFFFFFFFFFFFFFFFFFFFFFFFFFFF0000FFFFFFFFFFFF0000FFFFFFFFFFFFFFFFFFFFFFFFFFFFFFFFFFFFFFFFFFFF0000FFFFFFFFFFFF0000FFFFFFFFFFFFFFFFFFFFFFFFFFFFFFFFFFFFFFFFFFFF0000FFFFFFFFFFFF0000FFFFFFFFFFFFFFFFFFFFFFFFFFFFFFFFFFFFFFFFFFFF0000FF
310
FFFFFFFFFF0000FFFFFFFFFFFFFFFFFFFFFFFFFFFFFFFFFFFFFFFFFFFF0000FFFFFFFFFFFF0000FFFFFFFFFFFFFFFFFFFFFFFFFFFFFFFFFFFFFFFFFFFF0000FFFFFFFFFFFF0000FFFFFFFFFFFFFFFFFFFFFFFFFFFFFFFFFFFFFFFFFFFF0000FFFFFFFFFFFF0000FFFFFFFFFFFFFFFFFFFFFFFFFFFFFFFFFFFFFFFFFFFF0000
310
FFFFFFFFFFFF0000FFFFFFFFFFFFFFFFFFFFFFFFFFFFFFFFFFFFFFFFFFFF0000FFFFFFFFFFFF0000FFFFFFFFFFFFFFFFFFFFFFFFFFFFFFFFFFFFFFFFFFFF0000FFFFFFFFFFFF0000FFFFFFFFFFFFFFFFFFFFFFFFFFFFFFFFFFFFFFFFFFFF0000FFFFFFFFFFFF0000FFFFFFFFFFFFFFFFFFFFFFFFFFFFFFFFFFFFFFFFFFFF00
310
00FFFFFFFFFFFF0000FFFFFFFFFFFFFFFFFFFFFFFFFFFFFFFFFFFFFFFFFFFF00000000000000000000FFFFFFFFFFFFFFFFFFFFFFFFFFFFFFFFFFFFFFFFFFFF00FFFFFFFFFFFFFFFF00FFFFFFFFFFFFFFFFFFFFFFFFFFFFFFFFFFFFFFFFFFFF00FFFFFFFFFFFFFFFF00FFFFFFFFFFFFFFFFFFFFFFFFFFFFFFFFFFFFFFFFFFFF
310
00000000000000000000FFFFFFFFFFFFFFFFFFFFFFFFFFFFFFFFFFFFFFFFFFFF0000FFFFFFFFFFFF0000FFFFFFFFFFFFFFFFFFFFFFFFFFFFFFFFFFFFFFFFFFFF0000FFFFFFFFFFFF0000FFFFFFFFFFFFFFFFFFFFFFFFFFFFFFFFFFFFFFFFFFFF0000FFFFFFFFFFFF0000FFFFFFFFFFFFFFFFFFFFFFFFFFFFFFFFFFFFFFFFFF
310
FF0000FFFFFFFFFFFF0000FFFFFFFFFFFFFFFFFFFFFFFFFFFFFFFFFFFFFFFFFFFF0000FFFFFFFFFFFF0000FFFFFFFFFFFFFFFFFFFFFFFFFFFFFFFFFFFFFFFFFFFF0000FFFFFFFFFFFF0000FFFFFFFFFFFFFFFFFFFFFFFFFFFFFFFFFFFFFFFFFFFF0000FFFFFFFFFFFF0000FFFFFFFFFFFFFFFFFFFFFFFFFFFFFFFFFFFFFFFF
310
FFFF0000FFFFFFFFFFFF0000FFFFFFFFFFFFFFFFFFFFFFFFFFFFFFFFFFFFFFFFFFFF0000FFFFFFFFFFFF0000FFFFFFFFFFFFFFFFFFFFFFFFFFFFFFFFFFFFFFFFFFFF0000FFFFFFFFFFFF0000FFFFFFFFFFFFFFFFFFFFFFFFFFFFFFFFFFFFFFFFFFFF0000FFFFFFFFFFFF0000FFFFFFFFFFFFFFFFFFFFFFFFFFFFFFFFFFFFFF
310
FFFFFF0000FFFFFFFFFFFF0000FFFFFFFFFFFFFFFFFFFFFFFFFFFFFFFFFFFFFFFFFFFFFFFFFFFFFFFFFFFFFFFFFFFFFFFFFFFFFFFFFFFFFF
102
{BLKREFS
331
2489
102
}
  0
BLOCK_RECORD
  5
2451
330
21E4
100
AcDbSymbolTableRecord
100
AcDbBlockTableRecord
  2
AI9-BLK11
340
0
310
2800000020000000200000000100080000000000000400000000000000000000000000000000000000000000000080000080000000808000800000008000800080800000C0C0C000C0DCC000F0CAA6000020400000206000002080000020A0000020C0000020E00000400000004020000040400000406000004080000040A0
310
000040C0000040E00000600000006020000060400000606000006080000060A0000060C0000060E00000800000008020000080400000806000008080000080A0000080C0000080E00000A0000000A0200000A0400000A0600000A0800000A0A00000A0C00000A0E00000C0000000C0200000C0400000C0600000C0800000C0
310
A00000C0C00000C0E00000E0000000E0200000E0400000E0600000E0800000E0A00000E0C00000E0E00040000000400020004000400040006000400080004000A0004000C0004000E00040200000402020004020400040206000402080004020A0004020C0004020E000404000004040200040404000404060004040800040
310
40A0004040C0004040E00040600000406020004060400040606000406080004060A0004060C0004060E00040800000408020004080400040806000408080004080A0004080C0004080E00040A0000040A0200040A0400040A0600040A0800040A0A00040A0C00040A0E00040C0000040C0200040C0400040C0600040C08000
310
40C0A00040C0C00040C0E00040E0000040E0200040E0400040E0600040E0800040E0A00040E0C00040E0E00080000000800020008000400080006000800080008000A0008000C0008000E00080200000802020008020400080206000802080008020A0008020C0008020E00080400000804020008040400080406000804080
310
008040A0008040C0008040E00080600000806020008060400080606000806080008060A0008060C0008060E00080800000808020008080400080806000808080008080A0008080C0008080E00080A0000080A0200080A0400080A0600080A0800080A0A00080A0C00080A0E00080C0000080C0200080C0400080C0600080C0
310
800080C0A00080C0C00080C0E00080E0000080E0200080E0400080E0600080E0800080E0A00080E0C00080E0E000C0000000C0002000C0004000C0006000C0008000C000A000C000C000C000E000C0200000C0202000C0204000C0206000C0208000C020A000C020C000C020E000C0400000C0402000C0404000C0406000C0
310
408000C040A000C040C000C040E000C0600000C0602000C0604000C0606000C0608000C060A000C060C000C060E000C0800000C0802000C0804000C0806000C0808000C080A000C080C000C080E000C0A00000C0A02000C0A04000C0A06000C0A08000C0A0A000C0A0C000C0A0E000C0C00000C0C02000C0C04000C0C06000
310
C0C08000C0C0A000F0FBFF00A4A0A000808080000000FF0000FF000000FFFF00FF000000FF00FF00FFFF0000FFFFFF00FFFFFFFFFFFFFFFFFFFFFFFFFFFFFFFFFFFFFFFFFFFFFFFFFFFFFFFFFFFFFFFFFFFFFFFFFFFFFFFFFFFFFFFFFFFF00000000FFFFFFFFFFFFFFFFFFFFFF000000FFFFFFFFFFFFFFFFFFFFFFFFFFFF00
310
FFFF00FFFFFFFFFFFFFFFFFFFFFF00FFFFFFFFFFFFFFFFFFFFFFFFFFFFFFFF00FFFF00FFFFFFFFFFFFFFFFFFFFFF00FFFFFFFFFFFFFFFFFFFFFFFFFFFFFFFF00FFFF00FFFFFFFFFFFFFFFFFFFFFF00FFFFFFFFFFFFFFFFFFFFFFFFFFFFFFFF00FFFF00FFFFFFFFFFFFFFFFFFFFFF00FFFFFFFFFFFFFFFFFFFFFFFFFFFFFFFF
310
00FFFF00FFFFFFFFFFFFFFFFFFFFFF00FFFFFFFFFFFFFFFFFFFFFFFFFFFFFFFF00FFFF00FFFFFFFFFFFFFFFFFFFFFF00FFFFFFFFFFFFFFFFFFFFFFFFFFFFFFFF00FFFF00FFFFFFFFFFFFFFFFFFFFFF00FFFFFFFFFFFFFFFFFFFFFFFFFFFFFFFF00FFFF00FFFFFFFFFFFFFFFFFFFFFF00FFFFFFFFFFFFFFFFFFFFFFFFFFFFFF
310
FF00FFFF00FFFFFFFFFFFFFFFFFFFFFF00FFFFFFFFFFFFFFFFFFFFFFFFFFFFFFFF00FFFF00FFFFFFFFFFFFFFFFFFFFFF00FFFFFFFFFFFFFFFFFFFFFFFFFFFFFFFF00FFFF00FFFFFFFFFFFFFFFFFFFFFF00FFFFFFFFFFFFFFFFFFFFFFFFFFFFFFFF00FFFF00FFFFFFFFFFFFFFFFFFFFFF00FFFFFFFFFFFFFFFFFFFFFFFFFFFF
310
FFFF00FFFF00FFFFFFFFFFFFFFFFFFFFFF00FFFFFFFFFFFFFFFFFFFFFFFFFFFFFFFF00FFFF00FFFFFFFFFFFFFFFFFFFFFF00FFFFFFFFFFFFFFFFFFFFFFFFFFFFFFFF00FFFF00FFFFFFFFFFFFFFFFFFFFFF00FFFFFFFFFFFFFFFFFFFFFFFFFFFFFFFF00FFFF00FFFFFFFFFFFFFFFFFFFF00FFFFFFFFFFFFFFFFFFFFFFFFFFFF
310
FFFFFF00FFFF00FFFFFFFFFFFFFFFFFFFF00FFFFFFFFFFFFFFFFFFFFFFFFFFFFFFFFFF00FFFF00FFFFFFFFFFFFFFFFFFFF00FFFFFFFFFFFFFFFFFFFFFFFFFFFFFFFFFF00FFFF00FFFFFFFFFFFFFFFFFFFF00FFFFFFFFFFFFFFFFFFFFFFFFFFFFFFFFFF00FFFF00FFFFFFFFFFFFFFFFFFFF00FFFFFFFFFFFFFFFFFFFFFFFFFF
310
FFFFFFFF00FFFF00FFFFFFFFFFFFFFFFFF0000FFFF00FFFFFFFFFFFFFFFFFFFFFFFFFFFF00FFFF00FFFFFFFFFFFFFFFF0000FFFFFF00FFFFFFFFFFFFFFFFFFFFFFFFFFFF00FFFF00000000000000000000FFFFFFFF00FFFFFFFFFFFFFFFFFFFFFFFFFFFF00FFFFFFFFFFFFFFFFFFFFFFFFFFFFFF00FFFFFFFFFFFFFFFFFFFF
310
FFFFFFFFFF00FFFFFFFFFFFFFFFFFFFFFFFFFFFF00FFFFFFFFFFFFFFFFFFFFFFFFFFFFFFFF00FFFFFFFFFFFFFFFFFFFFFFFFFFFF00FFFFFFFFFFFFFFFFFFFFFFFFFFFFFFFF00FFFFFFFFFFFFFFFFFFFFFFFFFFFFFF00FFFFFFFFFFFFFFFFFFFFFFFFFFFFFF00FFFFFFFFFFFFFFFFFFFFFFFFFFFFFF00FFFFFFFFFFFFFFFFFF
310
FFFFFFFFFFFF00FFFF00000000000000000000FFFFFFFF00FFFFFFFFFFFFFFFFFFFFFFFFFFFF00FFFF00FFFFFFFFFFFFFFFFFF0000FFFF00
102
{BLKREFS
331
248A
102
}
  0
BLOCK_RECORD
  5
2456
330
21E4
100
AcDbSymbolTableRecord
100
AcDbBlockTableRecord
  2
AI9-BLK10
340
0
310
2800000020000000200000000100080000000000000400000000000000000000000000000000000000000000000080000080000000808000800000008000800080800000C0C0C000C0DCC000F0CAA6000020400000206000002080000020A0000020C0000020E00000400000004020000040400000406000004080000040A0
310
000040C0000040E00000600000006020000060400000606000006080000060A0000060C0000060E00000800000008020000080400000806000008080000080A0000080C0000080E00000A0000000A0200000A0400000A0600000A0800000A0A00000A0C00000A0E00000C0000000C0200000C0400000C0600000C0800000C0
310
A00000C0C00000C0E00000E0000000E0200000E0400000E0600000E0800000E0A00000E0C00000E0E00040000000400020004000400040006000400080004000A0004000C0004000E00040200000402020004020400040206000402080004020A0004020C0004020E000404000004040200040404000404060004040800040
310
40A0004040C0004040E00040600000406020004060400040606000406080004060A0004060C0004060E00040800000408020004080400040806000408080004080A0004080C0004080E00040A0000040A0200040A0400040A0600040A0800040A0A00040A0C00040A0E00040C0000040C0200040C0400040C0600040C08000
310
40C0A00040C0C00040C0E00040E0000040E0200040E0400040E0600040E0800040E0A00040E0C00040E0E00080000000800020008000400080006000800080008000A0008000C0008000E00080200000802020008020400080206000802080008020A0008020C0008020E00080400000804020008040400080406000804080
310
008040A0008040C0008040E00080600000806020008060400080606000806080008060A0008060C0008060E00080800000808020008080400080806000808080008080A0008080C0008080E00080A0000080A0200080A0400080A0600080A0800080A0A00080A0C00080A0E00080C0000080C0200080C0400080C0600080C0
310
800080C0A00080C0C00080C0E00080E0000080E0200080E0400080E0600080E0800080E0A00080E0C00080E0E000C0000000C0002000C0004000C0006000C0008000C000A000C000C000C000E000C0200000C0202000C0204000C0206000C0208000C020A000C020C000C020E000C0400000C0402000C0404000C0406000C0
310
408000C040A000C040C000C040E000C0600000C0602000C0604000C0606000C0608000C060A000C060C000C060E000C0800000C0802000C0804000C0806000C0808000C080A000C080C000C080E000C0A00000C0A02000C0A04000C0A06000C0A08000C0A0A000C0A0C000C0A0E000C0C00000C0C02000C0C04000C0C06000
310
C0C08000C0C0A000F0FBFF00A4A0A000808080000000FF0000FF000000FFFF00FF000000FF00FF00FFFF0000FFFFFF00FFFFFFFFFFFFFFFFFFFFFFFFFFFFFFFF00FFFFFFFFFFFFFFFFFFFFFFFF00FFFFFFFFFFFFFFFFFFFFFFFFFFFFFFFFFFFF00FFFFFFFFFFFFFFFFFFFFFF00FFFFFFFFFFFFFFFFFFFFFFFFFFFFFFFFFFFF
310
FF00FFFFFFFFFFFFFFFFFFFFFF00FFFFFFFFFFFFFFFFFFFFFFFFFFFFFFFFFFFFFF00FFFFFFFFFFFFFFFFFFFFFF00FFFFFFFFFFFFFFFFFFFFFFFFFFFFFFFFFFFFFF00FFFFFFFFFFFFFFFFFFFFFF00FFFFFFFFFFFFFFFFFFFFFFFFFFFFFFFFFFFFFF00FFFFFFFFFFFFFFFFFFFFFF00FFFFFFFFFFFFFFFFFFFFFFFFFFFFFFFFFF
310
FFFF00FFFFFFFFFFFFFFFFFFFFFF00FFFFFFFFFFFFFFFFFFFFFFFFFFFFFFFFFFFFFF00FFFFFFFFFFFFFFFFFFFF00FFFFFFFFFFFFFFFFFFFFFFFFFFFFFFFFFFFFFFFF00FFFFFFFFFFFFFFFFFFFF00FFFFFFFFFFFFFFFFFFFFFFFFFFFFFFFFFFFFFFFF00FFFFFFFFFFFFFFFFFFFF00FFFFFFFFFFFFFFFFFFFFFFFFFFFFFFFFFF
310
FFFFFF00FFFFFFFFFFFFFFFFFFFF00FFFFFFFFFFFFFFFFFFFFFFFFFFFFFFFFFFFFFFFF00FFFFFFFFFFFFFFFFFFFF00FFFFFFFFFFFFFFFFFFFFFFFFFFFFFFFFFFFFFFFF00FFFFFFFFFFFFFFFFFFFF00FFFFFFFFFFFFFFFFFFFFFFFFFFFFFFFFFFFFFFFF00FFFFFFFFFFFFFFFFFF00FFFFFFFFFFFFFFFFFFFFFFFFFFFFFFFFFF
310
FFFFFFFF00FFFFFFFFFFFFFFFFFF00FFFFFFFFFFFFFFFFFFFFFFFFFFFFFFFFFFFFFFFFFF00FFFFFFFFFFFFFFFFFF00FFFFFFFFFFFFFFFFFFFFFFFFFFFFFFFFFFFFFFFFFF0000000000000000000000FFFFFFFFFFFFFFFFFFFFFFFFFFFFFFFFFFFFFFFFFFFFFFFFFFFFFFFFFFFFFFFFFFFFFFFFFFFFFFFFFFFFFFFFFFFFFFFF
310
FFFFFFFFFFFFFFFFFFFFFFFFFFFFFFFFFFFFFFFFFFFFFFFFFFFFFFFFFFFFFFFFFFFFFFFFFFFFFFFFFFFFFFFFFFFFFFFFFFFFFFFFFFFFFFFFFFFFFFFFFFFFFFFFFFFFFFFFFFFFFFFFFFFFFFFFFFFFFFFFFFFFFFFFFFFFFFFFFFFFFFFFFFFFFFFFFFFFFFFFFFFFFFFFFFFFFFFFFFFFFFFFFFFFFFFFFFFFFFFFFFFFFFFFFFFFFF
310
FFFFFFFFFFFFFFFFFFFFFFFFFFFFFFFFFFFFFFFFFFFFFFFFFFFFFFFFFFFFFFFFFFFFFFFFFFFFFFFFFFFFFFFFFFFFFFFFFFFFFFFFFFFFFFFFFFFFFFFFFFFFFFFFFFFFFFFFFFFFFFFFFFFFFFFFFFFFFFFFFFFFFFFFFFFFFFFFFFFFFFFFFFFFFFFFFFFFFFFFFFFFFFFFFFFFFFFFFFFFFFFFFFFFFFFFFFFFFFFFFFFFFFFFFFFFFF
310
FFFFFFFFFFFFFFFFFFFFFFFFFFFFFFFFFFFFFFFFFFFFFFFFFFFFFFFFFFFFFFFFFFFFFFFFFFFFFFFFFFFFFFFFFFFFFFFFFFFFFFFFFFFFFFFFFFFFFFFFFFFFFFFFFFFFFFFFFFFFFFFFFFFFFFFFFFFFFFFFFFFFFFFFFFFFFFFFFFFFFFFFFFFFFFFFFFFFFFFFFFFFFFFFFFFFFFFFFFFFFFFFFFFFFFFFFFFFFFFFFFFFFFFFFFFFFF
310
FFFFFFFFFFFFFFFFFFFFFFFFFFFFFFFFFFFFFFFFFFFFFFFFFFFFFFFFFFFFFFFFFFFFFFFFFFFFFFFFFFFFFFFFFFFFFFFFFFFFFFFFFFFFFFFF
102
{BLKREFS
331
248B
102
}
  0
BLOCK_RECORD
  5
245A
330
21E4
100
AcDbSymbolTableRecord
100
AcDbBlockTableRecord
  2
AI9-BLK9
340
0
310
2800000020000000200000000100080000000000000400000000000000000000000000000000000000000000000080000080000000808000800000008000800080800000C0C0C000C0DCC000F0CAA6000020400000206000002080000020A0000020C0000020E00000400000004020000040400000406000004080000040A0
310
000040C0000040E00000600000006020000060400000606000006080000060A0000060C0000060E00000800000008020000080400000806000008080000080A0000080C0000080E00000A0000000A0200000A0400000A0600000A0800000A0A00000A0C00000A0E00000C0000000C0200000C0400000C0600000C0800000C0
310
A00000C0C00000C0E00000E0000000E0200000E0400000E0600000E0800000E0A00000E0C00000E0E00040000000400020004000400040006000400080004000A0004000C0004000E00040200000402020004020400040206000402080004020A0004020C0004020E000404000004040200040404000404060004040800040
310
40A0004040C0004040E00040600000406020004060400040606000406080004060A0004060C0004060E00040800000408020004080400040806000408080004080A0004080C0004080E00040A0000040A0200040A0400040A0600040A0800040A0A00040A0C00040A0E00040C0000040C0200040C0400040C0600040C08000
310
40C0A00040C0C00040C0E00040E0000040E0200040E0400040E0600040E0800040E0A00040E0C00040E0E00080000000800020008000400080006000800080008000A0008000C0008000E00080200000802020008020400080206000802080008020A0008020C0008020E00080400000804020008040400080406000804080
310
008040A0008040C0008040E00080600000806020008060400080606000806080008060A0008060C0008060E00080800000808020008080400080806000808080008080A0008080C0008080E00080A0000080A0200080A0400080A0600080A0800080A0A00080A0C00080A0E00080C0000080C0200080C0400080C0600080C0
310
800080C0A00080C0C00080C0E00080E0000080E0200080E0400080E0600080E0800080E0A00080E0C00080E0E000C0000000C0002000C0004000C0006000C0008000C000A000C000C000C000E000C0200000C0202000C0204000C0206000C0208000C020A000C020C000C020E000C0400000C0402000C0404000C0406000C0
310
408000C040A000C040C000C040E000C0600000C0602000C0604000C0606000C0608000C060A000C060C000C060E000C0800000C0802000C0804000C0806000C0808000C080A000C080C000C080E000C0A00000C0A02000C0A04000C0A06000C0A08000C0A0A000C0A0C000C0A0E000C0C00000C0C02000C0C04000C0C06000
310
C0C08000C0C0A000F0FBFF00A4A0A000808080000000FF0000FF000000FFFF00FF000000FF00FF00FFFF0000FFFFFF00FFFFFFFFFFFFFFFFFFFFFFFFFFFFFFFFFFFFFFFFFFFFFFFFFFFFFFFFFFFFFFFFFFFFFFFFFFFFFFFFFFFFFFFFFFFFFF0000FFFFFFFFFFFFFFFFFFFFFFFFFFFFFFFFFFFFFFFFFFFFFFFFFFFFFFFF0000
310
FF0000FFFFFFFFFFFFFFFFFFFFFFFFFFFFFFFFFFFFFFFFFFFFFFFFFFFFFF00FFFFFF0000FFFFFFFFFFFFFFFFFFFFFFFFFFFFFFFFFFFFFFFFFFFFFFFFFFFF00FFFFFFFF0000FFFFFFFFFFFFFFFFFFFFFFFFFFFFFFFFFFFFFFFFFFFFFFFF00FF00000000FF00FFFFFFFFFFFFFFFFFFFFFFFFFFFFFFFFFFFFFFFFFFFFFFFF0000
310
00FFFF00FF00FFFFFFFFFFFFFFFFFFFFFFFFFFFFFFFFFFFFFFFFFFFFFFFF0000FFFFFFFF0000FFFFFFFFFFFFFFFFFFFFFFFFFFFFFFFFFFFFFFFFFFFFFFFF0000FFFFFFFF0000FFFFFFFFFFFFFFFFFFFFFFFFFFFFFFFFFFFFFFFFFFFFFF00FF00FFFFFFFF00FF00FFFFFFFFFFFFFFFFFFFFFFFFFFFFFFFFFFFFFFFFFFFF0000
310
FFFFFFFFFF00FF00FFFFFFFFFFFFFFFFFFFFFFFFFFFFFFFFFFFFFFFFFFFF0000FFFFFFFFFFFF0000FFFFFFFFFFFFFFFFFFFFFFFFFFFFFFFFFFFFFFFFFFFF0000FFFFFFFFFFFF0000FFFFFFFFFFFFFFFFFFFFFFFFFFFFFFFFFFFFFFFFFFFF0000FFFFFFFFFFFF0000FFFFFFFFFFFFFFFFFFFFFFFFFFFFFFFFFFFFFFFFFFFF00
310
00FFFFFFFFFFFF0000FFFFFFFFFFFFFFFFFFFFFFFFFFFFFFFFFFFFFFFFFFFF0000FFFFFFFFFFFF0000FFFFFFFFFFFFFFFFFFFFFFFFFFFFFFFFFFFFFFFFFFFF0000FFFFFFFFFFFF0000FFFFFFFFFFFFFFFFFFFFFFFFFFFFFFFFFFFFFFFFFFFF0000FFFFFFFFFFFF0000FFFFFFFFFFFFFFFFFFFFFFFFFFFFFFFFFFFFFFFFFFFF
310
0000FFFFFFFFFFFF0000FFFFFFFFFFFFFFFFFFFFFFFFFFFFFFFFFFFFFFFFFFFF0000FFFFFFFFFFFF0000FFFFFFFFFFFFFFFFFFFFFFFFFFFFFFFFFFFFFFFFFFFF0000FFFFFFFFFFFF0000FFFFFFFFFFFFFFFFFFFFFFFFFFFFFFFFFFFFFFFFFFFF00FF00FFFFFFFF00FF00FFFFFFFFFFFFFFFFFFFFFFFFFFFFFFFFFFFFFFFFFF
310
FF00FF00FFFFFFFF00FF00FFFFFFFFFFFFFFFFFFFFFFFFFFFFFFFFFFFFFFFFFFFF00FF00FFFFFFFF00FF00FFFFFFFFFFFFFFFFFFFFFFFFFFFFFFFFFFFFFFFFFFFFFF0000FFFFFFFF0000FFFFFFFFFFFFFFFFFFFFFFFFFFFFFFFFFFFFFFFFFFFFFFFF00FF00FFFF00FF00FFFFFFFFFFFFFFFFFFFFFFFFFFFFFFFFFFFFFFFFFF
310
FFFFFF00FF00000000FF00FFFFFFFFFFFFFFFFFFFFFFFFFFFFFFFFFFFFFFFFFFFFFFFFFF00FFFFFFFF0000FFFFFFFFFFFFFFFFFFFFFFFFFFFFFFFFFFFFFFFFFFFFFFFFFF00FFFFFFFF00FFFFFFFFFFFFFFFFFFFFFFFFFFFFFFFFFFFFFFFFFFFFFFFFFFFFFF00000000FFFFFFFFFFFFFFFFFFFFFFFFFFFFFFFFFFFFFFFFFFFF
310
FFFFFFFFFFFFFF0000FFFFFFFFFFFFFFFFFFFFFFFFFFFFFFFFFFFFFFFFFFFFFFFFFFFFFFFFFFFFFFFFFFFFFFFFFFFFFFFFFFFFFFFFFFFFFF
102
{BLKREFS
331
248C
102
}
  0
BLOCK_RECORD
  5
245F
330
21E4
100
AcDbSymbolTableRecord
100
AcDbBlockTableRecord
  2
AI9-BLK8
340
0
310
2800000020000000200000000100080000000000000400000000000000000000000000000000000000000000000080000080000000808000800000008000800080800000C0C0C000C0DCC000F0CAA6000020400000206000002080000020A0000020C0000020E00000400000004020000040400000406000004080000040A0
310
000040C0000040E00000600000006020000060400000606000006080000060A0000060C0000060E00000800000008020000080400000806000008080000080A0000080C0000080E00000A0000000A0200000A0400000A0600000A0800000A0A00000A0C00000A0E00000C0000000C0200000C0400000C0600000C0800000C0
310
A00000C0C00000C0E00000E0000000E0200000E0400000E0600000E0800000E0A00000E0C00000E0E00040000000400020004000400040006000400080004000A0004000C0004000E00040200000402020004020400040206000402080004020A0004020C0004020E000404000004040200040404000404060004040800040
310
40A0004040C0004040E00040600000406020004060400040606000406080004060A0004060C0004060E00040800000408020004080400040806000408080004080A0004080C0004080E00040A0000040A0200040A0400040A0600040A0800040A0A00040A0C00040A0E00040C0000040C0200040C0400040C0600040C08000
310
40C0A00040C0C00040C0E00040E0000040E0200040E0400040E0600040E0800040E0A00040E0C00040E0E00080000000800020008000400080006000800080008000A0008000C0008000E00080200000802020008020400080206000802080008020A0008020C0008020E00080400000804020008040400080406000804080
310
008040A0008040C0008040E00080600000806020008060400080606000806080008060A0008060C0008060E00080800000808020008080400080806000808080008080A0008080C0008080E00080A0000080A0200080A0400080A0600080A0800080A0A00080A0C00080A0E00080C0000080C0200080C0400080C0600080C0
310
800080C0A00080C0C00080C0E00080E0000080E0200080E0400080E0600080E0800080E0A00080E0C00080E0E000C0000000C0002000C0004000C0006000C0008000C000A000C000C000C000E000C0200000C0202000C0204000C0206000C0208000C020A000C020C000C020E000C0400000C0402000C0404000C0406000C0
310
408000C040A000C040C000C040E000C0600000C0602000C0604000C0606000C0608000C060A000C060C000C060E000C0800000C0802000C0804000C0806000C0808000C080A000C080C000C080E000C0A00000C0A02000C0A04000C0A06000C0A08000C0A0A000C0A0C000C0A0E000C0C00000C0C02000C0C04000C0C06000
310
C0C08000C0C0A000F0FBFF00A4A0A000808080000000FF0000FF000000FFFF00FF000000FF00FF00FFFF0000FFFFFF00FFFFFFFFFFFFFFFFFFFFFFFFFFFFFFFFFFFFFFFFFFFFFFFFFFFFFFFFFFFFFFFFFFFFFFFFFFFFFFFFFFFFFF0000FFFFFFFFFFFF0000FFFFFFFFFFFFFFFFFFFFFFFFFFFFFFFFFFFFFFFFFFFF0000FFFF
310
FFFFFFFF0000FFFFFFFFFFFFFFFFFFFFFFFFFFFFFFFFFFFFFFFFFFFF0000FFFFFFFFFF00FF00FFFFFFFFFFFFFFFFFFFFFFFFFFFFFFFFFFFFFFFFFFFF0000FFFFFFFFFF00FF00FFFFFFFFFFFFFFFFFFFFFFFFFFFFFFFFFFFFFFFFFFFF0000FFFFFFFFFF00FF00FFFFFFFFFFFFFFFFFFFFFFFFFFFFFFFFFFFFFFFFFFFF0000FF
310
FFFFFF00FFFF00FFFFFFFFFFFFFFFFFFFFFFFFFFFFFFFFFFFFFFFFFFFF0000FFFFFFFF00FF0000FFFFFFFFFFFFFFFFFFFFFFFFFFFFFFFFFFFFFFFFFFFF0000FFFFFFFF00FF0000FFFFFFFFFFFFFFFFFFFFFFFFFFFFFFFFFFFFFFFFFFFF0000FFFFFFFF00000000FFFFFFFFFFFFFFFFFFFFFFFFFFFFFFFFFFFFFFFFFFFF0000
310
FFFFFF00FF000000FFFFFFFFFFFFFFFFFFFFFFFFFFFFFFFFFFFFFFFFFFFF0000FFFFFF00FF000000FFFFFFFFFFFFFFFFFFFFFFFFFFFFFFFFFFFFFFFFFFFF0000FFFFFF00FF000000FFFFFFFFFFFFFFFFFFFFFFFFFFFFFFFFFFFFFFFFFFFF0000FFFF00FF00FF0000FFFFFFFFFFFFFFFFFFFFFFFFFFFFFFFFFFFFFFFFFFFF00
310
00FFFF00FF00FF0000FFFFFFFFFFFFFFFFFFFFFFFFFFFFFFFFFFFFFFFFFFFF0000FFFF00FF00FF0000FFFFFFFFFFFFFFFFFFFFFFFFFFFFFFFFFFFFFFFFFFFF0000FF00FFFF00FF0000FFFFFFFFFFFFFFFFFFFFFFFFFFFFFFFFFFFFFFFFFFFF0000FF00FF00FFFF0000FFFFFFFFFFFFFFFFFFFFFFFFFFFFFFFFFFFFFFFFFFFF
310
0000FF00FF00FFFF0000FFFFFFFFFFFFFFFFFFFFFFFFFFFFFFFFFFFFFFFFFFFF0000FF00FF00FFFF0000FFFFFFFFFFFFFFFFFFFFFFFFFFFFFFFFFFFFFFFFFFFF000000FFFF00FFFF0000FFFFFFFFFFFFFFFFFFFFFFFFFFFFFFFFFFFFFFFFFFFF000000FF00FFFFFF0000FFFFFFFFFFFFFFFFFFFFFFFFFFFFFFFFFFFFFFFFFF
310
FF000000FF00FFFFFF0000FFFFFFFFFFFFFFFFFFFFFFFFFFFFFFFFFFFFFFFFFFFF0000FFFF00FFFFFF0000FFFFFFFFFFFFFFFFFFFFFFFFFFFFFFFFFFFFFFFFFFFF0000FFFF00FFFFFF0000FFFFFFFFFFFFFFFFFFFFFFFFFFFFFFFFFFFFFFFFFFFF00FFFF00FFFFFFFF0000FFFFFFFFFFFFFFFFFFFFFFFFFFFFFFFFFFFFFFFF
310
FFFF00FFFF00FFFFFFFF0000FFFFFFFFFFFFFFFFFFFFFFFFFFFFFFFFFFFFFFFFFFFF00FFFF00FFFFFFFF0000FFFFFFFFFFFFFFFFFFFFFFFFFFFFFFFFFFFFFFFFFFFF00FFFF00FFFFFFFF0000FFFFFFFFFFFFFFFFFFFFFFFFFFFFFFFFFFFFFFFFFFFF00FF00FFFFFFFFFF0000FFFFFFFFFFFFFFFFFFFFFFFFFFFFFFFFFFFFFF
310
FFFFFF000000FFFFFFFFFF0000FFFFFFFFFFFFFFFFFFFFFFFFFFFFFFFFFFFFFFFFFFFFFFFFFFFFFFFFFFFFFFFFFFFFFFFFFFFFFFFFFFFFFF
102
{BLKREFS
331
248D
102
}
  0
BLOCK_RECORD
  5
2464
330
21E4
100
AcDbSymbolTableRecord
100
AcDbBlockTableRecord
  2
AI9-BLK7
340
0
310
2800000020000000200000000100080000000000000400000000000000000000000000000000000000000000000080000080000000808000800000008000800080800000C0C0C000C0DCC000F0CAA6000020400000206000002080000020A0000020C0000020E00000400000004020000040400000406000004080000040A0
310
000040C0000040E00000600000006020000060400000606000006080000060A0000060C0000060E00000800000008020000080400000806000008080000080A0000080C0000080E00000A0000000A0200000A0400000A0600000A0800000A0A00000A0C00000A0E00000C0000000C0200000C0400000C0600000C0800000C0
310
A00000C0C00000C0E00000E0000000E0200000E0400000E0600000E0800000E0A00000E0C00000E0E00040000000400020004000400040006000400080004000A0004000C0004000E00040200000402020004020400040206000402080004020A0004020C0004020E000404000004040200040404000404060004040800040
310
40A0004040C0004040E00040600000406020004060400040606000406080004060A0004060C0004060E00040800000408020004080400040806000408080004080A0004080C0004080E00040A0000040A0200040A0400040A0600040A0800040A0A00040A0C00040A0E00040C0000040C0200040C0400040C0600040C08000
310
40C0A00040C0C00040C0E00040E0000040E0200040E0400040E0600040E0800040E0A00040E0C00040E0E00080000000800020008000400080006000800080008000A0008000C0008000E00080200000802020008020400080206000802080008020A0008020C0008020E00080400000804020008040400080406000804080
310
008040A0008040C0008040E00080600000806020008060400080606000806080008060A0008060C0008060E00080800000808020008080400080806000808080008080A0008080C0008080E00080A0000080A0200080A0400080A0600080A0800080A0A00080A0C00080A0E00080C0000080C0200080C0400080C0600080C0
310
800080C0A00080C0C00080C0E00080E0000080E0200080E0400080E0600080E0800080E0A00080E0C00080E0E000C0000000C0002000C0004000C0006000C0008000C000A000C000C000C000E000C0200000C0202000C0204000C0206000C0208000C020A000C020C000C020E000C0400000C0402000C0404000C0406000C0
310
408000C040A000C040C000C040E000C0600000C0602000C0604000C0606000C0608000C060A000C060C000C060E000C0800000C0802000C0804000C0806000C0808000C080A000C080C000C080E000C0A00000C0A02000C0A04000C0A06000C0A08000C0A0A000C0A0C000C0A0E000C0C00000C0C02000C0C04000C0C06000
310
C0C08000C0C0A000F0FBFF00A4A0A000808080000000FF0000FF000000FFFF00FF000000FF00FF00FFFF0000FFFFFF00FFFFFFFFFFFFFFFFFFFFFFFFFFFFFFFFFFFFFFFFFFFFFFFFFFFFFFFFFFFFFFFFFFFFFFFFFFFFFFFFFFFFFFFFFFFFFF0000FFFFFFFFFFFFFFFFFFFFFFFFFFFFFFFFFFFFFFFFFFFFFFFFFFFFFFFFFFFF
310
0000FFFFFFFFFFFFFFFFFFFFFFFFFFFFFFFFFFFFFFFFFFFFFFFFFFFFFFFFFFFF0000FFFFFFFFFFFFFFFFFFFFFFFFFFFFFFFFFFFFFFFFFFFFFFFFFFFFFFFFFFFF0000FFFFFFFFFFFFFFFFFFFFFFFFFFFFFFFFFFFFFFFFFFFFFFFFFFFFFFFFFFFF0000FFFFFFFFFFFFFFFFFFFFFFFFFFFFFFFFFFFFFFFFFFFFFFFFFFFFFFFFFF
310
FF0000FFFFFFFFFFFFFFFFFFFFFFFFFFFFFFFFFFFFFFFFFFFFFFFFFFFFFFFFFFFF0000FFFFFFFFFFFFFFFFFFFFFFFFFFFFFFFFFFFFFFFFFFFFFFFFFFFFFFFFFFFF0000FFFFFFFFFFFFFFFFFFFFFFFFFFFFFFFFFFFFFFFFFFFFFFFFFFFFFFFFFFFF0000FFFFFFFFFFFFFFFFFFFFFFFFFFFFFFFFFFFFFFFFFFFFFFFFFFFFFFFF
310
FFFF0000FFFFFFFFFFFFFFFFFFFFFFFFFFFFFFFFFFFFFFFFFFFFFFFFFFFFFFFFFFFF0000FFFFFFFFFFFFFFFFFFFFFFFFFFFFFFFFFFFFFFFFFFFFFFFFFFFFFFFFFFFF0000FFFFFFFFFFFFFFFFFFFFFFFFFFFFFFFFFFFFFFFFFFFFFFFFFFFFFFFFFFFF0000FFFFFFFFFFFFFFFFFFFFFFFFFFFFFFFFFFFFFFFFFFFFFFFFFFFFFF
310
FFFFFF0000FFFFFFFFFFFFFFFFFFFFFFFFFFFFFFFFFFFFFFFFFFFFFFFFFFFFFFFFFFFF0000FFFFFFFFFFFFFFFFFFFFFFFFFFFFFFFFFFFFFFFFFFFFFFFFFFFFFFFFFFFF0000FFFFFFFFFFFFFFFFFFFFFFFFFFFFFFFFFFFFFFFFFFFFFFFFFFFFFFFFFFFF0000FFFFFFFFFFFFFFFFFFFFFFFFFFFFFFFFFFFFFFFFFFFFFFFFFFFF
310
FFFFFFFF0000FFFFFFFFFFFFFFFFFFFFFFFFFFFFFFFFFFFFFFFFFFFFFFFFFFFFFFFFFFFF0000FFFFFFFFFFFFFFFFFFFFFFFFFFFFFFFFFFFFFFFFFFFFFFFFFFFFFFFFFFFF0000FFFFFFFFFFFFFFFFFFFFFFFFFFFFFFFFFFFFFFFFFFFFFFFFFFFFFFFFFFFF0000FFFFFFFFFFFFFFFFFFFFFFFFFFFFFFFFFFFFFFFFFFFFFFFFFF
310
FFFFFFFFFF0000FFFFFFFFFFFFFFFFFFFFFFFFFFFFFFFFFFFFFFFFFFFFFFFFFFFFFFFFFFFF0000FFFFFFFFFFFFFFFFFFFFFFFFFFFFFFFFFFFFFFFFFFFFFFFFFFFFFFFFFFFF0000FFFFFFFFFFFFFFFFFFFFFFFFFFFFFFFFFFFFFFFFFFFFFFFFFFFFFFFFFFFF0000FFFFFFFFFFFFFFFFFFFFFFFFFFFFFFFFFFFFFFFFFFFFFFFF
310
FFFFFFFFFFFF0000FFFFFFFFFFFFFFFFFFFFFFFFFFFFFFFFFFFFFFFFFFFFFFFFFFFFFFFFFFFF0000FFFFFFFFFFFFFFFFFFFFFFFFFFFFFFFFFFFFFFFFFFFFFFFFFFFFFFFFFFFF0000FFFFFFFFFFFFFFFFFFFFFFFFFFFFFFFFFFFFFFFFFFFFFFFFFFFFFFFFFFFF0000FFFFFFFFFFFFFFFFFFFFFFFFFFFFFFFFFFFFFFFFFFFFFF
310
FFFFFFFFFFFFFF0000FFFFFFFFFFFFFFFFFFFFFFFFFFFFFFFFFFFFFFFFFFFFFFFFFFFFFFFFFFFFFFFFFFFFFFFFFFFFFFFFFFFFFFFFFFFFFF
102
{BLKREFS
331
248E
102
}
  0
BLOCK_RECORD
  5
2469
330
21E4
100
AcDbSymbolTableRecord
100
AcDbBlockTableRecord
  2
AI9-BLK6
340
0
310
2800000020000000200000000100080000000000000400000000000000000000000000000000000000000000000080000080000000808000800000008000800080800000C0C0C000C0DCC000F0CAA6000020400000206000002080000020A0000020C0000020E00000400000004020000040400000406000004080000040A0
310
000040C0000040E00000600000006020000060400000606000006080000060A0000060C0000060E00000800000008020000080400000806000008080000080A0000080C0000080E00000A0000000A0200000A0400000A0600000A0800000A0A00000A0C00000A0E00000C0000000C0200000C0400000C0600000C0800000C0
310
A00000C0C00000C0E00000E0000000E0200000E0400000E0600000E0800000E0A00000E0C00000E0E00040000000400020004000400040006000400080004000A0004000C0004000E00040200000402020004020400040206000402080004020A0004020C0004020E000404000004040200040404000404060004040800040
310
40A0004040C0004040E00040600000406020004060400040606000406080004060A0004060C0004060E00040800000408020004080400040806000408080004080A0004080C0004080E00040A0000040A0200040A0400040A0600040A0800040A0A00040A0C00040A0E00040C0000040C0200040C0400040C0600040C08000
310
40C0A00040C0C00040C0E00040E0000040E0200040E0400040E0600040E0800040E0A00040E0C00040E0E00080000000800020008000400080006000800080008000A0008000C0008000E00080200000802020008020400080206000802080008020A0008020C0008020E00080400000804020008040400080406000804080
310
008040A0008040C0008040E00080600000806020008060400080606000806080008060A0008060C0008060E00080800000808020008080400080806000808080008080A0008080C0008080E00080A0000080A0200080A0400080A0600080A0800080A0A00080A0C00080A0E00080C0000080C0200080C0400080C0600080C0
310
800080C0A00080C0C00080C0E00080E0000080E0200080E0400080E0600080E0800080E0A00080E0C00080E0E000C0000000C0002000C0004000C0006000C0008000C000A000C000C000C000E000C0200000C0202000C0204000C0206000C0208000C020A000C020C000C020E000C0400000C0402000C0404000C0406000C0
310
408000C040A000C040C000C040E000C0600000C0602000C0604000C0606000C0608000C060A000C060C000C060E000C0800000C0802000C0804000C0806000C0808000C080A000C080C000C080E000C0A00000C0A02000C0A04000C0A06000C0A08000C0A0A000C0A0C000C0A0E000C0C00000C0C02000C0C04000C0C06000
310
C0C08000C0C0A000F0FBFF00A4A0A000808080000000FF0000FF000000FFFF00FF000000FF00FF00FFFF0000FFFFFF00FFFFFFFFFFFFFFFFFFFFFFFF00FFFFFFFFFFFFFF00FFFFFFFFFFFFFFFFFFFFFFFFFFFFFFFFFFFFFFFFFFFFFF00FFFFFFFFFFFFFF00FFFFFFFFFFFFFFFFFFFFFFFFFFFFFFFFFFFFFFFFFFFFFF00FFFF
310
FFFFFFFFFF00FFFFFFFFFFFFFFFFFFFFFFFFFFFFFFFFFFFFFFFFFFFF00FFFFFFFFFFFFFFFF00FFFFFFFFFFFFFFFFFFFFFFFFFFFFFFFFFFFFFFFFFFFF00FFFFFFFFFFFFFF00FFFFFFFFFFFFFFFFFFFFFFFFFFFFFFFFFFFFFFFFFFFFFF00FFFFFFFFFFFFFF00FFFFFFFFFFFFFFFFFFFFFFFFFFFFFFFFFFFFFFFFFFFF00FFFFFF
310
FFFFFFFFFF00FFFFFFFFFFFFFFFFFFFFFFFFFFFFFFFFFFFFFFFFFFFF00FFFFFFFFFFFFFF00FFFFFFFFFFFFFFFFFFFFFFFFFFFFFFFFFFFFFFFFFFFF00FFFFFFFFFFFFFFFF00FFFFFFFFFFFFFFFFFFFFFFFFFFFFFFFFFFFFFFFFFF00FFFFFFFFFFFFFFFFFF00FFFFFFFFFFFFFFFFFFFFFFFFFFFFFFFFFFFFFFFF00FFFFFFFFFF
310
FFFFFFFFFF00FFFFFFFFFFFFFFFFFFFFFFFFFFFFFFFFFFFFFF00FFFFFFFFFFFFFFFFFFFF00FFFFFFFFFFFFFFFFFFFFFFFFFFFFFFFFFFFF0000FFFFFFFFFFFFFFFFFFFFFF00FFFFFFFFFFFFFFFFFFFFFFFFFFFF00000000FFFFFFFFFFFFFFFFFFFFFFFFFF00FFFFFFFFFFFFFFFFFFFFFFFFFFFFFFFFFFFFFFFFFFFFFFFFFFFF
310
FFFFFFFF00FFFFFFFFFFFFFFFFFFFFFFFFFFFFFFFFFFFFFFFFFFFFFFFFFFFFFFFFFFFFFF00FFFFFFFFFFFFFFFFFFFFFFFFFFFFFFFFFFFFFFFFFFFFFFFFFFFFFFFFFFFFFF00FFFFFFFFFFFFFFFFFFFFFFFFFFFFFFFFFFFFFFFFFFFFFFFFFFFFFFFFFFFF00FFFFFFFFFFFFFFFFFFFFFFFFFFFFFFFFFFFFFFFFFFFFFFFFFFFFFF
310
FFFFFFFF00FFFFFFFFFFFFFFFFFFFFFFFFFFFFFFFFFFFFFFFFFFFFFFFFFFFFFFFFFFFF00FFFFFFFFFFFFFFFFFFFFFFFFFFFFFFFFFFFFFFFFFFFFFFFFFFFFFFFFFFFF00FFFFFFFFFFFFFFFFFFFFFFFFFFFFFFFFFFFFFFFFFFFFFFFFFFFFFFFFFFFF00FFFFFFFFFFFFFFFFFFFFFFFFFFFFFFFFFFFFFFFFFFFFFFFFFFFFFFFFFF
310
FF00FFFFFFFFFFFFFFFFFFFFFFFFFFFFFFFFFFFFFFFFFFFFFFFFFFFFFFFFFFFFFF00FFFFFFFFFFFFFFFFFFFFFFFFFFFFFFFFFFFFFFFFFFFFFFFFFFFFFFFFFFFF00FFFFFFFFFFFFFFFFFFFFFFFFFFFFFFFFFFFFFFFFFFFFFFFFFFFFFFFFFF0000FFFFFFFFFFFFFFFFFFFFFFFFFFFFFFFFFFFFFFFFFFFFFFFFFFFFFFFF0000FF
310
FFFFFFFFFFFFFFFFFFFFFFFFFFFFFFFFFFFFFFFFFFFFFFFFFF00000000FFFFFFFFFFFFFFFFFFFFFFFFFFFFFFFFFFFFFFFFFFFFFFFFFFFF0000FFFFFFFFFFFFFFFFFFFFFFFFFFFFFFFFFFFFFFFFFFFFFFFFFFFFFFFFFFFFFFFFFFFFFFFFFFFFFFFFFFFFFFFFFFFFFFFFFFFFFFFFFFFFFFFFFFFFFFFFFFFFFFFFFFFFFFFFFFFF
310
FFFFFFFFFFFFFFFFFFFFFFFFFFFFFFFFFFFFFFFFFFFFFFFFFFFFFFFFFFFFFFFFFFFFFFFFFFFFFFFFFFFFFFFFFFFFFFFFFFFFFFFFFFFFFFFF
102
{BLKREFS
331
248F
102
}
  0
BLOCK_RECORD
  5
246D
330
21E4
100
AcDbSymbolTableRecord
100
AcDbBlockTableRecord
  2
AI9-BLK5
340
0
310
2800000020000000200000000100080000000000000400000000000000000000000000000000000000000000000080000080000000808000800000008000800080800000C0C0C000C0DCC000F0CAA6000020400000206000002080000020A0000020C0000020E00000400000004020000040400000406000004080000040A0
310
000040C0000040E00000600000006020000060400000606000006080000060A0000060C0000060E00000800000008020000080400000806000008080000080A0000080C0000080E00000A0000000A0200000A0400000A0600000A0800000A0A00000A0C00000A0E00000C0000000C0200000C0400000C0600000C0800000C0
310
A00000C0C00000C0E00000E0000000E0200000E0400000E0600000E0800000E0A00000E0C00000E0E00040000000400020004000400040006000400080004000A0004000C0004000E00040200000402020004020400040206000402080004020A0004020C0004020E000404000004040200040404000404060004040800040
310
40A0004040C0004040E00040600000406020004060400040606000406080004060A0004060C0004060E00040800000408020004080400040806000408080004080A0004080C0004080E00040A0000040A0200040A0400040A0600040A0800040A0A00040A0C00040A0E00040C0000040C0200040C0400040C0600040C08000
310
40C0A00040C0C00040C0E00040E0000040E0200040E0400040E0600040E0800040E0A00040E0C00040E0E00080000000800020008000400080006000800080008000A0008000C0008000E00080200000802020008020400080206000802080008020A0008020C0008020E00080400000804020008040400080406000804080
310
008040A0008040C0008040E00080600000806020008060400080606000806080008060A0008060C0008060E00080800000808020008080400080806000808080008080A0008080C0008080E00080A0000080A0200080A0400080A0600080A0800080A0A00080A0C00080A0E00080C0000080C0200080C0400080C0600080C0
310
800080C0A00080C0C00080C0E00080E0000080E0200080E0400080E0600080E0800080E0A00080E0C00080E0E000C0000000C0002000C0004000C0006000C0008000C000A000C000C000C000E000C0200000C0202000C0204000C0206000C0208000C020A000C020C000C020E000C0400000C0402000C0404000C0406000C0
310
408000C040A000C040C000C040E000C0600000C0602000C0604000C0606000C0608000C060A000C060C000C060E000C0800000C0802000C0804000C0806000C0808000C080A000C080C000C080E000C0A00000C0A02000C0A04000C0A06000C0A08000C0A0A000C0A0C000C0A0E000C0C00000C0C02000C0C04000C0C06000
310
C0C08000C0C0A000F0FBFF00A4A0A000808080000000FF0000FF000000FFFF00FF000000FF00FF00FFFF0000FFFFFF00FFFFFFFFFFFFFFFFFFFFFFFFFFFFFFFFFFFFFFFFFFFFFFFFFFFFFFFFFFFFFFFFFFFFFFFFFFFFFFFF000000000000000000000000000000000000000000000000FFFFFFFFFFFFFFFF00FFFFFFFFFFFF
310
FFFFFFFFFFFFFFFFFFFFFFFFFFFFFFFFFFFFFFFFFFFFFFFFFF00FFFFFFFFFFFFFFFFFFFFFFFFFFFFFFFFFFFFFFFFFFFFFFFFFFFFFFFFFFFFFF00FFFFFFFFFFFFFFFFFFFFFFFFFFFFFFFFFFFFFFFFFFFFFFFFFFFFFFFFFFFFFF00FFFFFFFFFFFFFFFFFFFFFFFFFFFFFFFFFFFFFFFFFFFFFFFFFFFFFFFFFFFFFF00FFFFFFFFFF
310
FFFFFFFFFFFFFFFFFFFFFFFFFFFFFFFFFFFFFFFFFFFFFFFFFFFF00FFFFFFFFFFFFFFFFFFFFFFFFFFFFFFFFFFFFFFFFFFFFFFFFFFFFFFFFFFFFFF00FFFFFFFFFFFFFFFFFFFFFFFFFFFFFFFFFFFFFFFFFFFFFFFFFFFFFFFFFFFFFF00FFFFFFFFFFFFFFFFFFFFFFFFFFFFFFFFFFFFFFFFFFFFFFFFFFFFFFFFFFFFFF00FFFFFFFF
310
FFFFFFFFFFFFFFFFFFFFFFFFFFFFFFFFFFFFFFFFFFFFFFFFFFFFFF00FFFFFFFFFFFFFFFFFFFFFFFFFFFFFFFFFFFFFFFFFFFFFFFFFFFFFFFFFFFFFF00FFFFFFFFFFFFFFFFFFFFFFFFFFFFFFFFFFFFFFFFFFFFFFFFFFFFFFFFFFFFFF00FFFFFFFFFFFFFFFFFFFFFFFFFFFFFFFFFFFFFFFFFFFFFFFFFFFFFFFFFFFFFF00FFFFFF
310
FFFFFFFFFFFFFFFFFFFFFFFFFFFFFFFFFFFFFFFFFFFFFFFFFFFFFFFF00FFFFFFFFFFFFFFFFFFFFFFFFFFFFFFFFFFFFFFFFFFFFFFFFFFFFFFFFFFFFFF00FFFFFFFFFFFFFFFFFFFFFFFFFFFFFFFFFFFFFFFFFFFFFFFFFFFFFFFFFFFFFF00FFFFFFFFFFFFFFFFFFFFFFFFFFFFFFFFFFFFFFFFFFFFFFFFFFFFFFFFFFFFFF00FFFF
310
FFFFFFFFFFFFFFFFFFFFFFFFFFFFFFFFFFFFFFFFFFFFFFFFFFFFFFFFFF00FFFFFFFFFFFFFFFFFFFFFFFFFFFFFFFFFFFFFFFFFFFFFFFFFFFFFFFFFFFFFF00FFFFFFFFFFFFFFFFFFFFFFFFFFFFFFFFFFFFFFFFFFFFFFFFFFFFFFFFFFFFFF00FFFFFFFFFFFFFFFFFFFFFFFFFFFFFFFFFFFFFFFFFFFFFFFFFFFFFFFFFFFFFF00FF
310
FFFFFFFFFFFFFFFFFFFFFFFFFFFFFFFFFFFFFFFFFFFFFFFFFFFFFFFFFFFF00FFFFFFFFFFFFFFFFFFFFFFFFFFFFFFFFFFFFFFFFFFFFFFFFFFFFFFFFFFFFFF00FFFFFFFFFFFFFFFFFFFFFFFFFFFFFFFFFFFFFFFFFFFFFFFFFFFFFFFFFFFFFF00FFFFFFFFFFFFFFFFFFFFFFFFFFFFFFFFFFFFFFFFFFFFFFFFFFFFFFFFFFFFFF00
310
FFFFFFFFFFFFFFFFFFFFFFFFFFFFFFFFFFFFFFFFFFFFFFFFFFFFFFFFFFFFFF00FFFFFFFFFFFFFFFFFFFFFFFFFFFFFFFFFFFFFFFFFFFFFFFFFFFFFFFFFFFFFF00FFFFFFFFFFFFFFFFFFFFFFFFFFFFFFFFFFFFFFFFFFFFFFFFFFFFFFFFFFFFFF00FFFFFFFFFFFFFFFFFFFFFFFFFFFFFFFFFFFFFFFFFFFFFFFFFFFFFFFFFFFFFF
310
00FFFFFFFFFFFFFFFFFFFFFFFFFFFF000000000000000000FFFFFFFFFFFFFFFF00FFFFFFFFFFFFFFFFFFFFFFFFFFFF00FFFFFFFFFFFFFFFF
102
{BLKREFS
331
2490
102
}
  0
BLOCK_RECORD
  5
2472
330
21E4
100
AcDbSymbolTableRecord
100
AcDbBlockTableRecord
  2
AI9-BLK4
340
0
310
2800000020000000200000000100080000000000000400000000000000000000000000000000000000000000000080000080000000808000800000008000800080800000C0C0C000C0DCC000F0CAA6000020400000206000002080000020A0000020C0000020E00000400000004020000040400000406000004080000040A0
310
000040C0000040E00000600000006020000060400000606000006080000060A0000060C0000060E00000800000008020000080400000806000008080000080A0000080C0000080E00000A0000000A0200000A0400000A0600000A0800000A0A00000A0C00000A0E00000C0000000C0200000C0400000C0600000C0800000C0
310
A00000C0C00000C0E00000E0000000E0200000E0400000E0600000E0800000E0A00000E0C00000E0E00040000000400020004000400040006000400080004000A0004000C0004000E00040200000402020004020400040206000402080004020A0004020C0004020E000404000004040200040404000404060004040800040
310
40A0004040C0004040E00040600000406020004060400040606000406080004060A0004060C0004060E00040800000408020004080400040806000408080004080A0004080C0004080E00040A0000040A0200040A0400040A0600040A0800040A0A00040A0C00040A0E00040C0000040C0200040C0400040C0600040C08000
310
40C0A00040C0C00040C0E00040E0000040E0200040E0400040E0600040E0800040E0A00040E0C00040E0E00080000000800020008000400080006000800080008000A0008000C0008000E00080200000802020008020400080206000802080008020A0008020C0008020E00080400000804020008040400080406000804080
310
008040A0008040C0008040E00080600000806020008060400080606000806080008060A0008060C0008060E00080800000808020008080400080806000808080008080A0008080C0008080E00080A0000080A0200080A0400080A0600080A0800080A0A00080A0C00080A0E00080C0000080C0200080C0400080C0600080C0
310
800080C0A00080C0C00080C0E00080E0000080E0200080E0400080E0600080E0800080E0A00080E0C00080E0E000C0000000C0002000C0004000C0006000C0008000C000A000C000C000C000E000C0200000C0202000C0204000C0206000C0208000C020A000C020C000C020E000C0400000C0402000C0404000C0406000C0
310
408000C040A000C040C000C040E000C0600000C0602000C0604000C0606000C0608000C060A000C060C000C060E000C0800000C0802000C0804000C0806000C0808000C080A000C080C000C080E000C0A00000C0A02000C0A04000C0A06000C0A08000C0A0A000C0A0C000C0A0E000C0C00000C0C02000C0C04000C0C06000
310
C0C08000C0C0A000F0FBFF00A4A0A000808080000000FF0000FF000000FFFF00FF000000FF00FF00FFFF0000FFFFFF00FFFFFFFFFFFFFFFFFFFFFFFFFFFFFFFFFFFFFFFFFFFFFFFFFFFFFFFFFFFFFFFFFFFFFFFFFFFFFFFFFFFFFFFFFFFF00000000FFFFFFFFFFFFFFFFFFFFFF000000FFFFFFFFFFFFFFFFFFFFFFFFFFFF00
310
FFFF00FFFFFFFFFFFFFFFFFFFFFF00FFFFFFFFFFFFFFFFFFFFFFFFFFFFFFFF00FFFF00FFFFFFFFFFFFFFFFFFFFFF00FFFFFFFFFFFFFFFFFFFFFFFFFFFFFFFF00FFFF00FFFFFFFFFFFFFFFFFFFFFF00FFFFFFFFFFFFFFFFFFFFFFFFFFFFFFFF00FFFF00FFFFFFFFFFFFFFFFFFFFFF00FFFFFFFFFFFFFFFFFFFFFFFFFFFFFFFF
310
00FFFF00FFFFFFFFFFFFFFFFFFFFFF00FFFFFFFFFFFFFFFFFFFFFFFFFFFFFFFF00FFFF00FFFFFFFFFFFFFFFFFFFFFF00FFFFFFFFFFFFFFFFFFFFFFFFFFFFFFFF00FFFF00FFFFFFFFFFFFFFFFFFFFFF00FFFFFFFFFFFFFFFFFFFFFFFFFFFFFFFF00FFFF00FFFFFFFFFFFFFFFFFFFFFF00FFFFFFFFFFFFFFFFFFFFFFFFFFFFFF
310
FF00FFFF00FFFFFFFFFFFFFFFFFFFFFF00FFFFFFFFFFFFFFFFFFFFFFFFFFFFFFFF00FFFF00FFFFFFFFFFFFFFFFFFFFFF00FFFFFFFFFFFFFFFFFFFFFFFFFFFFFFFF00FFFF00FFFFFFFFFFFFFFFFFFFFFF00FFFFFFFFFFFFFFFFFFFFFFFFFFFFFFFF00FFFF00FFFFFFFFFFFFFFFFFFFFFF00FFFFFFFFFFFFFFFFFFFFFFFFFFFF
310
FFFF00FFFF00FFFFFFFFFFFFFFFFFFFFFF00FFFFFFFFFFFFFFFFFFFFFFFFFFFFFFFF00FFFF00FFFFFFFFFFFFFFFFFFFFFF00FFFFFFFFFFFFFFFFFFFFFFFFFFFFFFFF00FFFF00FFFFFFFFFFFFFFFFFFFFFF00FFFFFFFFFFFFFFFFFFFFFFFFFFFFFFFF00FFFF00FFFFFFFFFFFFFFFFFFFF00FFFFFFFFFFFFFFFFFFFFFFFFFFFF
310
FFFFFF00FFFF00FFFFFFFFFFFFFFFFFFFF00FFFFFFFFFFFFFFFFFFFFFFFFFFFFFFFFFF00FFFF00FFFFFFFFFFFFFFFFFFFF00FFFFFFFFFFFFFFFFFFFFFFFFFFFFFFFFFF00FFFF00FFFFFFFFFFFFFFFFFFFF00FFFFFFFFFFFFFFFFFFFFFFFFFFFFFFFFFF00FFFF00FFFFFFFFFFFFFFFFFFFF00FFFFFFFFFFFFFFFFFFFFFFFFFF
310
FFFFFFFF00FFFF00FFFFFFFFFFFFFFFFFF0000FFFF00FFFFFFFFFFFFFFFFFFFFFFFFFFFF00FFFF00FFFFFFFFFFFFFFFF0000FFFFFF00FFFFFFFFFFFFFFFFFFFFFFFFFFFF00FFFF00000000000000000000FFFFFFFF00FFFFFFFFFFFFFFFFFFFFFFFFFFFF00FFFFFFFFFFFFFFFFFFFFFFFFFFFFFF00FFFFFFFFFFFFFFFFFFFF
310
FFFFFFFFFF00FFFFFFFFFFFFFFFFFFFFFFFFFFFF00FFFFFFFFFFFFFFFFFFFFFFFFFFFFFFFF00FFFFFFFFFFFFFFFFFFFFFFFFFFFF00FFFFFFFFFFFFFFFFFFFFFFFFFFFFFFFF00FFFFFFFFFFFFFFFFFFFFFFFFFFFFFF00FFFFFFFFFFFFFFFFFFFFFFFFFFFFFF00FFFFFFFFFFFFFFFFFFFFFFFFFFFFFF00FFFFFFFFFFFFFFFFFF
310
FFFFFFFFFFFF00FFFF00000000000000000000FFFFFFFF00FFFFFFFFFFFFFFFFFFFFFFFFFFFF00FFFF00FFFFFFFFFFFFFFFFFF0000FFFF00
102
{BLKREFS
331
2491
102
}
  0
BLOCK_RECORD
  5
2477
330
21E4
100
AcDbSymbolTableRecord
100
AcDbBlockTableRecord
  2
AI9-BLK3
340
0
310
2800000020000000200000000100080000000000000400000000000000000000000000000000000000000000000080000080000000808000800000008000800080800000C0C0C000C0DCC000F0CAA6000020400000206000002080000020A0000020C0000020E00000400000004020000040400000406000004080000040A0
310
000040C0000040E00000600000006020000060400000606000006080000060A0000060C0000060E00000800000008020000080400000806000008080000080A0000080C0000080E00000A0000000A0200000A0400000A0600000A0800000A0A00000A0C00000A0E00000C0000000C0200000C0400000C0600000C0800000C0
310
A00000C0C00000C0E00000E0000000E0200000E0400000E0600000E0800000E0A00000E0C00000E0E00040000000400020004000400040006000400080004000A0004000C0004000E00040200000402020004020400040206000402080004020A0004020C0004020E000404000004040200040404000404060004040800040
310
40A0004040C0004040E00040600000406020004060400040606000406080004060A0004060C0004060E00040800000408020004080400040806000408080004080A0004080C0004080E00040A0000040A0200040A0400040A0600040A0800040A0A00040A0C00040A0E00040C0000040C0200040C0400040C0600040C08000
310
40C0A00040C0C00040C0E00040E0000040E0200040E0400040E0600040E0800040E0A00040E0C00040E0E00080000000800020008000400080006000800080008000A0008000C0008000E00080200000802020008020400080206000802080008020A0008020C0008020E00080400000804020008040400080406000804080
310
008040A0008040C0008040E00080600000806020008060400080606000806080008060A0008060C0008060E00080800000808020008080400080806000808080008080A0008080C0008080E00080A0000080A0200080A0400080A0600080A0800080A0A00080A0C00080A0E00080C0000080C0200080C0400080C0600080C0
310
800080C0A00080C0C00080C0E00080E0000080E0200080E0400080E0600080E0800080E0A00080E0C00080E0E000C0000000C0002000C0004000C0006000C0008000C000A000C000C000C000E000C0200000C0202000C0204000C0206000C0208000C020A000C020C000C020E000C0400000C0402000C0404000C0406000C0
310
408000C040A000C040C000C040E000C0600000C0602000C0604000C0606000C0608000C060A000C060C000C060E000C0800000C0802000C0804000C0806000C0808000C080A000C080C000C080E000C0A00000C0A02000C0A04000C0A06000C0A08000C0A0A000C0A0C000C0A0E000C0C00000C0C02000C0C04000C0C06000
310
C0C08000C0C0A000F0FBFF00A4A0A000808080000000FF0000FF000000FFFF00FF000000FF00FF00FFFF0000FFFFFF00FFFFFFFFFFFFFFFFFFFFFFFFFFFFFFFFFFFFFFFFFFFFFFFFFFFFFFFFFFFFFFFFFFFFFFFFFFFFFFFFFFFFFFFFFFFFFF0000FFFFFFFFFFFFFFFFFFFFFFFFFFFFFFFFFFFFFFFFFFFFFFFFFFFFFFFFFFFF
310
0000FFFFFFFFFFFFFFFFFFFFFFFFFFFFFFFFFFFFFFFFFFFFFFFFFFFFFFFFFFFF0000FFFFFFFFFFFFFFFFFFFFFFFFFFFFFFFFFFFFFFFFFFFFFFFFFFFFFFFFFFFF0000FFFFFFFFFFFFFFFFFFFFFFFFFFFFFFFFFFFFFFFFFFFFFFFFFFFFFFFFFFFF0000FFFFFFFFFFFFFFFFFFFFFFFFFFFFFFFFFFFFFFFFFFFFFFFFFFFFFFFFFF
310
FF0000FFFFFFFFFFFFFFFFFFFFFFFFFFFFFFFFFFFFFFFFFFFFFFFFFFFFFFFFFFFF0000FFFFFFFFFFFFFFFFFFFFFFFFFFFFFFFFFFFFFFFFFFFFFFFFFFFFFFFFFFFF0000FFFFFFFFFFFFFFFFFFFFFFFFFFFFFFFFFFFFFFFFFFFFFFFFFFFFFFFFFFFF0000FFFFFFFFFFFFFFFFFFFFFFFFFFFFFFFFFFFFFFFFFFFFFFFFFFFFFFFF
310
FFFF0000FFFFFFFFFFFFFFFFFFFFFFFFFFFFFFFFFFFFFFFFFFFFFFFFFFFFFFFFFFFF0000FFFFFFFFFFFFFFFFFFFFFFFFFFFFFFFFFFFFFFFFFFFFFFFFFFFFFFFFFFFF0000FFFFFFFFFFFFFFFFFFFFFFFFFFFFFFFFFFFFFFFFFFFFFFFFFFFFFFFFFFFF0000FFFFFFFFFFFFFFFFFFFFFFFFFFFFFFFFFFFFFFFFFFFFFFFFFFFFFF
310
FFFFFF0000FFFFFFFFFFFFFFFFFFFFFFFFFFFFFFFFFFFFFFFFFFFFFFFFFFFFFFFFFFFF0000FFFFFFFFFFFFFFFFFFFFFFFFFFFFFFFFFFFFFFFFFFFFFFFFFFFFFFFFFFFF0000FFFFFFFFFFFFFFFFFFFFFFFFFFFFFFFFFFFFFFFFFFFFFFFFFFFFFFFFFFFF0000FFFFFFFFFFFFFFFFFFFFFFFFFFFFFFFFFFFFFFFFFFFFFFFFFFFF
310
FFFFFFFF0000FFFFFFFFFFFFFFFFFFFFFFFFFFFFFFFFFFFFFFFFFFFFFFFFFFFFFFFFFFFF0000FFFFFFFFFFFFFFFFFFFFFFFFFFFFFFFFFFFFFFFFFFFFFFFFFFFFFFFFFFFF0000FFFFFFFFFFFFFFFFFFFFFFFFFFFFFFFFFFFFFFFFFFFFFFFFFFFFFFFFFFFF0000FFFFFFFFFFFFFFFFFFFFFFFFFFFFFFFFFFFFFFFFFFFFFFFFFF
310
FFFFFFFFFF0000FFFFFFFFFFFFFFFFFFFFFFFFFFFFFFFFFFFFFFFFFFFFFFFFFFFFFFFFFFFF0000FFFFFFFFFFFFFFFFFFFFFFFFFFFFFFFFFFFFFFFFFFFFFFFFFFFFFFFFFFFF0000FFFFFFFFFFFFFFFFFFFFFFFFFFFFFFFFFFFFFFFFFFFFFFFFFFFFFFFFFFFF0000FFFFFFFFFFFFFFFFFFFFFFFFFFFFFFFFFFFFFFFFFFFFFFFF
310
FFFFFFFFFFFF0000FFFFFFFFFFFFFFFFFFFFFFFFFFFFFFFFFFFFFFFFFFFFFFFFFFFFFFFFFFFF0000FFFFFFFFFFFFFFFFFFFFFFFFFFFFFFFFFFFFFFFFFFFFFFFFFFFFFFFFFFFF0000FFFFFFFFFFFFFFFFFFFFFFFFFFFFFFFFFFFFFFFFFFFFFFFFFFFFFFFFFFFF0000FFFFFFFFFFFFFFFFFFFFFFFFFFFFFFFFFFFFFFFFFFFFFF
310
FFFFFFFFFFFFFF0000FFFFFFFFFFFFFFFFFFFFFFFFFFFFFFFFFFFFFFFFFFFFFFFFFFFFFFFFFFFFFFFFFFFFFFFFFFFFFFFFFFFFFFFFFFFFFF
102
{BLKREFS
331
2492
102
}
  0
BLOCK_RECORD
  5
247C
330
21E4
100
AcDbSymbolTableRecord
100
AcDbBlockTableRecord
  2
AI9-BLK2
340
0
310
2800000020000000200000000100080000000000000400000000000000000000000000000000000000000000000080000080000000808000800000008000800080800000C0C0C000C0DCC000F0CAA6000020400000206000002080000020A0000020C0000020E00000400000004020000040400000406000004080000040A0
310
000040C0000040E00000600000006020000060400000606000006080000060A0000060C0000060E00000800000008020000080400000806000008080000080A0000080C0000080E00000A0000000A0200000A0400000A0600000A0800000A0A00000A0C00000A0E00000C0000000C0200000C0400000C0600000C0800000C0
310
A00000C0C00000C0E00000E0000000E0200000E0400000E0600000E0800000E0A00000E0C00000E0E00040000000400020004000400040006000400080004000A0004000C0004000E00040200000402020004020400040206000402080004020A0004020C0004020E000404000004040200040404000404060004040800040
310
40A0004040C0004040E00040600000406020004060400040606000406080004060A0004060C0004060E00040800000408020004080400040806000408080004080A0004080C0004080E00040A0000040A0200040A0400040A0600040A0800040A0A00040A0C00040A0E00040C0000040C0200040C0400040C0600040C08000
310
40C0A00040C0C00040C0E00040E0000040E0200040E0400040E0600040E0800040E0A00040E0C00040E0E00080000000800020008000400080006000800080008000A0008000C0008000E00080200000802020008020400080206000802080008020A0008020C0008020E00080400000804020008040400080406000804080
310
008040A0008040C0008040E00080600000806020008060400080606000806080008060A0008060C0008060E00080800000808020008080400080806000808080008080A0008080C0008080E00080A0000080A0200080A0400080A0600080A0800080A0A00080A0C00080A0E00080C0000080C0200080C0400080C0600080C0
310
800080C0A00080C0C00080C0E00080E0000080E0200080E0400080E0600080E0800080E0A00080E0C00080E0E000C0000000C0002000C0004000C0006000C0008000C000A000C000C000C000E000C0200000C0202000C0204000C0206000C0208000C020A000C020C000C020E000C0400000C0402000C0404000C0406000C0
310
408000C040A000C040C000C040E000C0600000C0602000C0604000C0606000C0608000C060A000C060C000C060E000C0800000C0802000C0804000C0806000C0808000C080A000C080C000C080E000C0A00000C0A02000C0A04000C0A06000C0A08000C0A0A000C0A0C000C0A0E000C0C00000C0C02000C0C04000C0C06000
310
C0C08000C0C0A000F0FBFF00A4A0A000808080000000FF0000FF000000FFFF00FF000000FF00FF00FFFF0000FFFFFF00FFFFFFFFFFFFFFFFFFFFFFFFFFFFFFFFFFFFFFFFFFFFFFFFFFFFFFFFFFFFFFFFFFFFFFFFFFFFFFFFFFFFFFFFFFFFFF0000FFFFFFFFFFFFFFFFFFFFFFFFFFFFFFFFFFFFFFFFFFFFFFFFFFFFFFFFFFFF
310
0000FFFFFFFFFFFFFFFFFFFFFFFFFFFFFFFFFFFFFFFFFFFFFFFFFFFFFFFFFFFF0000FFFFFFFFFFFFFFFFFFFFFFFFFFFFFFFFFFFFFFFFFFFFFFFFFFFFFFFFFF00FFFF00FFFFFFFFFFFFFFFFFFFFFFFFFFFFFFFFFFFFFFFFFFFFFFFFFFFFFFFF00FFFF00FFFFFFFFFFFFFFFFFFFFFFFFFFFFFFFFFFFFFFFFFFFFFFFFFFFFFFFF
310
00FF0000FFFFFFFFFFFFFFFFFFFFFFFFFFFFFFFFFFFFFFFFFFFFFFFFFFFFFFFF00FF0000FFFFFFFFFFFFFFFFFFFFFFFFFFFFFFFFFFFFFFFFFFFFFFFFFFFFFFFF00FF0000FFFFFFFFFFFFFFFFFFFFFFFFFFFFFFFFFFFFFFFFFFFFFFFFFFFFFFFF00000000FFFFFFFFFFFFFFFFFFFFFFFFFFFFFFFFFFFFFFFFFFFFFFFFFFFFFF
310
00FF00FF0000FFFFFFFFFFFFFFFFFFFFFFFFFFFFFFFFFFFFFFFFFFFFFFFFFFFF00FF00FF0000FFFFFFFFFFFFFFFFFFFFFFFFFFFFFFFFFFFFFFFFFFFFFFFFFFFF00FF00FF0000FFFFFFFFFFFFFFFFFFFFFFFFFFFFFFFFFFFFFFFFFFFFFFFFFFFF00FF00FF0000FFFFFFFFFFFFFFFFFFFFFFFFFFFFFFFFFFFFFFFFFFFFFFFFFF
310
FF00FF00FF0000FFFFFFFFFFFFFFFFFFFFFFFFFFFFFFFFFFFFFFFFFFFFFFFFFFFF0000FFFF0000FFFFFFFFFFFFFFFFFFFFFFFFFFFFFFFFFFFFFFFFFFFFFFFFFF00FF00FFFF00FF00FFFFFFFFFFFFFFFFFFFFFFFFFFFFFFFFFFFFFFFFFFFFFFFF00FF00FFFF00FF00FFFFFFFFFFFFFFFFFFFFFFFFFFFFFFFFFFFFFFFFFFFFFF
310
FF00FF00FFFFFF0000FFFFFFFFFFFFFFFFFFFFFFFFFFFFFFFFFFFFFFFFFFFFFFFF00FF00FFFFFF0000FFFFFFFFFFFFFFFFFFFFFFFFFFFFFFFFFFFFFFFFFFFFFFFF00FF00FFFFFF0000FFFFFFFFFFFFFFFFFFFFFFFFFFFFFFFFFFFFFFFFFFFFFFFF0000FFFFFFFF0000FFFFFFFFFFFFFFFFFFFFFFFFFFFFFFFFFFFFFFFFFFFF
310
FF00FF00FFFFFFFF00FF00FFFFFFFFFFFFFFFFFFFFFFFFFFFFFFFFFFFFFFFFFFFF00FF00FFFFFFFF00FF00FFFFFFFFFFFFFFFFFFFFFFFFFFFFFFFFFFFFFFFFFFFF00FF00FFFFFFFF00FF00FFFFFFFFFFFFFFFFFFFFFFFFFFFFFFFFFFFFFFFFFFFF00FF00FFFFFFFF00FF00FFFFFFFFFFFFFFFFFFFFFFFFFFFFFFFFFFFFFFFF
310
FFFF00FF00FFFFFFFFFF0000FFFFFFFFFFFFFFFFFFFFFFFFFFFFFFFFFFFFFFFFFFFF0000FFFFFFFFFFFF0000FFFFFFFFFFFFFFFFFFFFFFFFFFFFFFFFFFFFFFFFFF00FF00FFFFFFFFFFFF00FF00FFFFFFFFFFFFFFFFFFFFFFFFFFFFFFFFFFFFFFFF00FF00FFFFFFFFFFFF00FF00FFFFFFFFFFFFFFFFFFFFFFFFFFFFFFFFFFFF
310
FFFF000000FFFFFFFFFFFF000000FFFFFFFFFFFFFFFFFFFFFFFFFFFFFFFFFFFFFFFFFFFFFFFFFFFFFFFFFFFFFFFFFFFFFFFFFFFFFFFFFFFF
102
{BLKREFS
331
2493
102
}
  0
BLOCK_RECORD
  5
2481
330
21E4
100
AcDbSymbolTableRecord
100
AcDbBlockTableRecord
  2
AI9-BLK1
340
0
310
2800000020000000200000000100080000000000000400000000000000000000000000000000000000000000000080000080000000808000800000008000800080800000C0C0C000C0DCC000F0CAA6000020400000206000002080000020A0000020C0000020E00000400000004020000040400000406000004080000040A0
310
000040C0000040E00000600000006020000060400000606000006080000060A0000060C0000060E00000800000008020000080400000806000008080000080A0000080C0000080E00000A0000000A0200000A0400000A0600000A0800000A0A00000A0C00000A0E00000C0000000C0200000C0400000C0600000C0800000C0
310
A00000C0C00000C0E00000E0000000E0200000E0400000E0600000E0800000E0A00000E0C00000E0E00040000000400020004000400040006000400080004000A0004000C0004000E00040200000402020004020400040206000402080004020A0004020C0004020E000404000004040200040404000404060004040800040
310
40A0004040C0004040E00040600000406020004060400040606000406080004060A0004060C0004060E00040800000408020004080400040806000408080004080A0004080C0004080E00040A0000040A0200040A0400040A0600040A0800040A0A00040A0C00040A0E00040C0000040C0200040C0400040C0600040C08000
310
40C0A00040C0C00040C0E00040E0000040E0200040E0400040E0600040E0800040E0A00040E0C00040E0E00080000000800020008000400080006000800080008000A0008000C0008000E00080200000802020008020400080206000802080008020A0008020C0008020E00080400000804020008040400080406000804080
310
008040A0008040C0008040E00080600000806020008060400080606000806080008060A0008060C0008060E00080800000808020008080400080806000808080008080A0008080C0008080E00080A0000080A0200080A0400080A0600080A0800080A0A00080A0C00080A0E00080C0000080C0200080C0400080C0600080C0
310
800080C0A00080C0C00080C0E00080E0000080E0200080E0400080E0600080E0800080E0A00080E0C00080E0E000C0000000C0002000C0004000C0006000C0008000C000A000C000C000C000E000C0200000C0202000C0204000C0206000C0208000C020A000C020C000C020E000C0400000C0402000C0404000C0406000C0
310
408000C040A000C040C000C040E000C0600000C0602000C0604000C0606000C0608000C060A000C060C000C060E000C0800000C0802000C0804000C0806000C0808000C080A000C080C000C080E000C0A00000C0A02000C0A04000C0A06000C0A08000C0A0A000C0A0C000C0A0E000C0C00000C0C02000C0C04000C0C06000
310
C0C08000C0C0A000F0FBFF00A4A0A000808080000000FF0000FF000000FFFF00FF000000FF00FF00FFFF0000FFFFFF00FFFFFFFFFFFFFFFFFFFFFFFFFFFFFFFFFFFFFFFFFFFFFFFFFFFFFFFFFFFFFFFFFFFFFFFFFFFFFFFFFFFFFF00000000000000000000FFFFFFFFFFFFFFFFFFFFFFFFFFFFFFFFFFFFFFFFFFFF00FFFFFF
310
FFFFFFFFFF00FFFFFFFFFFFFFFFFFFFFFFFFFFFFFFFFFFFFFFFFFFFF00FFFFFFFFFFFFFFFF00FFFFFFFFFFFFFFFFFFFFFFFFFFFFFFFFFFFFFFFFFFFF00FFFFFFFFFFFFFFFF00FFFFFFFFFFFFFFFFFFFFFFFFFFFFFFFFFFFFFFFFFFFF00FF0000000000000000FFFFFFFFFFFFFFFFFFFFFFFFFFFFFFFFFFFFFFFFFFFF00FF00
310
FFFFFFFFFFFFFFFFFFFFFFFFFFFFFFFFFFFFFFFFFFFFFFFFFFFFFFFFFF00FF00FFFFFFFFFFFFFFFFFFFFFFFFFFFFFFFFFFFFFFFFFFFFFFFFFFFFFFFFFF00FF00FFFFFFFFFFFFFFFFFFFFFFFFFFFFFFFFFFFFFFFFFFFFFFFFFFFFFFFFFF00FF00FFFFFFFFFFFFFFFFFFFFFFFFFFFFFFFFFFFFFFFFFFFFFFFFFFFFFFFFFF00FF
310
00FFFFFFFFFFFFFFFFFFFFFFFFFFFFFFFFFFFFFFFFFFFFFFFFFFFFFFFFFF00FF00FFFFFFFFFFFFFFFFFFFFFFFFFFFFFFFFFFFFFFFFFFFFFFFFFFFFFFFFFF00FF00FFFFFFFFFFFFFFFFFFFFFFFFFFFFFFFFFFFFFFFFFFFFFFFFFFFFFFFFFF00FF00FFFFFFFFFFFFFFFFFFFFFFFFFFFFFFFFFFFFFFFFFFFFFFFFFFFFFFFFFF00
310
FF00000000000000FFFFFFFFFFFFFFFFFFFFFFFFFFFFFFFFFFFFFFFFFFFFFF00FFFFFFFFFFFFFF00FFFFFFFFFFFFFFFFFFFFFFFFFFFFFFFFFFFFFFFFFFFFFF00FFFFFFFFFFFFFF00FFFFFFFFFFFFFFFFFFFFFFFFFFFFFFFFFFFFFFFFFFFFFF00FFFFFFFFFFFFFF00FFFFFFFFFFFFFFFFFFFFFFFFFFFFFFFFFFFFFFFFFFFFFF
310
00FF00000000000000FFFFFFFFFFFFFFFFFFFFFFFFFFFFFFFFFFFFFFFFFFFFFF00FF00FFFFFFFFFFFFFFFFFFFFFFFFFFFFFFFFFFFFFFFFFFFFFFFFFFFFFFFFFF00FF00FFFFFFFFFFFFFFFFFFFFFFFFFFFFFFFFFFFFFFFFFFFFFFFFFFFFFFFFFF00FF00FFFFFFFFFFFFFFFFFFFFFFFFFFFFFFFFFFFFFFFFFFFFFFFFFFFFFFFF
310
FF00FF00FFFFFFFFFFFFFFFFFFFFFFFFFFFFFFFFFFFFFFFFFFFFFFFFFFFFFFFFFF00FF00FFFFFFFFFFFFFFFFFFFFFFFFFFFFFFFFFFFFFFFFFFFFFFFFFFFFFFFFFF00FF00FFFFFFFFFFFFFFFFFFFFFFFFFFFFFFFFFFFFFFFFFFFFFFFFFFFFFFFFFF00FF00FFFFFFFFFFFFFFFFFFFFFFFFFFFFFFFFFFFFFFFFFFFFFFFFFFFFFF
310
FFFF00FF0000000000000000FFFFFFFFFFFFFFFFFFFFFFFFFFFFFFFFFFFFFFFFFFFF00FFFFFFFFFFFFFFFF00FFFFFFFFFFFFFFFFFFFFFFFFFFFFFFFFFFFFFFFFFFFF00FFFFFFFFFFFFFFFF00FFFFFFFFFFFFFFFFFFFFFFFFFFFFFFFFFFFFFFFFFFFF00FFFFFFFFFFFFFFFF00FFFFFFFFFFFFFFFFFFFFFFFFFFFFFFFFFFFFFF
310
FFFFFF00000000000000000000FFFFFFFFFFFFFFFFFFFFFFFFFFFFFFFFFFFFFFFFFFFFFFFFFFFFFFFFFFFFFFFFFFFFFFFFFFFFFFFFFFFFFF
102
{BLKREFS
331
2494
102
}
  0
BLOCK_RECORD
  5
2486
330
21E4
100
AcDbSymbolTableRecord
100
AcDbBlockTableRecord
  2
HD_LLC_logo_OT5
340
0
310
2800000020000000200000000100080000000000000400000000000000000000000000000000000000000000000080000080000000808000800000008000800080800000C0C0C000C0DCC000F0CAA6000020400000206000002080000020A0000020C0000020E00000400000004020000040400000406000004080000040A0
310
000040C0000040E00000600000006020000060400000606000006080000060A0000060C0000060E00000800000008020000080400000806000008080000080A0000080C0000080E00000A0000000A0200000A0400000A0600000A0800000A0A00000A0C00000A0E00000C0000000C0200000C0400000C0600000C0800000C0
310
A00000C0C00000C0E00000E0000000E0200000E0400000E0600000E0800000E0A00000E0C00000E0E00040000000400020004000400040006000400080004000A0004000C0004000E00040200000402020004020400040206000402080004020A0004020C0004020E000404000004040200040404000404060004040800040
310
40A0004040C0004040E00040600000406020004060400040606000406080004060A0004060C0004060E00040800000408020004080400040806000408080004080A0004080C0004080E00040A0000040A0200040A0400040A0600040A0800040A0A00040A0C00040A0E00040C0000040C0200040C0400040C0600040C08000
310
40C0A00040C0C00040C0E00040E0000040E0200040E0400040E0600040E0800040E0A00040E0C00040E0E00080000000800020008000400080006000800080008000A0008000C0008000E00080200000802020008020400080206000802080008020A0008020C0008020E00080400000804020008040400080406000804080
310
008040A0008040C0008040E00080600000806020008060400080606000806080008060A0008060C0008060E00080800000808020008080400080806000808080008080A0008080C0008080E00080A0000080A0200080A0400080A0600080A0800080A0A00080A0C00080A0E00080C0000080C0200080C0400080C0600080C0
310
800080C0A00080C0C00080C0E00080E0000080E0200080E0400080E0600080E0800080E0A00080E0C00080E0E000C0000000C0002000C0004000C0006000C0008000C000A000C000C000C000E000C0200000C0202000C0204000C0206000C0208000C020A000C020C000C020E000C0400000C0402000C0404000C0406000C0
310
408000C040A000C040C000C040E000C0600000C0602000C0604000C0606000C0608000C060A000C060C000C060E000C0800000C0802000C0804000C0806000C0808000C080A000C080C000C080E000C0A00000C0A02000C0A04000C0A06000C0A08000C0A0A000C0A0C000C0A0E000C0C00000C0C02000C0C04000C0C06000
310
C0C08000C0C0A000F0FBFF00A4A0A000808080000000FF0000FF000000FFFF00FF000000FF00FF00FFFF0000FFFFFF00FFFFFFFFFFFFFFFFFFFFFFFFFFFFFFFFFFFFFFFFFFFFFFFFFFFFFFFFFFFFFFFFFFFFFFFFFFFFFFFFFFFFFFFFFFFFFFFFFFFFFFFFFFFFFFFFFFFFFFFFFFFFFFFFFFFFFFFFFFFFFFFFFFFFFFFFFFFFFF
310
FFFFFFFFFFFFFFFFFFFFFFFFFFFFFFFFFFFFFFFFFFFFFFFFFFFFFFFFFFFFFFFFFFFFFFFFFFFFFFFFFFFFFFFFFFFFFFFFFFFFFFFFFFFFFFFFFFFFFFFFFFFFFFFFFFFFFFFFFFFFFFFFFFFFFFFFFFFFFFFFFFFFFFFFFFFFFFFFFFFFFFFFFFFFFFFFFFFFFFFFFFFFFFFFFFFFFFFFFFFFFFFFFFFFFFFFFFFFFFFFFFFFFFFFFFFFFF
310
FFFFFFFFFFFFFFFFFFFFFFFFFFFFFFFFFFFFFFFFFFFFFFFFFFFFFFFFFFFFFFFFFFFFFFFFFFFFFFFFFFFFFFFFFFFFFFFFFFFFFFFFFFFFFFFFFFFFFFFFFFFFFFFFFFFFFFFFFFFFFFFFFFFFFFFFFFFFFFFFFFFFFFFFFFFFFFFFFFFFFFFFFFFFFFFFFFFFFFFFFFFFFFFFFFFFFFFFFFFFFFFFFFFFFFFFFFFFFFFFFFFFFFFFFFFFFF
310
FFFFFFFFFFFFFFFFFFFFFFFFFFFFFFFFFFFFFFFFFFFFFFFFFFFFFFFFFFFFFFFFFFFFFFFFFFFFFFFFFFFFFFFFFFFFFFFFFFFFFFFF0000000000000000000000000000000000000000000000000000000000FFFFFF0000000000000000000000000000000000FFFFFFFFFFFFFFFFFFFF0000FFFFFF0000000000000000000000
310
00000000000000FFFFFFFFFFFFFFFFFFFF0000FFFF000000000000000000000000000000000000FFFFFF00000000FFFFFF0000FFFF00FFFFFFFFFFFF00FFFFFF00FFFFFFFFFF00FFFFFF0000000000FFFF0000FFFF00FFFFFFFFFFFF00FFFFFF00FFFFFFFFFF00FFFFFF00FFFF0000FFFF0000FFFF00FFFFFFFFFFFF00FFFF
310
00FFFFFFFFFFFF00FFFFFF00FFFF0000FFFF0000FFFF0000000000FFFF00000000FFFFFF00000000FFFFFF00000000FFFFFF0000FFFFFFFFFFFF00FFFFFFFFFFFFFFFFFF00FFFFFFFFFFFFFFFFFFFFFFFFFF0000FFFFFFFFFFFF00FFFFFFFFFFFFFFFFFF00FFFFFFFFFFFFFFFFFFFFFFFFFF0000FFFFFFFFFFFF00FFFFFFFF
310
FFFFFFFFFF00FFFFFFFFFFFFFFFFFFFFFFFF0000FFFFFF0000000000FFFF00000000FFFFFF0000000000000000000000000000FFFFFFFF00FFFFFFFFFFFF00FFFF00FFFFFFFFFFFF00FFFFFFFFFFFFFFFFFFFFFFFFFFFF00FFFFFFFFFFFF00FFFFFF00FFFFFFFFFF00FFFFFFFFFFFFFFFFFFFFFFFFFFFF0000000000000000
310
FFFFFF00000000000000FFFFFFFFFFFFFFFFFFFFFFFFFFFFFFFFFFFFFFFFFFFFFFFFFFFFFFFFFFFFFFFFFFFFFFFFFFFFFFFFFFFFFFFFFFFFFFFFFFFFFFFFFFFFFFFFFFFFFFFFFFFFFFFFFFFFFFFFFFFFFFFFFFFFFFFFFFFFFFFFFFFFFFFFFFFFFFFFFFFFFFFFFFFFFFFFFFFFFFFFFFFFFFFFFFFFFFFFFFFFFFFFFFFFFFFFFF
310
FFFFFFFFFFFFFFFFFFFFFFFFFFFFFFFFFFFFFFFFFFFFFFFFFFFFFFFFFFFFFFFFFFFFFFFFFFFFFFFFFFFFFFFFFFFFFFFFFFFFFFFFFFFFFFFF
102
{BLKREFS
331
24AC
102
}
  0
BLOCK_RECORD
  5
24AB
330
21E4
100
AcDbSymbolTableRecord
100
AcDbBlockTableRecord
  2
HD logo-new
340
0
310
2800000020000000200000000100080000000000000400000000000000000000000000000000000000000000000080000080000000808000800000008000800080800000C0C0C000C0DCC000F0CAA6000020400000206000002080000020A0000020C0000020E00000400000004020000040400000406000004080000040A0
310
000040C0000040E00000600000006020000060400000606000006080000060A0000060C0000060E00000800000008020000080400000806000008080000080A0000080C0000080E00000A0000000A0200000A0400000A0600000A0800000A0A00000A0C00000A0E00000C0000000C0200000C0400000C0600000C0800000C0
310
A00000C0C00000C0E00000E0000000E0200000E0400000E0600000E0800000E0A00000E0C00000E0E00040000000400020004000400040006000400080004000A0004000C0004000E00040200000402020004020400040206000402080004020A0004020C0004020E000404000004040200040404000404060004040800040
310
40A0004040C0004040E00040600000406020004060400040606000406080004060A0004060C0004060E00040800000408020004080400040806000408080004080A0004080C0004080E00040A0000040A0200040A0400040A0600040A0800040A0A00040A0C00040A0E00040C0000040C0200040C0400040C0600040C08000
310
40C0A00040C0C00040C0E00040E0000040E0200040E0400040E0600040E0800040E0A00040E0C00040E0E00080000000800020008000400080006000800080008000A0008000C0008000E00080200000802020008020400080206000802080008020A0008020C0008020E00080400000804020008040400080406000804080
310
008040A0008040C0008040E00080600000806020008060400080606000806080008060A0008060C0008060E00080800000808020008080400080806000808080008080A0008080C0008080E00080A0000080A0200080A0400080A0600080A0800080A0A00080A0C00080A0E00080C0000080C0200080C0400080C0600080C0
310
800080C0A00080C0C00080C0E00080E0000080E0200080E0400080E0600080E0800080E0A00080E0C00080E0E000C0000000C0002000C0004000C0006000C0008000C000A000C000C000C000E000C0200000C0202000C0204000C0206000C0208000C020A000C020C000C020E000C0400000C0402000C0404000C0406000C0
310
408000C040A000C040C000C040E000C0600000C0602000C0604000C0606000C0608000C060A000C060C000C060E000C0800000C0802000C0804000C0806000C0808000C080A000C080C000C080E000C0A00000C0A02000C0A04000C0A06000C0A08000C0A0A000C0A0C000C0A0E000C0C00000C0C02000C0C04000C0C06000
310
C0C08000C0C0A000F0FBFF00A4A0A000808080000000FF0000FF000000FFFF00FF000000FF00FF00FFFF0000FFFFFF00FFFFFFFFFFFFFFFFFFFFFFFFFFFFFFFFFFFFFFFFFFFFFFFFFFFFFFFFFFFFFFFFFFFFFFFFFFFFFFFFFFFFFFFFFFFFFFFFFFFFFFFFFFFFFFFFFFFFFFFFFFFFFFFFFFFFFFFFFFFFFFFFFFFFFFFFFFFFFF
310
FFFFFFFFFFFFFFFFFFFFFFFFFFFFFFFFFFFFFFFFFFFFFFFFFFFFFFFFFFFFFFFFFFFFFFFFFFFFFFFFFFFFFFFFFFFFFFFFFFFFFFFFFFFFFFFFFFFFFFFFFFFFFFFFFFFFFFFFFFFFFFFFFFFFFFFFFFFFFFFFFFFFFFFFFFFFFFFFFFFFFFFFFFFFFFFFFFFFFFFFFFFFFFFFFFFFFFFFFFFFFFFFFFFFFFFFFFFFFFFFFFFFFFFFFFFFFF
310
FFFFFFFFFFFFFFFFFFFFFFFFFFFFFFFFFFFFFFFFFFFFFFFFFFFFFFFFFFFFFFFFFFFFFFFFFFFFFFFFFFFFFFFFFFFFFFFFFFFFFFFFFFFFFFFFFFFFFFFFFFFFFFFFFFFFFFFFFFFFFFFFFFFFFFFFFFFFFFFFFFFFFFFFFFFFFFFFFFFFFFFFFFFFFFFFFFFFFFFFFFFFFFFFFFFFFFFFFFFFFFFFFFFFFFFFFFFFFFFFFFFFFFFFFFFFFF
310
FFFFFFFFFFFFFFFFFFFFFFFFFFFFFFFFFFFFFFFFFFFFFFFFFFFFFFFFFFFFFFFFFFFFFFFFFFFFFFFFFFFFFFFFFFFFFFFFFFFFFFFF0000000000000000000000000000000000000000000000000000000000FFFFFF0000000000000000000000000000000000FFFFFFFFFFFFFFFFFFFF0000FFFFFF0000000000000000000000
310
00000000000000FFFFFFFFFFFFFFFFFFFF0000FFFF000000000000000000000000000000000000FFFFFF00000000FFFFFF0000FFFF00FFFFFFFFFFFF00FFFFFF00FFFFFFFFFF00FFFFFF0000000000FFFF0000FFFF00FFFFFFFFFFFF00FFFFFF00FFFFFFFFFF00FFFFFF00FFFF0000FFFF0000FFFF00FFFFFFFFFFFF00FFFF
310
00FFFFFFFFFFFF00FFFFFF00FFFF0000FFFF0000FFFF0000000000FFFF00000000FFFFFF00000000FFFFFF00000000FFFFFF0000FFFFFFFFFFFF00FFFFFFFFFFFFFFFFFF00FFFFFFFFFFFFFFFFFFFFFFFFFF0000FFFFFFFFFFFF00FFFFFFFFFFFFFFFFFF00FFFFFFFFFFFFFFFFFFFFFFFFFF0000FFFFFFFFFFFF00FFFFFFFF
310
FFFFFFFFFF00FFFFFFFFFFFFFFFFFFFFFFFF0000FFFFFF0000000000FFFF00000000FFFFFF0000000000000000000000000000FFFFFFFF00FFFFFFFFFFFF00FFFF00FFFFFFFFFFFF00FFFFFFFFFFFFFFFFFFFFFFFFFFFF00FFFFFFFFFFFF00FFFFFF00FFFFFFFFFF00FFFFFFFFFFFFFFFFFFFFFFFFFFFF0000000000000000
310
FFFFFF00000000000000FFFFFFFFFFFFFFFFFFFFFFFFFFFFFFFFFFFFFFFFFFFFFFFFFFFFFFFFFFFFFFFFFFFFFFFFFFFFFFFFFFFFFFFFFFFFFFFFFFFFFFFFFFFFFFFFFFFFFFFFFFFFFFFFFFFFFFFFFFFFFFFFFFFFFFFFFFFFFFFFFFFFFFFFFFFFFFFFFFFFFFFFFFFFFFFFFFFFFFFFFFFFFFFFFFFFFFFFFFFFFFFFFFFFFFFFFF
310
FFFFFFFFFFFFFFFFFFFFFFFFFFFFFFFFFFFFFFFFFFFFFFFFFFFFFFFFFFFFFFFFFFFFFFFFFFFFFFFFFFFFFFFFFFFFFFFFFFFFFFFFFFFFFFFF
102
{BLKREFS
331
24B0
102
}
  0
BLOCK_RECORD
  5
24AF
330
21E4
100
AcDbSymbolTableRecord
100
AcDbBlockTableRecord
  2
HD Logo
340
0
310
2800000020000000200000000100080000000000000400000000000000000000000000000000000000000000000080000080000000808000800000008000800080800000C0C0C000C0DCC000F0CAA6000020400000206000002080000020A0000020C0000020E00000400000004020000040400000406000004080000040A0
310
000040C0000040E00000600000006020000060400000606000006080000060A0000060C0000060E00000800000008020000080400000806000008080000080A0000080C0000080E00000A0000000A0200000A0400000A0600000A0800000A0A00000A0C00000A0E00000C0000000C0200000C0400000C0600000C0800000C0
310
A00000C0C00000C0E00000E0000000E0200000E0400000E0600000E0800000E0A00000E0C00000E0E00040000000400020004000400040006000400080004000A0004000C0004000E00040200000402020004020400040206000402080004020A0004020C0004020E000404000004040200040404000404060004040800040
310
40A0004040C0004040E00040600000406020004060400040606000406080004060A0004060C0004060E00040800000408020004080400040806000408080004080A0004080C0004080E00040A0000040A0200040A0400040A0600040A0800040A0A00040A0C00040A0E00040C0000040C0200040C0400040C0600040C08000
310
40C0A00040C0C00040C0E00040E0000040E0200040E0400040E0600040E0800040E0A00040E0C00040E0E00080000000800020008000400080006000800080008000A0008000C0008000E00080200000802020008020400080206000802080008020A0008020C0008020E00080400000804020008040400080406000804080
310
008040A0008040C0008040E00080600000806020008060400080606000806080008060A0008060C0008060E00080800000808020008080400080806000808080008080A0008080C0008080E00080A0000080A0200080A0400080A0600080A0800080A0A00080A0C00080A0E00080C0000080C0200080C0400080C0600080C0
310
800080C0A00080C0C00080C0E00080E0000080E0200080E0400080E0600080E0800080E0A00080E0C00080E0E000C0000000C0002000C0004000C0006000C0008000C000A000C000C000C000E000C0200000C0202000C0204000C0206000C0208000C020A000C020C000C020E000C0400000C0402000C0404000C0406000C0
310
408000C040A000C040C000C040E000C0600000C0602000C0604000C0606000C0608000C060A000C060C000C060E000C0800000C0802000C0804000C0806000C0808000C080A000C080C000C080E000C0A00000C0A02000C0A04000C0A06000C0A08000C0A0A000C0A0C000C0A0E000C0C00000C0C02000C0C04000C0C06000
310
C0C08000C0C0A000F0FBFF00A4A0A000808080000000FF0000FF000000FFFF00FF000000FF00FF00FFFF0000FFFFFF00FFFFFFFFFFFFFFFFFFFFFFFFFFFFFFFFFFFFFFFFFFFFFFFFFFFFFFFFFFFFFFFFFFFFFFFFFFFFFFFFFFFFFFFFFFFFFFFFFFFFFFFFFFFFFFFFFFFFFFFFFFFFFFFFFFFFFFFFFFFFFFFFFFFFFFFFFFFFFF
310
FFFFFFFFFFFFFFFFFFFFFFFFFFFFFFFFFFFFFFFFFFFFFFFFFFFFFFFFFFFFFFFFFFFFFFFFFFFFFFFFFFFFFFFFFFFFFFFFFFFFFFFFFFFFFFFFFFFFFFFFFFFFFFFFFFFFFFFFFFFFFFFFFFFFFFFFFFFFFFFFFFFFFFFFFFFFFFFFFFFFFFFFFFFFFFFFFFFFFFFFFFFFFFFFFFFFFFFFFFFFFFFFFFFFFFFFFFFFFFFFFFFFFFFFFFFFFF
310
FFFFFFFFFFFFFFFFFFFFFFFFFFFFFFFFFFFFFFFFFFFFFFFFFFFFFFFFFFFFFFFFFFFFFFFFFFFFFFFFFFFFFFFFFFFFFFFFFFFFFFFFFFFFFFFFFFFFFFFFFFFFFFFFFFFFFFFFFFFFFFFFFFFFFFFFFFFFFFFFFFFFFFFFFFFFFFFFFFFFFFFFFFFFFFFFFFFFFFFFFFFFFFFFFFFFFFFFFFFFFFFFFFFFFFFFFFFFFFFFFFFFFFFFFFFFFF
310
FFFFFFFFFFFFFFFFFFFFFFFFFFFFFFFFFFFFFFFFFFFFFFFFFFFFFFFFFFFFFFFFFFFFFFFFFFFFFFFFFFFFFFFFFFFFFFFFFFFFFFFF0000000000000000000000000000000000000000000000000000000000FFFFFF0000000000000000000000000000000000FFFFFFFFFFFFFFFFFFFF0000FFFFFF0000000000000000000000
310
00000000000000FFFFFFFFFFFFFFFFFFFF0000FFFF000000000000000000000000000000000000FFFFFF00000000FFFFFF0000FFFF00FFFFFFFFFFFF00FFFFFF00FFFFFFFFFF00FFFFFF0000000000FFFF0000FFFF00FFFFFFFFFFFF00FFFFFF00FFFFFFFFFF00FFFFFF00FFFF0000FFFF0000FFFF00FFFFFFFFFFFF00FFFF
310
00FFFFFFFFFFFF00FFFFFF00FFFF0000FFFF0000FFFF0000000000FFFF00000000FFFFFF00000000FFFFFF00000000FFFFFF0000FFFFFFFFFFFF00FFFFFFFFFFFFFFFFFF00FFFFFFFFFFFFFFFFFFFFFFFFFF0000FFFFFFFFFFFF00FFFFFFFFFFFFFFFFFF00FFFFFFFFFFFFFFFFFFFFFFFFFF0000FFFFFFFFFFFF00FFFFFFFF
310
FFFFFFFFFF00FFFFFFFFFFFFFFFFFFFFFFFF0000FFFFFF0000000000FFFF00000000FFFFFF0000000000000000000000000000FFFFFFFF00FFFFFFFFFFFF00FFFF00FFFFFFFFFFFF00FFFFFFFFFFFFFFFFFFFFFFFFFFFF00FFFFFFFFFFFF00FFFFFF00FFFFFFFFFF00FFFFFFFFFFFFFFFFFFFFFFFFFFFF0000000000000000
310
FFFFFF00000000000000FFFFFFFFFFFFFFFFFFFFFFFFFFFFFFFFFFFFFFFFFFFFFFFFFFFFFFFFFFFFFFFFFFFFFFFFFFFFFFFFFFFFFFFFFFFFFFFFFFFFFFFFFFFFFFFFFFFFFFFFFFFFFFFFFFFFFFFFFFFFFFFFFFFFFFFFFFFFFFFFFFFFFFFFFFFFFFFFFFFFFFFFFFFFFFFFFFFFFFFFFFFFFFFFFFFFFFFFFFFFFFFFFFFFFFFFFF
310
FFFFFFFFFFFFFFFFFFFFFFFFFFFFFFFFFFFFFFFFFFFFFFFFFFFFFFFFFFFFFFFFFFFFFFFFFFFFFFFFFFFFFFFFFFFFFFFFFFFFFFFFFFFFFFFF
102
{BLKREFS
331
24B6
331
24BA
102
}
  0
BLOCK_RECORD
  5
24BB
330
21E4
100
AcDbSymbolTableRecord
100
AcDbBlockTableRecord
  2
Harmonic Drive LLC
340
0
310
2800000020000000200000000100080000000000000400000000000000000000000000000000000000000000000080000080000000808000800000008000800080800000C0C0C000C0DCC000F0CAA6000020400000206000002080000020A0000020C0000020E00000400000004020000040400000406000004080000040A0
310
000040C0000040E00000600000006020000060400000606000006080000060A0000060C0000060E00000800000008020000080400000806000008080000080A0000080C0000080E00000A0000000A0200000A0400000A0600000A0800000A0A00000A0C00000A0E00000C0000000C0200000C0400000C0600000C0800000C0
310
A00000C0C00000C0E00000E0000000E0200000E0400000E0600000E0800000E0A00000E0C00000E0E00040000000400020004000400040006000400080004000A0004000C0004000E00040200000402020004020400040206000402080004020A0004020C0004020E000404000004040200040404000404060004040800040
310
40A0004040C0004040E00040600000406020004060400040606000406080004060A0004060C0004060E00040800000408020004080400040806000408080004080A0004080C0004080E00040A0000040A0200040A0400040A0600040A0800040A0A00040A0C00040A0E00040C0000040C0200040C0400040C0600040C08000
310
40C0A00040C0C00040C0E00040E0000040E0200040E0400040E0600040E0800040E0A00040E0C00040E0E00080000000800020008000400080006000800080008000A0008000C0008000E00080200000802020008020400080206000802080008020A0008020C0008020E00080400000804020008040400080406000804080
310
008040A0008040C0008040E00080600000806020008060400080606000806080008060A0008060C0008060E00080800000808020008080400080806000808080008080A0008080C0008080E00080A0000080A0200080A0400080A0600080A0800080A0A00080A0C00080A0E00080C0000080C0200080C0400080C0600080C0
310
800080C0A00080C0C00080C0E00080E0000080E0200080E0400080E0600080E0800080E0A00080E0C00080E0E000C0000000C0002000C0004000C0006000C0008000C000A000C000C000C000E000C0200000C0202000C0204000C0206000C0208000C020A000C020C000C020E000C0400000C0402000C0404000C0406000C0
310
408000C040A000C040C000C040E000C0600000C0602000C0604000C0606000C0608000C060A000C060C000C060E000C0800000C0802000C0804000C0806000C0808000C080A000C080C000C080E000C0A00000C0A02000C0A04000C0A06000C0A08000C0A0A000C0A0C000C0A0E000C0C00000C0C02000C0C04000C0C06000
310
C0C08000C0C0A000F0FBFF00A4A0A000808080000000FF0000FF000000FFFF00FF000000FF00FF00FFFF0000FFFFFF00FFFFFFFFFFFFFFFFFFFFFFFFFFFFFFFFFFFFFFFFFFFFFFFFFFFFFFFFFFFFFFFFFFFFFFFFFFFFFFFFFFFFFFFFFFFFFFFFFFFFFFFFFFFFFFFFFFFFFFFFFFFFFFFFFFFFFFFFFFFFFFFFFFFFFFFFFFFFFF
310
FFFFFFFFFFFFFFFFFFFFFFFFFFFFFFFFFFFFFFFFFFFFFFFFFFFFFFFFFFFFFFFFFFFFFFFFFFFFFFFFFFFFFFFFFFFFFFFFFFFFFFFFFFFFFFFFFFFFFFFFFFFFFFFFFFFFFFFFFFFFFFFFFFFFFFFFFFFFFFFFFFFFFFFFFFFFFFFFFFFFFFFFFFFFFFFFFFFFFFFFFFFFFFFFFFFFFFFFFFFFFFFFFFFFFFFFFFFFFFFFFFFFFFFFFFFFFF
310
FFFFFFFFFFFFFFFFFFFFFFFFFFFFFFFFFFFFFFFFFFFFFFFFFFFFFFFFFFFFFFFFFFFFFFFFFFFFFFFFFFFFFFFFFFFFFFFFFFFFFFFFFFFFFFFFFFFFFFFFFFFFFFFFFFFFFFFFFFFFFFFFFFFFFFFFFFFFFFFFFFFFFFFFFFFFFFFFFFFFFFFFFFFFFFFFFFFFFFFFFFFFFFFFFFFFFFFFFFFFFFFFFFFFFFFFFFFFFFFFFFFFFFFFFFFFFF
310
FFFFFFFFFFFFFFFFFFFFFFFFFFFFFFFFFFFFFFFFFFFFFFFFFFFFFFFFFFFFFFFFFFFFFFFFFFFFFFFFFFFFFFFFFFFFFFFFFFFFFFFFFFFFFFFFFFFFFFFFFFFFFFFFFFFFFFFFFFFFFFFFFFFFFFFFFFFFFFFFFFFFFFFFFFFFFF000000000000000000000000000000000000000000000000FFFFFFFFFFFFFFFF0000000000000000
310
00000000000000000000000000000000FFFFFFFFFFFFFFFFFFFFFFFF00000000FF00000000FF000000000000FFFFFFFFFFFFFFFFFFFFFFFFFFFFFFFF00000000000000000000000000000000FFFFFFFFFFFFFFFFFFFFFFFFFF00000000000000000000FF000000000000FF00000000FFFFFFFFFFFFFFFFFFFF000000000000
310
00000000FF000000000000FF00000000FFFFFFFFFFFFFFFFFFFFFFFFFFFFFFFFFFFFFFFFFFFFFFFFFFFFFFFFFFFFFFFFFFFFFFFFFFFFFFFFFFFFFFFFFFFFFFFFFFFFFFFFFFFFFFFFFFFFFFFFFFFFFFFFFFFFFFFFFFFFFFFFFFFFFFFFFFFFFFFFFFFFFFFFFFFFFFFFFFFFFFFFFFFFFFFFFFFFFFFFFFFFFFFFFFFFFFFFFFFFFF
310
FFFFFFFFFFFFFFFFFFFFFFFFFFFFFFFFFFFFFFFFFFFFFFFFFFFFFFFFFFFFFFFFFFFFFFFFFFFFFFFFFFFFFFFFFFFFFFFFFFFFFFFFFFFFFFFFFFFFFFFFFFFFFFFFFFFFFFFFFFFFFFFFFFFFFFFFFFFFFFFFFFFFFFFFFFFFFFFFFFFFFFFFFFFFFFFFFFFFFFFFFFFFFFFFFFFFFFFFFFFFFFFFFFFFFFFFFFFFFFFFFFFFFFFFFFFFFF
310
FFFFFFFFFFFFFFFFFFFFFFFFFFFFFFFFFFFFFFFFFFFFFFFFFFFFFFFFFFFFFFFFFFFFFFFFFFFFFFFFFFFFFFFFFFFFFFFFFFFFFFFFFFFFFFFFFFFFFFFFFFFFFFFFFFFFFFFFFFFFFFFFFFFFFFFFFFFFFFFFFFFFFFFFFFFFFFFFFFFFFFFFFFFFFFFFFFFFFFFFFFFFFFFFFFFFFFFFFFFFFFFFFFFFFFFFFFFFFFFFFFFFFFFFFFFFFF
310
FFFFFFFFFFFFFFFFFFFFFFFFFFFFFFFFFFFFFFFFFFFFFFFFFFFFFFFFFFFFFFFFFFFFFFFFFFFFFFFFFFFFFFFFFFFFFFFFFFFFFFFFFFFFFFFF
102
{BLKREFS
331
24C0
331
24C4
102
}
  0
BLOCK_RECORD
  5
24CC
330
21E4
100
AcDbSymbolTableRecord
100
AcDbBlockTableRecord
  2
NTC
340
0
310
2800000020000000200000000100080000000000000400000000000000000000000000000000000000000000000080000080000000808000800000008000800080800000C0C0C000C0DCC000F0CAA6000020400000206000002080000020A0000020C0000020E00000400000004020000040400000406000004080000040A0
310
000040C0000040E00000600000006020000060400000606000006080000060A0000060C0000060E00000800000008020000080400000806000008080000080A0000080C0000080E00000A0000000A0200000A0400000A0600000A0800000A0A00000A0C00000A0E00000C0000000C0200000C0400000C0600000C0800000C0
310
A00000C0C00000C0E00000E0000000E0200000E0400000E0600000E0800000E0A00000E0C00000E0E00040000000400020004000400040006000400080004000A0004000C0004000E00040200000402020004020400040206000402080004020A0004020C0004020E000404000004040200040404000404060004040800040
310
40A0004040C0004040E00040600000406020004060400040606000406080004060A0004060C0004060E00040800000408020004080400040806000408080004080A0004080C0004080E00040A0000040A0200040A0400040A0600040A0800040A0A00040A0C00040A0E00040C0000040C0200040C0400040C0600040C08000
310
40C0A00040C0C00040C0E00040E0000040E0200040E0400040E0600040E0800040E0A00040E0C00040E0E00080000000800020008000400080006000800080008000A0008000C0008000E00080200000802020008020400080206000802080008020A0008020C0008020E00080400000804020008040400080406000804080
310
008040A0008040C0008040E00080600000806020008060400080606000806080008060A0008060C0008060E00080800000808020008080400080806000808080008080A0008080C0008080E00080A0000080A0200080A0400080A0600080A0800080A0A00080A0C00080A0E00080C0000080C0200080C0400080C0600080C0
310
800080C0A00080C0C00080C0E00080E0000080E0200080E0400080E0600080E0800080E0A00080E0C00080E0E000C0000000C0002000C0004000C0006000C0008000C000A000C000C000C000E000C0200000C0202000C0204000C0206000C0208000C020A000C020C000C020E000C0400000C0402000C0404000C0406000C0
310
408000C040A000C040C000C040E000C0600000C0602000C0604000C0606000C0608000C060A000C060C000C060E000C0800000C0802000C0804000C0806000C0808000C080A000C080C000C080E000C0A00000C0A02000C0A04000C0A06000C0A08000C0A0A000C0A0C000C0A0E000C0C00000C0C02000C0C04000C0C06000
310
C0C08000C0C0A000F0FBFF00A4A0A000808080000000FF0000FF000000FFFF00FF000000FF00FF00FFFF0000FFFFFF00FFFFFFFFFFFFFFFFFFFFFFFFFFFFFFFFFFFFFFFFFFFFFFFFFFFFFFFFFFFFFFFFFFFFFFFFFFFFFFFFFFFFFFFFFFFFFFFFFFFFFFFFFFFFFFFFFFFFFFFFFFFFFFFFFFFFFFFFFFFFFFFFFFFFFFFFFFFFFF
310
FFFFFFFFFFFFFFFFFFFFFFFFFFFFFFFFFFFFFFFFFFFFFFFFFFFFFFFFFFFFFFFFFFFFFFFFFFFFFFFFFFFFFFFFFFFFFFFFFFFFFFFFFFFFFFFFFFFFFFFFFFFFFFFFFFFFFFFFFFFFFFFFFFFFFFFFFFFFFFFFFFFFFFFFFFFFFFFFFFFFFFFFFFFFFFFFFFFFFFFFFFFFFFFFFFFFFFFFFFFFFFFFFFFFFFFFFFFFFFFFFFFFFFFFFFFFFF
310
FFFFFFFFFFFFFFFFFFFFFFFFFFFFFFFFFFFFFFFFFFFFFFFFFFFFFFFFFFFFFFFFFFFFFFFFFFFFFFFFFFFFFFFFFFFFFFFFFFFFFFFFFFFFFFFFFFFFFFFFFFFFFFFFFFFFFFFFFFFFFFFFFFFFFFFFFFFFFFFFFFFFFFFFFFFFFFFFFFFFFFFFFFFFFFFFFFFFFFFFFFFFFFFFFFFFFFFFFFFFFFFFFFFFFFFFFFFFFFFFFFFFFFFFFFFFFF
310
FFFFFFFFFFFFFFFFFFFFFFFFFFFFFFFFFFFFFFFF000000000000000000000000000000000000000000000000000000000000FFFF00FF0000000000000000FFFFFFFFFFFFFFFFFFFFFFFFFFFFFFFFFFFFFF00FFFF00FF0000000000000000FFFFFFFFFFFFFFFFFFFFFFFFFFFFFFFFFFFFFF00FFFF00FF000000000000000000
310
00000000000000000000000000FFFFFFFFFF00FFFF00FF0000000000000000000000000000000000000000000000000000FF00FFFF00FF0000000000000000000000000000000000000000000000000000FF00FFFF00FF0000000000000000000000000000000000000000000000000000FF00FFFF00FF0000000000000000
310
00000000000000000000000000000000FFFFFF00FFFF00FF0000000000FFFFFFFFFFFFFFFFFFFFFFFFFFFFFFFFFFFFFFFFFFFF00FFFF000000000000000000000000000000000000000000000000000000000000FFFFFFFFFFFFFFFFFFFFFFFFFFFFFFFFFFFFFFFFFFFFFFFFFFFFFFFFFFFFFFFFFFFFFFFFFFFFFFFFFFFFFF
310
FFFFFFFFFFFFFFFFFFFFFFFFFFFFFFFFFFFFFFFFFFFFFFFFFFFFFFFFFFFFFFFFFFFFFFFFFFFFFFFFFFFFFFFFFFFFFFFFFFFFFFFFFFFFFFFFFFFFFFFFFFFFFFFFFFFFFFFFFFFFFFFFFFFFFFFFFFFFFFFFFFFFFFFFFFFFFFFFFFFFFFFFFFFFFFFFFFFFFFFFFFFFFFFFFFFFFFFFFFFFFFFFFFFFFFFFFFFFFFFFFFFFFFFFFFFFFF
310
FFFFFFFFFFFFFFFFFFFFFFFFFFFFFFFFFFFFFFFFFFFFFFFFFFFFFFFFFFFFFFFFFFFFFFFFFFFFFFFFFFFFFFFFFFFFFFFFFFFFFFFFFFFFFFFFFFFFFFFFFFFFFFFFFFFFFFFFFFFFFFFFFFFFFFFFFFFFFFFFFFFFFFFFFFFFFFFFFFFFFFFFFFFFFFFFFFFFFFFFFFFFFFFFFFFFFFFFFFFFFFFFFFFFFFFFFFFFFFFFFFFFFFFFFFFFFF
310
FFFFFFFFFFFFFFFFFFFFFFFFFFFFFFFFFFFFFFFFFFFFFFFFFFFFFFFFFFFFFFFFFFFFFFFFFFFFFFFFFFFFFFFFFFFFFFFFFFFFFFFFFFFFFFFF
102
{BLKREFS
331
24D2
331
24D8
102
}
  0
ENDTAB
  0
ENDSEC
  0
SECTION
  2
BLOCKS
  0
BLOCK
  5
2202
330
2201
100
AcDbEntity
  8
0
100
AcDbBlockBegin
  2
*Model_Space
 70
     0
 10
0.0
 20
0.0
 30
0.0
  3
*Model_Space
  1

  0
ENDBLK
  5
2203
330
2201
100
AcDbEntity
  8
0
100
AcDbBlockEnd
  0
BLOCK
  5
21FE
330
21FD
100
AcDbEntity
 67
     1
  8
0
100
AcDbBlockBegin
  2
*Paper_Space
 70
     0
 10
0.0
 20
0.0
 30
0.0
  3
*Paper_Space
  1

  0
ENDBLK
  5
21FF
330
21FD
100
AcDbEntity
 67
     1
  8
0
100
AcDbBlockEnd
  0
BLOCK
  5
221C
330
221B
100
AcDbEntity
  8
0
100
AcDbBlockBegin
  2
$MODEL_SPACE
 70
     0
 10
0.0
 20
0.0
 30
0.0
  3
$MODEL_SPACE
  1

  0
ENDBLK
  5
221D
330
221B
100
AcDbEntity
  8
0
100
AcDbBlockEnd
  0
BLOCK
  5
221F
330
221E
100
AcDbEntity
  8
0
100
AcDbBlockBegin
  2
$PAPER_SPACE
 70
     0
 10
0.0
 20
0.0
 30
0.0
  3
$PAPER_SPACE
  1

  0
ENDBLK
  5
2220
330
221E
100
AcDbEntity
  8
0
100
AcDbBlockEnd
  0
BLOCK
  5
244A
330
2447
100
AcDbEntity
  8
0
 62
     7
100
AcDbBlockBegin
  2
AI9-BLK14
 70
     0
 10
0.0
 20
0.0
 30
0.0
  3
AI9-BLK14
  1

  0
SPLINE
  5
2448
330
2447
100
AcDbEntity
  8
LAYER_1
 62
     7
100
AcDbSpline
210
0.0
220
0.0
230
1.0
 70
    11
 71
     3
 72
    23
 73
    19
 74
     0
 42
0.0000000001
 43
0.0000000001
 40
0.0
 40
0.0
 40
0.0
 40
0.0
 40
1.0
 40
1.0
 40
1.0
 40
2.0
 40
2.0
 40
2.0
 40
3.0
 40
3.0
 40
3.0
 40
4.0
 40
4.0
 40
4.0
 40
5.0
 40
5.0
 40
5.0
 40
6.0
 40
6.0
 40
6.0
 40
6.0
 10
-10.90321044921874
 20
10.88107571072048
 30
0.0
 10
-10.90321044921874
 20
10.88107571072048
 30
0.0
 10
-10.90321044921874
 20
-10.88107571072048
 30
0.0
 10
-10.90321044921874
 20
-10.88107571072048
 30
0.0
 10
-10.90321044921874
 20
-10.88107571072048
 30
0.0
 10
1.752692328559025
 20
-10.88107571072048
 30
0.0
 10
1.752692328559025
 20
-10.88107571072048
 30
0.0
 10
3.280592176649305
 20
-10.88107571072048
 30
0.0
 10
10.90321044921874
 20
-10.32383151584201
 30
0.0
 10
10.90321044921874
 20
0.6792867024739583
 30
0.0
 10
10.90321044921874
 20
10.61700914171006
 30
0.0
 10
2.773129611545138
 20
10.87952541775172
 30
0.0
 10
2.691136338975693
 20
10.88090345594618
 30
0.0
 10
2.691136338975693
 20
10.88090345594618
 30
0.0
 10
-9.903099229600693
 20
10.88107571072048
 30
0.0
 10
-9.903099229600693
 20
10.88107571072048
 30
0.0
 10
-9.903099229600693
 20
10.88107571072048
 30
0.0
 10
-10.90321044921874
 20
10.88107571072048
 30
0.0
 10
-10.90321044921874
 20
10.88107571072048
 30
0.0
  0
SPLINE
  5
2449
330
2447
100
AcDbEntity
  8
LAYER_1
 62
     7
100
AcDbSpline
210
0.0
220
0.0
230
1.0
 70
    11
 71
     3
 72
    20
 73
    16
 74
     0
 42
0.0000000001
 43
0.0000000001
 40
0.0
 40
0.0
 40
0.0
 40
0.0
 40
1.0
 40
1.0
 40
1.0
 40
2.0
 40
2.0
 40
2.0
 40
3.0
 40
3.0
 40
3.0
 40
4.0
 40
4.0
 40
4.0
 40
5.0
 40
5.0
 40
5.0
 40
5.0
 10
2.672877332899305
 20
8.881197781032986
 30
0.0
 10
2.905421278211805
 20
8.874307590060762
 30
0.0
 10
8.902988009982637
 20
8.616442192925347
 30
0.0
 10
8.902988009982637
 20
0.6792867024739583
 30
0.0
 10
8.902988009982637
 20
-8.191661919487842
 30
0.0
 10
3.430109320746526
 20
-8.881197781032986
 30
0.0
 10
1.752692328559025
 20
-8.881197781032986
 30
0.0
 10
1.752692328559025
 20
-8.881197781032986
 30
0.0
 10
-7.231427680121528
 20
-8.881197781032986
 30
0.0
 10
-8.902988009982637
 20
-8.881197781032986
 30
0.0
 10
-8.902988009982637
 20
-7.174497477213541
 30
0.0
 10
-8.902988009982637
 20
7.174497477213541
 30
0.0
 10
-8.902988009982637
 20
8.881197781032986
 30
0.0
 10
-7.208690049913191
 20
8.881197781032986
 30
0.0
 10
2.672877332899305
 20
8.881197781032986
 30
0.0
 10
2.672877332899305
 20
8.881197781032986
 30
0.0
  0
ENDBLK
  5
244B
330
2447
100
AcDbEntity
  8
0
100
AcDbBlockEnd
  0
BLOCK
  5
244F
330
244C
100
AcDbEntity
  8
0
 62
     7
100
AcDbBlockBegin
  2
AI9-BLK13
 70
     0
 10
0.0
 20
0.0
 30
0.0
  3
AI9-BLK13
  1

  0
LWPOLYLINE
  5
244D
330
244C
100
AcDbEntity
  8
LAYER_1
 62
     7
100
AcDbPolyline
 90
       12
 70
     1
 43
0.0
 10
-3.792361111111107
 20
10.7376736111111
 10
-2.469444444444443
 20
10.7376736111111
 10
-2.469444444444443
 20
1.874131944444444
 10
2.469444444444443
 20
1.874131944444444
 10
2.469444444444443
 20
10.7376736111111
 10
3.792361111111107
 20
10.7376736111111
 10
3.792361111111107
 20
-10.7376736111111
 10
2.469444444444443
 20
-10.7376736111111
 10
2.469444444444443
 20
-0.6835069444444444
 10
-2.469444444444443
 20
-0.6835069444444444
 10
-2.469444444444443
 20
-10.7376736111111
 10
-3.792361111111107
 20
-10.7376736111111
  0
HATCH
  5
244E
330
244C
100
AcDbEntity
  8
LAYER_1
 62
     7
100
AcDbHatch
 10
0.0
 20
0.0
 30
0.0
210
0.0
220
0.0
230
1.0
  2
SOLID
 70
     1
 71
     0
 91
        1
 92
        3
 72
     0
 73
     1
 93
       12
 10
-3.792361111111107
 20
10.7376736111111
 10
-2.469444444444443
 20
10.7376736111111
 10
-2.469444444444443
 20
1.874131944444444
 10
2.469444444444443
 20
1.874131944444444
 10
2.469444444444443
 20
10.7376736111111
 10
3.792361111111107
 20
10.7376736111111
 10
3.792361111111107
 20
-10.7376736111111
 10
2.469444444444443
 20
-10.7376736111111
 10
2.469444444444443
 20
-0.6835069444444444
 10
-2.469444444444443
 20
-0.6835069444444444
 10
-2.469444444444443
 20
-10.7376736111111
 10
-3.792361111111107
 20
-10.7376736111111
 97
        0
 75
     2
 76
     1
 98
        1
 10
0.0
 20
0.0
  0
ENDBLK
  5
2450
330
244C
100
AcDbEntity
  8
0
100
AcDbBlockEnd
  0
BLOCK
  5
2454
330
2451
100
AcDbEntity
  8
0
 62
     7
100
AcDbBlockBegin
  2
AI9-BLK11
 70
     0
 10
0.0
 20
0.0
 30
0.0
  3
AI9-BLK11
  1

  0
SPLINE
  5
2452
330
2451
100
AcDbEntity
  8
LAYER_1
 62
     7
100
AcDbSpline
210
0.0
220
0.0
230
1.0
 70
    11
 71
     3
 72
    26
 73
    22
 74
     0
 42
0.0000000001
 43
0.0000000001
 40
0.0
 40
0.0
 40
0.0
 40
0.0
 40
1.0
 40
1.0
 40
1.0
 40
2.0
 40
2.0
 40
2.0
 40
3.0
 40
3.0
 40
3.0
 40
4.0
 40
4.0
 40
4.0
 40
5.0
 40
5.0
 40
5.0
 40
6.0
 40
6.0
 40
6.0
 40
7.0
 40
7.0
 40
7.0
 40
7.0
 10
-2.645833333333333
 20
0.9039930555555551
 30
0.0
 10
-2.645833333333333
 20
0.9039930555555551
 30
0.0
 10
-2.645833333333333
 20
8.180034722222217
 30
0.0
 10
-2.645833333333333
 20
8.180034722222217
 30
0.0
 10
-2.645833333333333
 20
8.180034722222217
 30
0.0
 10
0.465087890625
 20
8.180034722222217
 30
0.0
 10
0.465087890625
 20
8.180034722222217
 30
0.0
 10
0.9026150173611108
 20
8.180034722222217
 30
0.0
 10
1.24988064236111
 20
8.034651692708331
 30
0.0
 10
1.506884765625
 20
7.745263671874997
 30
0.0
 10
2.001600477430554
 20
7.194048394097221
 30
0.0
 10
2.248958333333332
 20
6.160519748263887
 30
0.0
 10
2.248958333333332
 20
4.643299696180553
 30
0.0
 10
2.248958333333332
 20
3.232188585069443
 30
0.0
 10
2.072569444444444
 20
2.256537543402775
 30
0.0
 10
1.720480685763888
 20
1.715657552083333
 30
0.0
 10
1.368391927083333
 20
1.174088541666665
 30
0.0
 10
0.8929687499999998
 20
0.9039930555555551
 30
0.0
 10
0.2942111545138888
 20
0.9039930555555551
 30
0.0
 10
0.2942111545138888
 20
0.9039930555555551
 30
0.0
 10
-2.645833333333333
 20
0.9039930555555551
 30
0.0
 10
-2.645833333333333
 20
0.9039930555555551
 30
0.0
  0
SPLINE
  5
2453
330
2451
100
AcDbEntity
  8
LAYER_1
 62
     7
100
AcDbSpline
210
0.0
220
0.0
230
1.0
 70
    11
 71
     3
 72
    68
 73
    64
 74
     0
 42
0.0000000001
 43
0.0000000001
 40
0.0
 40
0.0
 40
0.0
 40
0.0
 40
1.0
 40
1.0
 40
1.0
 40
2.0
 40
2.0
 40
2.0
 40
3.0
 40
3.0
 40
3.0
 40
4.0
 40
4.0
 40
4.0
 40
5.0
 40
5.0
 40
5.0
 40
6.0
 40
6.0
 40
6.0
 40
7.0
 40
7.0
 40
7.0
 40
8.0
 40
8.0
 40
8.0
 40
9.0
 40
9.0
 40
9.0
 40
10.0
 40
10.0
 40
10.0
 40
11.0
 40
11.0
 40
11.0
 40
12.0
 40
12.0
 40
12.0
 40
13.0
 40
13.0
 40
13.0
 40
14.0
 40
14.0
 40
14.0
 40
15.0
 40
15.0
 40
15.0
 40
16.0
 40
16.0
 40
16.0
 40
17.0
 40
17.0
 40
17.0
 40
18.0
 40
18.0
 40
18.0
 40
19.0
 40
19.0
 40
19.0
 40
20.0
 40
20.0
 40
20.0
 40
21.0
 40
21.0
 40
21.0
 40
21.0
 10
-3.968749999999998
 20
-10.7376736111111
 30
0.0
 10
-3.968749999999998
 20
-10.7376736111111
 30
0.0
 10
-2.645833333333333
 20
-10.7376736111111
 30
0.0
 10
-2.645833333333333
 20
-10.7376736111111
 30
0.0
 10
-2.645833333333333
 20
-10.7376736111111
 30
0.0
 10
-2.645833333333333
 20
-1.521354166666665
 30
0.0
 10
-2.645833333333333
 20
-1.521354166666665
 30
0.0
 10
-2.645833333333333
 20
-1.521354166666665
 30
0.0
 10
0.2390896267361111
 20
-1.521354166666665
 30
0.0
 10
0.2390896267361111
 20
-1.521354166666665
 30
0.0
 10
0.7599880642361111
 20
-1.521354166666665
 30
0.0
 10
1.143771701388887
 20
-1.65295681423611
 30
0.0
 10
1.390440538194444
 20
-1.916162109374999
 30
0.0
 10
1.816254340277773
 20
-2.39434136284722
 30
0.0
 10
2.04363064236111
 20
-3.335541449652775
 30
0.0
 10
2.072569444444444
 20
-4.739762369791666
 30
0.0
 10
2.072569444444444
 20
-4.739762369791666
 30
0.0
 10
2.160763888888888
 20
-8.324039713541665
 30
0.0
 10
2.160763888888888
 20
-8.324039713541665
 30
0.0
 10
2.18005642361111
 20
-9.163264973958332
 30
0.0
 10
2.202794053819443
 20
-9.728949652777775
 30
0.0
 10
2.227598741319444
 20
-10.02109374999998
 30
0.0
 10
2.252403428819443
 20
-10.31392686631944
 30
0.0
 10
2.28892144097222
 20
-10.55301649305555
 30
0.0
 10
2.33853081597222
 20
-10.7376736111111
 30
0.0
 10
2.33853081597222
 20
-10.7376736111111
 30
0.0
 10
3.968749999999998
 20
-10.7376736111111
 30
0.0
 10
3.968749999999998
 20
-10.7376736111111
 30
0.0
 10
3.968749999999998
 20
-10.7376736111111
 30
0.0
 10
3.968749999999998
 20
-10.25260416666666
 30
0.0
 10
3.968749999999998
 20
-10.25260416666666
 30
0.0
 10
3.766867404513888
 20
-10.05830078125
 30
0.0
 10
3.625618489583333
 20
-9.621462673611112
 30
0.0
 10
3.545692274305555
 20
-8.942089843749997
 30
0.0
 10
3.49470486111111
 20
-8.543836805555555
 30
0.0
 10
3.459564887152775
 20
-7.937499999999999
 30
0.0
 10
3.439583333333333
 20
-7.121701388888887
 30
0.0
 10
3.439583333333333
 20
-7.121701388888887
 30
0.0
 10
3.395486111111106
 20
-4.232644314236106
 30
0.0
 10
3.395486111111106
 20
-4.232644314236106
 30
0.0
 10
3.375504557291666
 20
-2.981385633680555
 30
0.0
 10
3.26870659722222
 20
-2.077392578125
 30
0.0
 10
3.075781249999999
 20
-1.522043185763888
 30
0.0
 10
2.882166883680555
 20
-0.9666937934027776
 30
0.0
 10
2.592089843749999
 20
-0.5188313802083333
 30
0.0
 10
2.204861111111104
 20
-0.1770779079861111
 30
0.0
 10
2.63618706597222
 20
0.3197048611111111
 30
0.0
 10
2.971739366319443
 20
0.9770290798611107
 30
0.0
 10
3.211518012152775
 20
1.79558376736111
 30
0.0
 10
3.451296657986107
 20
2.613449435763888
 30
0.0
 10
3.571874999999999
 20
3.66558159722222
 30
0.0
 10
3.571874999999999
 20
4.951291232638888
 30
0.0
 10
3.571874999999999
 20
7.415912543402777
 30
0.0
 10
3.124701605902775
 20
9.106076388888887
 30
0.0
 10
2.231043836805555
 20
10.02178276909722
 30
0.0
 10
1.759754774305553
 20
10.498583984375
 30
0.0
 10
1.163753255208332
 20
10.7376736111111
 30
0.0
 10
0.443039279513889
 20
10.7376736111111
 30
0.0
 10
0.443039279513889
 20
10.7376736111111
 30
0.0
 10
-3.968749999999998
 20
10.7376736111111
 30
0.0
 10
-3.968749999999998
 20
10.7376736111111
 30
0.0
 10
-3.968749999999998
 20
10.7376736111111
 30
0.0
 10
-3.968749999999998
 20
-10.7376736111111
 30
0.0
 10
-3.968749999999998
 20
-10.7376736111111
 30
0.0
  0
ENDBLK
  5
2455
330
2451
100
AcDbEntity
  8
0
100
AcDbBlockEnd
  0
BLOCK
  5
2458
330
2456
100
AcDbEntity
  8
0
 62
     7
100
AcDbBlockBegin
  2
AI9-BLK10
 70
     0
 10
0.0
 20
0.0
 30
0.0
  3
AI9-BLK10
  1

  0
SPLINE
  5
2457
330
2456
100
AcDbEntity
  8
LAYER_1
 62
     7
100
AcDbSpline
210
0.0
220
0.0
230
1.0
 70
    11
 71
     3
 72
    59
 73
    55
 74
     0
 42
0.0000000001
 43
0.0000000001
 40
0.0
 40
0.0
 40
0.0
 40
0.0
 40
1.0
 40
1.0
 40
1.0
 40
2.0
 40
2.0
 40
2.0
 40
3.0
 40
3.0
 40
3.0
 40
4.0
 40
4.0
 40
4.0
 40
5.0
 40
5.0
 40
5.0
 40
6.0
 40
6.0
 40
6.0
 40
7.0
 40
7.0
 40
7.0
 40
8.0
 40
8.0
 40
8.0
 40
9.0
 40
9.0
 40
9.0
 40
10.0
 40
10.0
 40
10.0
 40
11.0
 40
11.0
 40
11.0
 40
12.0
 40
12.0
 40
12.0
 40
13.0
 40
13.0
 40
13.0
 40
14.0
 40
14.0
 40
14.0
 40
15.0
 40
15.0
 40
15.0
 40
16.0
 40
16.0
 40
16.0
 40
17.0
 40
17.0
 40
17.0
 40
18.0
 40
18.0
 40
18.0
 40
18.0
 10
-4.652256944444443
 20
10.7376736111111
 30
0.0
 10
-4.652256944444443
 20
10.7376736111111
 30
0.0
 10
-2.798795572916666
 20
10.7376736111111
 30
0.0
 10
-2.798795572916666
 20
10.7376736111111
 30
0.0
 10
-2.798795572916666
 20
10.7376736111111
 30
0.0
 10
0.0
 20
-7.419357638888887
 30
0.0
 10
0.0
 20
-7.419357638888887
 30
0.0
 10
0.0
 20
-7.419357638888887
 30
0.0
 10
2.793283420138888
 20
10.7376736111111
 30
0.0
 10
2.793283420138888
 20
10.7376736111111
 30
0.0
 10
2.793283420138888
 20
10.7376736111111
 30
0.0
 10
4.652256944444443
 20
10.7376736111111
 30
0.0
 10
4.652256944444443
 20
10.7376736111111
 30
0.0
 10
4.652256944444443
 20
10.7376736111111
 30
0.0
 10
4.652256944444443
 20
-10.7376736111111
 30
0.0
 10
4.652256944444443
 20
-10.7376736111111
 30
0.0
 10
4.652256944444443
 20
-10.7376736111111
 30
0.0
 10
3.41753472222222
 20
-10.7376736111111
 30
0.0
 10
3.41753472222222
 20
-10.7376736111111
 30
0.0
 10
3.41753472222222
 20
-10.7376736111111
 30
0.0
 10
3.41753472222222
 20
1.936832682291665
 30
0.0
 10
3.41753472222222
 20
1.936832682291665
 30
0.0
 10
3.41753472222222
 20
2.375048828124999
 30
0.0
 10
3.424424913194443
 20
3.101274956597221
 30
0.0
 10
3.439583333333333
 20
4.11482204861111
 30
0.0
 10
3.454052734374998
 20
5.128369140624998
 30
0.0
 10
3.461631944444443
 20
6.214952256944441
 30
0.0
 10
3.461631944444443
 20
7.375260416666666
 30
0.0
 10
3.461631944444443
 20
7.375260416666666
 30
0.0
 10
0.6538791232638889
 20
-10.7376736111111
 30
0.0
 10
0.6538791232638889
 20
-10.7376736111111
 30
0.0
 10
0.6538791232638889
 20
-10.7376736111111
 30
0.0
 10
-0.6628363715277778
 20
-10.7376736111111
 30
0.0
 10
-0.6628363715277778
 20
-10.7376736111111
 30
0.0
 10
-0.6628363715277778
 20
-10.7376736111111
 30
0.0
 10
-3.461631944444443
 20
7.375260416666666
 30
0.0
 10
-3.461631944444443
 20
7.375260416666666
 30
0.0
 10
-3.461631944444443
 20
7.375260416666666
 30
0.0
 10
-3.461631944444443
 20
6.717247178819441
 30
0.0
 10
-3.461631944444443
 20
6.717247178819441
 30
0.0
 10
-3.461631944444443
 20
6.190836588541666
 30
0.0
 10
-3.45474175347222
 20
5.389507378472222
 30
0.0
 10
-3.439583333333333
 20
4.312570529513888
 30
0.0
 10
-3.425113932291666
 20
3.235633680555555
 30
0.0
 10
-3.41753472222222
 20
2.44395073784722
 30
0.0
 10
-3.41753472222222
 20
1.936832682291665
 30
0.0
 10
-3.41753472222222
 20
1.936832682291665
 30
0.0
 10
-3.41753472222222
 20
-10.7376736111111
 30
0.0
 10
-3.41753472222222
 20
-10.7376736111111
 30
0.0
 10
-3.41753472222222
 20
-10.7376736111111
 30
0.0
 10
-4.652256944444443
 20
-10.7376736111111
 30
0.0
 10
-4.652256944444443
 20
-10.7376736111111
 30
0.0
 10
-4.652256944444443
 20
-10.7376736111111
 30
0.0
 10
-4.652256944444443
 20
10.7376736111111
 30
0.0
 10
-4.652256944444443
 20
10.7376736111111
 30
0.0
  0
ENDBLK
  5
2459
330
2456
100
AcDbEntity
  8
0
100
AcDbBlockEnd
  0
BLOCK
  5
245D
330
245A
100
AcDbEntity
  8
0
 62
     7
100
AcDbBlockBegin
  2
AI9-BLK9
 70
     0
 10
0.0
 20
0.0
 30
0.0
  3
AI9-BLK9
  1

  0
SPLINE
  5
245B
330
245A
100
AcDbEntity
  8
LAYER_1
 62
     7
100
AcDbSpline
210
0.0
220
0.0
230
1.0
 70
    11
 71
     3
 72
    29
 73
    25
 74
     0
 42
0.0000000001
 43
0.0000000001
 40
0.0
 40
0.0
 40
0.0
 40
0.0
 40
1.0
 40
1.0
 40
1.0
 40
2.0
 40
2.0
 40
2.0
 40
3.0
 40
3.0
 40
3.0
 40
4.0
 40
4.0
 40
4.0
 40
5.0
 40
5.0
 40
5.0
 40
6.0
 40
6.0
 40
6.0
 40
7.0
 40
7.0
 40
7.0
 40
8.0
 40
8.0
 40
8.0
 40
8.0
 10
0.0668348524305556
 20
-8.753298611111111
 30
0.0
 10
-0.9067491319444444
 20
-8.753298611111111
 30
0.0
 10
-1.60954861111111
 20
-7.936810980902778
 30
0.0
 10
-2.041563585069444
 20
-6.30383572048611
 30
0.0
 10
-2.474267578124999
 20
-4.670860460069443
 30
0.0
 10
-2.689930555555555
 20
-2.664436848958333
 30
0.0
 10
-2.689930555555555
 20
-0.28525390625
 30
0.0
 10
-2.689930555555555
 20
2.68855251736111
 30
0.0
 10
-2.439127604166666
 20
4.938199869791666
 30
0.0
 10
-1.937521701388888
 20
6.464377170138886
 30
0.0
 10
-1.43591579861111
 20
7.989865451388887
 30
0.0
 10
-0.7827256944444444
 20
8.753298611111111
 30
0.0
 10
0.0220486111111111
 20
8.753298611111111
 30
0.0
 10
0.8468044704861108
 20
8.753298611111111
 30
0.0
 10
1.49792751736111
 20
7.982975260416663
 30
0.0
 10
1.974728732638888
 20
6.442328559027776
 30
0.0
 10
2.451529947916665
 20
4.901681857638886
 30
0.0
 10
2.689930555555555
 20
2.868386501736111
 30
0.0
 10
2.689930555555555
 20
0.3438205295138888
 30
0.0
 10
2.689930555555555
 20
-2.045697699652774
 30
0.0
 10
2.483224826388884
 20
-4.15891927083333
 30
0.0
 10
2.071191406249999
 20
-5.996533203124998
 30
0.0
 10
1.65915798611111
 20
-7.834836154513887
 30
0.0
 10
0.9908094618055557
 20
-8.753298611111111
 30
0.0
 10
0.0668348524305556
 20
-8.753298611111111
 30
0.0
  0
SPLINE
  5
245C
330
245A
100
AcDbEntity
  8
LAYER_1
 62
     7
100
AcDbSpline
210
0.0
220
0.0
230
1.0
 70
    11
 71
     3
 72
    29
 73
    25
 74
     0
 42
0.0000000001
 43
0.0000000001
 40
0.0
 40
0.0
 40
0.0
 40
0.0
 40
1.0
 40
1.0
 40
1.0
 40
2.0
 40
2.0
 40
2.0
 40
3.0
 40
3.0
 40
3.0
 40
4.0
 40
4.0
 40
4.0
 40
5.0
 40
5.0
 40
5.0
 40
6.0
 40
6.0
 40
6.0
 40
7.0
 40
7.0
 40
7.0
 40
8.0
 40
8.0
 40
8.0
 40
8.0
 10
-0.0289388020833333
 20
11.35503472222222
 30
0.0
 10
-1.317404513888887
 20
11.35503472222222
 30
0.0
 10
-2.28892144097222
 20
10.02798394097222
 30
0.0
 10
-2.94280056423611
 20
7.374571397569441
 30
0.0
 10
-3.450607638888888
 20
5.30613606770833
 30
0.0
 10
-3.704166666666666
 20
2.81877712673611
 30
0.0
 10
-3.704166666666666
 20
-0.0881944444444445
 30
0.0
 10
-3.704166666666666
 20
-3.307291666666666
 30
0.0
 10
-3.406510416666666
 20
-5.97035047743055
 30
0.0
 10
-2.811197916666666
 20
-8.077370876736106
 30
0.0
 10
-2.147672526041664
 20
-10.26293945312499
 30
0.0
 10
-1.229899088541666
 20
-11.35503472222222
 30
0.0
 10
-0.0585666232638889
 20
-11.35503472222222
 30
0.0
 10
1.20027126736111
 20
-11.35503472222222
 30
0.0
 10
2.166276041666665
 20
-10.10653211805555
 30
0.0
 10
2.840136718749998
 20
-7.609526909722221
 30
0.0
 10
3.416156684027776
 20
-5.483213975694441
 30
0.0
 10
3.704166666666666
 20
-2.814643012152775
 30
0.0
 10
3.704166666666666
 20
0.3948079427083333
 30
0.0
 10
3.704166666666666
 20
3.360346137152776
 30
0.0
 10
3.449918619791666
 20
5.793961588541666
 30
0.0
 10
2.94280056423611
 20
7.696343315972222
 30
0.0
 10
2.298567708333333
 20
10.13547092013888
 30
0.0
 10
1.307758246527777
 20
11.35503472222222
 30
0.0
 10
-0.0289388020833333
 20
11.35503472222222
 30
0.0
  0
ENDBLK
  5
245E
330
245A
100
AcDbEntity
  8
0
100
AcDbBlockEnd
  0
BLOCK
  5
2462
330
245F
100
AcDbEntity
  8
0
 62
     7
100
AcDbBlockBegin
  2
AI9-BLK8
 70
     0
 10
0.0
 20
0.0
 30
0.0
  3
AI9-BLK8
  1

  0
LWPOLYLINE
  5
2460
330
245F
100
AcDbEntity
  8
LAYER_1
 62
     7
100
AcDbPolyline
 90
       10
 70
     1
 43
0.0
 10
-3.792361111111107
 20
10.7376736111111
 10
-2.268939887152773
 20
10.7376736111111
 10
2.557638888888888
 20
-6.505718315972222
 10
2.557638888888888
 20
10.7376736111111
 10
3.792361111111107
 20
10.7376736111111
 10
3.792361111111107
 20
-10.7376736111111
 10
2.32612847222222
 20
-10.7376736111111
 10
-2.557638888888888
 20
6.549815538194441
 10
-2.557638888888888
 20
-10.7376736111111
 10
-3.792361111111107
 20
-10.7376736111111
  0
HATCH
  5
2461
330
245F
100
AcDbEntity
  8
LAYER_1
 62
     7
100
AcDbHatch
 10
0.0
 20
0.0
 30
0.0
210
0.0
220
0.0
230
1.0
  2
SOLID
 70
     1
 71
     0
 91
        1
 92
        3
 72
     0
 73
     1
 93
       10
 10
-3.792361111111107
 20
10.7376736111111
 10
-2.268939887152773
 20
10.7376736111111
 10
2.557638888888888
 20
-6.505718315972222
 10
2.557638888888888
 20
10.7376736111111
 10
3.792361111111107
 20
10.7376736111111
 10
3.792361111111107
 20
-10.7376736111111
 10
2.32612847222222
 20
-10.7376736111111
 10
-2.557638888888888
 20
6.549815538194441
 10
-2.557638888888888
 20
-10.7376736111111
 10
-3.792361111111107
 20
-10.7376736111111
 97
        0
 75
     2
 76
     1
 98
        1
 10
0.0
 20
0.0
  0
ENDBLK
  5
2463
330
245F
100
AcDbEntity
  8
0
100
AcDbBlockEnd
  0
BLOCK
  5
2467
330
2464
100
AcDbEntity
  8
0
 62
     7
100
AcDbBlockBegin
  2
AI9-BLK7
 70
     0
 10
0.0
 20
0.0
 30
0.0
  3
AI9-BLK7
  1

  0
LWPOLYLINE
  5
2465
330
2464
100
AcDbEntity
  8
LAYER_1
 62
     7
100
AcDbPolyline
 90
        4
 70
     1
 43
0.0
 10
-0.6614583333333333
 20
10.7376736111111
 10
0.6614583333333333
 20
10.7376736111111
 10
0.6614583333333333
 20
-10.7376736111111
 10
-0.6614583333333333
 20
-10.7376736111111
  0
HATCH
  5
2466
330
2464
100
AcDbEntity
  8
LAYER_1
 62
     7
100
AcDbHatch
 10
0.0
 20
0.0
 30
0.0
210
0.0
220
0.0
230
1.0
  2
SOLID
 70
     1
 71
     0
 91
        1
 92
        3
 72
     0
 73
     1
 93
        4
 10
-0.6614583333333333
 20
10.7376736111111
 10
0.6614583333333333
 20
10.7376736111111
 10
0.6614583333333333
 20
-10.7376736111111
 10
-0.6614583333333333
 20
-10.7376736111111
 97
        0
 75
     2
 76
     1
 98
        1
 10
0.0
 20
0.0
  0
ENDBLK
  5
2468
330
2464
100
AcDbEntity
  8
0
100
AcDbBlockEnd
  0
BLOCK
  5
246B
330
2469
100
AcDbEntity
  8
0
 62
     7
100
AcDbBlockBegin
  2
AI9-BLK6
 70
     0
 10
0.0
 20
0.0
 30
0.0
  3
AI9-BLK6
  1

  0
SPLINE
  5
246A
330
2469
100
AcDbEntity
  8
LAYER_1
 62
     7
100
AcDbSpline
210
0.0
220
0.0
230
1.0
 70
    11
 71
     3
 72
    59
 73
    55
 74
     0
 42
0.0000000001
 43
0.0000000001
 40
0.0
 40
0.0
 40
0.0
 40
0.0
 40
1.0
 40
1.0
 40
1.0
 40
2.0
 40
2.0
 40
2.0
 40
3.0
 40
3.0
 40
3.0
 40
4.0
 40
4.0
 40
4.0
 40
5.0
 40
5.0
 40
5.0
 40
6.0
 40
6.0
 40
6.0
 40
7.0
 40
7.0
 40
7.0
 40
8.0
 40
8.0
 40
8.0
 40
9.0
 40
9.0
 40
9.0
 40
10.0
 40
10.0
 40
10.0
 40
11.0
 40
11.0
 40
11.0
 40
12.0
 40
12.0
 40
12.0
 40
13.0
 40
13.0
 40
13.0
 40
14.0
 40
14.0
 40
14.0
 40
15.0
 40
15.0
 40
15.0
 40
16.0
 40
16.0
 40
16.0
 40
17.0
 40
17.0
 40
17.0
 40
18.0
 40
18.0
 40
18.0
 40
18.0
 10
3.062689887152775
 20
9.168088107638887
 30
0.0
 10
3.735172526041666
 20
7.739062499999997
 30
0.0
 10
4.110687934027776
 20
6.116422526041666
 30
0.0
 10
4.189236111111108
 20
4.299479166666666
 30
0.0
 10
4.189236111111108
 20
4.299479166666666
 30
0.0
 10
2.866319444444443
 20
4.299479166666666
 30
0.0
 10
2.866319444444443
 20
4.299479166666666
 30
0.0
 10
2.720936414930555
 20
5.667871093749997
 30
0.0
 10
2.435682508680555
 20
6.752387152777776
 30
0.0
 10
2.009868706597218
 20
7.553027343749997
 30
0.0
 10
1.584054904513888
 20
8.352978515624997
 30
0.0
 10
0.9839192708333332
 20
8.753298611111111
 30
0.0
 10
0.2101508246527778
 20
8.753298611111111
 30
0.0
 10
-0.7386284722222222
 20
8.753298611111111
 30
0.0
 10
-1.503439670138888
 20
8.010536024305555
 30
0.0
 10
-2.083593749999999
 20
6.526388888888886
 30
0.0
 10
-2.664436848958333
 20
5.042241753472221
 30
0.0
 10
-2.954513888888888
 20
2.767100694444443
 30
0.0
 10
-2.954513888888888
 20
-0.2990342881944444
 30
0.0
 10
-2.954513888888888
 20
-2.811197916666666
 30
0.0
 10
-2.693375651041666
 20
-4.847938368055555
 30
0.0
 10
-2.17041015625
 20
-6.409944661458332
 30
0.0
 10
-1.648133680555553
 20
-7.972639973958332
 30
0.0
 10
-0.8640299479166666
 20
-8.753298611111111
 30
0.0
 10
0.1812120225694444
 20
-8.753298611111111
 30
0.0
 10
1.138948567708333
 20
-8.753298611111111
 30
0.0
 10
1.865174696180553
 20
-7.927853732638887
 30
0.0
 10
2.359201388888884
 20
-6.275585937499998
 30
0.0
 10
2.62998589409722
 20
-5.406043836805555
 30
0.0
 10
2.828423394097221
 20
-4.262272135416666
 30
0.0
 10
2.954513888888888
 20
-2.844270833333331
 30
0.0
 10
2.954513888888888
 20
-2.844270833333331
 30
0.0
 10
4.277430555555555
 20
-2.844270833333331
 30
0.0
 10
4.277430555555555
 20
-2.844270833333331
 30
0.0
 10
4.169943576388888
 20
-5.109765624999996
 30
0.0
 10
3.795117187499998
 20
-7.009391276041665
 30
0.0
 10
3.151573350694443
 20
-8.542458767361106
 30
0.0
 10
2.381249999999999
 20
-10.38834092881943
 30
0.0
 10
1.347721354166665
 20
-11.3109375
 30
0.0
 10
0.0509874131944445
 20
-11.3109375
 30
0.0
 10
-1.07004665798611
 20
-11.3109375
 30
0.0
 10
-2.010557725694444
 20
-10.55577256944443
 30
0.0
 10
-2.771234809027776
 20
-9.04475368923611
 30
0.0
 10
-3.775824652777775
 20
-7.046598307291666
 30
0.0
 10
-4.277430555555555
 20
-3.961170789930555
 30
0.0
 10
-4.277430555555555
 20
0.2115288628472222
 30
0.0
 10
-4.277430555555555
 20
3.379638671874998
 30
0.0
 10
-3.902604166666666
 20
5.977929687499997
 30
0.0
 10
-3.151573350694443
 20
8.005712890624996
 30
0.0
 10
-2.333018663194443
 20
10.20919596354165
 30
0.0
 10
-1.20647243923611
 20
11.3109375
 30
0.0
 10
0.2266872829861111
 20
11.3109375
 30
0.0
 10
1.444873046875
 20
11.3109375
 30
0.0
 10
2.390207248263884
 20
10.59642469618055
 30
0.0
 10
3.062689887152775
 20
9.168088107638887
 30
0.0
  0
ENDBLK
  5
246C
330
2469
100
AcDbEntity
  8
0
100
AcDbBlockEnd
  0
BLOCK
  5
2470
330
246D
100
AcDbEntity
  8
0
 62
     7
100
AcDbBlockBegin
  2
AI9-BLK5
 70
     0
 10
0.0
 20
0.0
 30
0.0
  3
AI9-BLK5
  1

  0
SPLINE
  5
246E
330
246D
100
AcDbEntity
  8
LAYER_1
 62
     7
100
AcDbSpline
210
0.0
220
0.0
230
1.0
 70
    11
 71
     3
 72
    32
 73
    28
 74
     0
 42
0.0000000001
 43
0.0000000001
 40
0.0
 40
0.0
 40
0.0
 40
0.0
 40
1.0
 40
1.0
 40
1.0
 40
2.0
 40
2.0
 40
2.0
 40
3.0
 40
3.0
 40
3.0
 40
4.0
 40
4.0
 40
4.0
 40
5.0
 40
5.0
 40
5.0
 40
6.0
 40
6.0
 40
6.0
 40
7.0
 40
7.0
 40
7.0
 40
8.0
 40
8.0
 40
8.0
 40
9.0
 40
9.0
 40
9.0
 40
9.0
 10
-2.62378472222222
 20
-8.268229166666666
 30
0.0
 10
-2.62378472222222
 20
-8.268229166666666
 30
0.0
 10
-2.62378472222222
 20
8.180034722222217
 30
0.0
 10
-2.62378472222222
 20
8.180034722222217
 30
0.0
 10
-2.62378472222222
 20
8.180034722222217
 30
0.0
 10
-0.3376193576388888
 20
8.180034722222217
 30
0.0
 10
-0.3376193576388888
 20
8.180034722222217
 30
0.0
 10
0.6972873263888888
 20
8.180034722222217
 30
0.0
 10
1.449007161458333
 20
7.445540364583332
 30
0.0
 10
1.918918185763885
 20
5.977929687499997
 30
0.0
 10
2.388829210069443
 20
4.510319010416666
 30
0.0
 10
2.62378472222222
 20
2.449462890624999
 30
0.0
 10
2.62378472222222
 20
-0.204638671875
 30
0.0
 10
2.62378472222222
 20
-0.8950358072916666
 30
0.0
 10
2.590022786458332
 20
-1.643310546874999
 30
0.0
 10
2.523187934027772
 20
-2.45015190972222
 30
0.0
 10
2.408121744791666
 20
-3.80200737847222
 30
0.0
 10
2.226220703124999
 20
-4.909950086805555
 30
0.0
 10
1.976795789930553
 20
-5.774669053819441
 30
0.0
 10
1.659847005208333
 20
-6.853672960069442
 30
0.0
 10
1.252636718749998
 20
-7.583344184027778
 30
0.0
 10
0.7544759114583333
 20
-7.962304687499997
 30
0.0
 10
0.4664659288194444
 20
-8.166254340277777
 30
0.0
 10
0.1074869791666666
 20
-8.268229166666666
 30
0.0
 10
-0.3231499565972222
 20
-8.268229166666666
 30
0.0
 10
-0.3231499565972222
 20
-8.268229166666666
 30
0.0
 10
-2.62378472222222
 20
-8.268229166666666
 30
0.0
 10
-2.62378472222222
 20
-8.268229166666666
 30
0.0
  0
SPLINE
  5
246F
330
246D
100
AcDbEntity
  8
LAYER_1
 62
     7
100
AcDbSpline
210
0.0
220
0.0
230
1.0
 70
    11
 71
     3
 72
    26
 73
    22
 74
     0
 42
0.0000000001
 43
0.0000000001
 40
0.0
 40
0.0
 40
0.0
 40
0.0
 40
1.0
 40
1.0
 40
1.0
 40
2.0
 40
2.0
 40
2.0
 40
3.0
 40
3.0
 40
3.0
 40
4.0
 40
4.0
 40
4.0
 40
5.0
 40
5.0
 40
5.0
 40
6.0
 40
6.0
 40
6.0
 40
7.0
 40
7.0
 40
7.0
 40
7.0
 10
-3.946701388888888
 20
-10.7376736111111
 30
0.0
 10
-3.946701388888888
 20
-10.7376736111111
 30
0.0
 10
-0.0943956163194444
 20
-10.7376736111111
 30
0.0
 10
-0.0943956163194444
 20
-10.7376736111111
 30
0.0
 10
1.546847873263885
 20
-10.7376736111111
 30
0.0
 10
2.705777994791666
 20
-9.11021050347222
 30
0.0
 10
3.381705729166666
 20
-5.854595269097222
 30
0.0
 10
3.757910156249999
 20
-4.01284722222222
 30
0.0
 10
3.946701388888888
 20
-1.951991102430555
 30
0.0
 10
3.946701388888888
 20
0.328662109375
 30
0.0
 10
3.946701388888888
 20
3.281797960069443
 30
0.0
 10
3.622862413194443
 20
5.703700086805552
 30
0.0
 10
2.976562499999998
 20
7.594368489583332
 30
0.0
 10
2.25171440972222
 20
9.689675564236106
 30
0.0
 10
1.233344184027777
 20
10.7376736111111
 30
0.0
 10
-0.0799262152777778
 20
10.7376736111111
 30
0.0
 10
-0.0799262152777778
 20
10.7376736111111
 30
0.0
 10
-3.946701388888888
 20
10.7376736111111
 30
0.0
 10
-3.946701388888888
 20
10.7376736111111
 30
0.0
 10
-3.946701388888888
 20
10.7376736111111
 30
0.0
 10
-3.946701388888888
 20
-10.7376736111111
 30
0.0
 10
-3.946701388888888
 20
-10.7376736111111
 30
0.0
  0
ENDBLK
  5
2471
330
246D
100
AcDbEntity
  8
0
100
AcDbBlockEnd
  0
BLOCK
  5
2475
330
2472
100
AcDbEntity
  8
0
 62
     7
100
AcDbBlockBegin
  2
AI9-BLK4
 70
     0
 10
0.0
 20
0.0
 30
0.0
  3
AI9-BLK4
  1

  0
SPLINE
  5
2473
330
2472
100
AcDbEntity
  8
LAYER_1
 62
     7
100
AcDbSpline
210
0.0
220
0.0
230
1.0
 70
    11
 71
     3
 72
    26
 73
    22
 74
     0
 42
0.0000000001
 43
0.0000000001
 40
0.0
 40
0.0
 40
0.0
 40
0.0
 40
1.0
 40
1.0
 40
1.0
 40
2.0
 40
2.0
 40
2.0
 40
3.0
 40
3.0
 40
3.0
 40
4.0
 40
4.0
 40
4.0
 40
5.0
 40
5.0
 40
5.0
 40
6.0
 40
6.0
 40
6.0
 40
7.0
 40
7.0
 40
7.0
 40
7.0
 10
-2.645833333333333
 20
0.9039930555555551
 30
0.0
 10
-2.645833333333333
 20
0.9039930555555551
 30
0.0
 10
-2.645833333333333
 20
8.180034722222217
 30
0.0
 10
-2.645833333333333
 20
8.180034722222217
 30
0.0
 10
-2.645833333333333
 20
8.180034722222217
 30
0.0
 10
0.465087890625
 20
8.180034722222217
 30
0.0
 10
0.465087890625
 20
8.180034722222217
 30
0.0
 10
0.9026150173611108
 20
8.180034722222217
 30
0.0
 10
1.24988064236111
 20
8.034651692708331
 30
0.0
 10
1.506884765625
 20
7.745263671874997
 30
0.0
 10
2.001600477430554
 20
7.194048394097221
 30
0.0
 10
2.248958333333332
 20
6.160519748263887
 30
0.0
 10
2.248958333333332
 20
4.643299696180553
 30
0.0
 10
2.248958333333332
 20
3.232188585069443
 30
0.0
 10
2.072569444444444
 20
2.256537543402775
 30
0.0
 10
1.720480685763888
 20
1.715657552083333
 30
0.0
 10
1.368391927083333
 20
1.174088541666665
 30
0.0
 10
0.8929687499999998
 20
0.9039930555555551
 30
0.0
 10
0.2942111545138888
 20
0.9039930555555551
 30
0.0
 10
0.2942111545138888
 20
0.9039930555555551
 30
0.0
 10
-2.645833333333333
 20
0.9039930555555551
 30
0.0
 10
-2.645833333333333
 20
0.9039930555555551
 30
0.0
  0
SPLINE
  5
2474
330
2472
100
AcDbEntity
  8
LAYER_1
 62
     7
100
AcDbSpline
210
0.0
220
0.0
230
1.0
 70
    11
 71
     3
 72
    68
 73
    64
 74
     0
 42
0.0000000001
 43
0.0000000001
 40
0.0
 40
0.0
 40
0.0
 40
0.0
 40
1.0
 40
1.0
 40
1.0
 40
2.0
 40
2.0
 40
2.0
 40
3.0
 40
3.0
 40
3.0
 40
4.0
 40
4.0
 40
4.0
 40
5.0
 40
5.0
 40
5.0
 40
6.0
 40
6.0
 40
6.0
 40
7.0
 40
7.0
 40
7.0
 40
8.0
 40
8.0
 40
8.0
 40
9.0
 40
9.0
 40
9.0
 40
10.0
 40
10.0
 40
10.0
 40
11.0
 40
11.0
 40
11.0
 40
12.0
 40
12.0
 40
12.0
 40
13.0
 40
13.0
 40
13.0
 40
14.0
 40
14.0
 40
14.0
 40
15.0
 40
15.0
 40
15.0
 40
16.0
 40
16.0
 40
16.0
 40
17.0
 40
17.0
 40
17.0
 40
18.0
 40
18.0
 40
18.0
 40
19.0
 40
19.0
 40
19.0
 40
20.0
 40
20.0
 40
20.0
 40
21.0
 40
21.0
 40
21.0
 40
21.0
 10
-3.968749999999998
 20
-10.7376736111111
 30
0.0
 10
-3.968749999999998
 20
-10.7376736111111
 30
0.0
 10
-2.645833333333333
 20
-10.7376736111111
 30
0.0
 10
-2.645833333333333
 20
-10.7376736111111
 30
0.0
 10
-2.645833333333333
 20
-10.7376736111111
 30
0.0
 10
-2.645833333333333
 20
-1.521354166666665
 30
0.0
 10
-2.645833333333333
 20
-1.521354166666665
 30
0.0
 10
-2.645833333333333
 20
-1.521354166666665
 30
0.0
 10
0.2390896267361111
 20
-1.521354166666665
 30
0.0
 10
0.2390896267361111
 20
-1.521354166666665
 30
0.0
 10
0.7599880642361111
 20
-1.521354166666665
 30
0.0
 10
1.143771701388887
 20
-1.65295681423611
 30
0.0
 10
1.390440538194444
 20
-1.916162109374999
 30
0.0
 10
1.816254340277773
 20
-2.39434136284722
 30
0.0
 10
2.04363064236111
 20
-3.335541449652775
 30
0.0
 10
2.072569444444444
 20
-4.739762369791666
 30
0.0
 10
2.072569444444444
 20
-4.739762369791666
 30
0.0
 10
2.160763888888888
 20
-8.324039713541665
 30
0.0
 10
2.160763888888888
 20
-8.324039713541665
 30
0.0
 10
2.18005642361111
 20
-9.163264973958332
 30
0.0
 10
2.202794053819443
 20
-9.728949652777775
 30
0.0
 10
2.227598741319444
 20
-10.02109374999998
 30
0.0
 10
2.252403428819443
 20
-10.31392686631944
 30
0.0
 10
2.28892144097222
 20
-10.55301649305555
 30
0.0
 10
2.33853081597222
 20
-10.7376736111111
 30
0.0
 10
2.33853081597222
 20
-10.7376736111111
 30
0.0
 10
3.968749999999998
 20
-10.7376736111111
 30
0.0
 10
3.968749999999998
 20
-10.7376736111111
 30
0.0
 10
3.968749999999998
 20
-10.7376736111111
 30
0.0
 10
3.968749999999998
 20
-10.25260416666666
 30
0.0
 10
3.968749999999998
 20
-10.25260416666666
 30
0.0
 10
3.766867404513888
 20
-10.05830078125
 30
0.0
 10
3.625618489583333
 20
-9.621462673611112
 30
0.0
 10
3.545692274305555
 20
-8.942089843749997
 30
0.0
 10
3.49470486111111
 20
-8.543836805555555
 30
0.0
 10
3.459564887152775
 20
-7.937499999999999
 30
0.0
 10
3.439583333333333
 20
-7.121701388888887
 30
0.0
 10
3.439583333333333
 20
-7.121701388888887
 30
0.0
 10
3.395486111111106
 20
-4.232644314236106
 30
0.0
 10
3.395486111111106
 20
-4.232644314236106
 30
0.0
 10
3.375504557291666
 20
-2.981385633680555
 30
0.0
 10
3.26870659722222
 20
-2.077392578125
 30
0.0
 10
3.075781249999999
 20
-1.522043185763888
 30
0.0
 10
2.882166883680555
 20
-0.9666937934027776
 30
0.0
 10
2.592089843749999
 20
-0.5188313802083333
 30
0.0
 10
2.204861111111104
 20
-0.1770779079861111
 30
0.0
 10
2.63618706597222
 20
0.3197048611111111
 30
0.0
 10
2.971739366319443
 20
0.9770290798611107
 30
0.0
 10
3.211518012152775
 20
1.79558376736111
 30
0.0
 10
3.451296657986107
 20
2.613449435763888
 30
0.0
 10
3.571874999999999
 20
3.66558159722222
 30
0.0
 10
3.571874999999999
 20
4.951291232638888
 30
0.0
 10
3.571874999999999
 20
7.415912543402777
 30
0.0
 10
3.124701605902775
 20
9.106076388888887
 30
0.0
 10
2.231043836805555
 20
10.02178276909722
 30
0.0
 10
1.759754774305553
 20
10.498583984375
 30
0.0
 10
1.163753255208332
 20
10.7376736111111
 30
0.0
 10
0.443039279513889
 20
10.7376736111111
 30
0.0
 10
0.443039279513889
 20
10.7376736111111
 30
0.0
 10
-3.968749999999998
 20
10.7376736111111
 30
0.0
 10
-3.968749999999998
 20
10.7376736111111
 30
0.0
 10
-3.968749999999998
 20
10.7376736111111
 30
0.0
 10
-3.968749999999998
 20
-10.7376736111111
 30
0.0
 10
-3.968749999999998
 20
-10.7376736111111
 30
0.0
  0
ENDBLK
  5
2476
330
2472
100
AcDbEntity
  8
0
100
AcDbBlockEnd
  0
BLOCK
  5
247A
330
2477
100
AcDbEntity
  8
0
 62
     7
100
AcDbBlockBegin
  2
AI9-BLK3
 70
     0
 10
0.0
 20
0.0
 30
0.0
  3
AI9-BLK3
  1

  0
LWPOLYLINE
  5
2478
330
2477
100
AcDbEntity
  8
LAYER_1
 62
     7
100
AcDbPolyline
 90
        4
 70
     1
 43
0.0
 10
-0.6613722059461809
 20
10.7376736111111
 10
0.6613722059461809
 20
10.7376736111111
 10
0.6613722059461809
 20
-10.7376736111111
 10
-0.6613722059461809
 20
-10.7376736111111
  0
HATCH
  5
2479
330
2477
100
AcDbEntity
  8
LAYER_1
 62
     7
100
AcDbHatch
 10
0.0
 20
0.0
 30
0.0
210
0.0
220
0.0
230
1.0
  2
SOLID
 70
     1
 71
     0
 91
        1
 92
        3
 72
     0
 73
     1
 93
        4
 10
-0.6613722059461809
 20
10.7376736111111
 10
0.6613722059461809
 20
10.7376736111111
 10
0.6613722059461809
 20
-10.7376736111111
 10
-0.6613722059461809
 20
-10.7376736111111
 97
        0
 75
     2
 76
     1
 98
        1
 10
0.0
 20
0.0
  0
ENDBLK
  5
247B
330
2477
100
AcDbEntity
  8
0
100
AcDbBlockEnd
  0
BLOCK
  5
247F
330
247C
100
AcDbEntity
  8
0
 62
     7
100
AcDbBlockBegin
  2
AI9-BLK2
 70
     0
 10
0.0
 20
0.0
 30
0.0
  3
AI9-BLK2
  1

  0
LWPOLYLINE
  5
247D
330
247C
100
AcDbEntity
  8
LAYER_1
 62
     7
100
AcDbPolyline
 90
        7
 70
     1
 43
0.0
 10
-2.785704210069443
 20
10.7376736111111
 10
0.0
 20
-7.550960286458332
 10
2.771234809027776
 20
10.7376736111111
 10
4.233333333333331
 20
10.7376736111111
 10
0.6910861545138888
 20
-10.7376736111111
 10
-0.7055555555555558
 20
-10.7376736111111
 10
-4.233333333333331
 20
10.7376736111111
  0
HATCH
  5
247E
330
247C
100
AcDbEntity
  8
LAYER_1
 62
     7
100
AcDbHatch
 10
0.0
 20
0.0
 30
0.0
210
0.0
220
0.0
230
1.0
  2
SOLID
 70
     1
 71
     0
 91
        1
 92
        3
 72
     0
 73
     1
 93
        7
 10
-2.785704210069443
 20
10.7376736111111
 10
0.0
 20
-7.550960286458332
 10
2.771234809027776
 20
10.7376736111111
 10
4.233333333333331
 20
10.7376736111111
 10
0.6910861545138888
 20
-10.7376736111111
 10
-0.7055555555555558
 20
-10.7376736111111
 10
-4.233333333333331
 20
10.7376736111111
 97
        0
 75
     2
 76
     1
 98
        1
 10
0.0
 20
0.0
  0
ENDBLK
  5
2480
330
247C
100
AcDbEntity
  8
0
100
AcDbBlockEnd
  0
BLOCK
  5
2484
330
2481
100
AcDbEntity
  8
0
 62
     7
100
AcDbBlockBegin
  2
AI9-BLK1
 70
     0
 10
0.0
 20
0.0
 30
0.0
  3
AI9-BLK1
  1

  0
LWPOLYLINE
  5
2482
330
2481
100
AcDbEntity
  8
LAYER_1
 62
     7
100
AcDbPolyline
 90
       12
 70
     1
 43
0.0
 10
-3.571874999999999
 20
10.7376736111111
 10
3.483680555555555
 20
10.7376736111111
 10
3.483680555555555
 20
8.091840277777777
 10
-2.248958333333332
 20
8.091840277777777
 10
-2.248958333333332
 20
1.565451388888888
 10
3.042708333333333
 20
1.565451388888888
 10
3.042708333333333
 20
-0.9039930555555551
 10
-2.248958333333332
 20
-0.9039930555555551
 10
-2.248958333333332
 20
-8.180034722222217
 10
3.571874999999999
 20
-8.180034722222217
 10
3.571874999999999
 20
-10.7376736111111
 10
-3.571874999999999
 20
-10.7376736111111
  0
HATCH
  5
2483
330
2481
100
AcDbEntity
  8
LAYER_1
 62
     7
100
AcDbHatch
 10
0.0
 20
0.0
 30
0.0
210
0.0
220
0.0
230
1.0
  2
SOLID
 70
     1
 71
     0
 91
        1
 92
        3
 72
     0
 73
     1
 93
       12
 10
-3.571874999999999
 20
10.7376736111111
 10
3.483680555555555
 20
10.7376736111111
 10
3.483680555555555
 20
8.091840277777777
 10
-2.248958333333332
 20
8.091840277777777
 10
-2.248958333333332
 20
1.565451388888888
 10
3.042708333333333
 20
1.565451388888888
 10
3.042708333333333
 20
-0.9039930555555551
 10
-2.248958333333332
 20
-0.9039930555555551
 10
-2.248958333333332
 20
-8.180034722222217
 10
3.571874999999999
 20
-8.180034722222217
 10
3.571874999999999
 20
-10.7376736111111
 10
-3.571874999999999
 20
-10.7376736111111
 97
        0
 75
     2
 76
     1
 98
        1
 10
0.0
 20
0.0
  0
ENDBLK
  5
2485
330
2481
100
AcDbEntity
  8
0
100
AcDbBlockEnd
  0
BLOCK
  5
24A9
330
2486
100
AcDbEntity
  8
0
100
AcDbBlockBegin
  2
HD_LLC_logo_OT5
 70
     0
 10
0.0
 20
0.0
 30
0.0
  3
HD_LLC_logo_OT5
  1

  0
SPLINE
  5
2487
102
{ACAD_REACTORS
330
24A7
102
}
330
2486
100
AcDbEntity
  8
LAYER_1
 62
     7
100
AcDbSpline
210
0.0
220
0.0
230
1.0
 70
    11
 71
     3
 72
   113
 73
   109
 74
     0
 42
0.0000000001
 43
0.0000000001
 40
0.0
 40
0.0
 40
0.0
 40
0.0
 40
1.0
 40
1.0
 40
1.0
 40
2.0
 40
2.0
 40
2.0
 40
3.0
 40
3.0
 40
3.0
 40
4.0
 40
4.0
 40
4.0
 40
5.0
 40
5.0
 40
5.0
 40
6.0
 40
6.0
 40
6.0
 40
7.0
 40
7.0
 40
7.0
 40
8.0
 40
8.0
 40
8.0
 40
9.0
 40
9.0
 40
9.0
 40
10.0
 40
10.0
 40
10.0
 40
11.0
 40
11.0
 40
11.0
 40
12.0
 40
12.0
 40
12.0
 40
13.0
 40
13.0
 40
13.0
 40
14.0
 40
14.0
 40
14.0
 40
15.0
 40
15.0
 40
15.0
 40
16.0
 40
16.0
 40
16.0
 40
17.0
 40
17.0
 40
17.0
 40
18.0
 40
18.0
 40
18.0
 40
19.0
 40
19.0
 40
19.0
 40
20.0
 40
20.0
 40
20.0
 40
21.0
 40
21.0
 40
21.0
 40
22.0
 40
22.0
 40
22.0
 40
23.0
 40
23.0
 40
23.0
 40
24.0
 40
24.0
 40
24.0
 40
25.0
 40
25.0
 40
25.0
 40
26.0
 40
26.0
 40
26.0
 40
27.0
 40
27.0
 40
27.0
 40
28.0
 40
28.0
 40
28.0
 40
29.0
 40
29.0
 40
29.0
 40
30.0
 40
30.0
 40
30.0
 40
31.0
 40
31.0
 40
31.0
 40
32.0
 40
32.0
 40
32.0
 40
33.0
 40
33.0
 40
33.0
 40
34.0
 40
34.0
 40
34.0
 40
35.0
 40
35.0
 40
35.0
 40
36.0
 40
36.0
 40
36.0
 40
36.0
 10
193.3039632161458
 20
186.1548733181423
 30
0.0
 10
193.3039632161458
 20
186.1860514322916
 30
0.0
 10
193.3039632161458
 20
219.6932223849826
 30
0.0
 10
193.3039632161458
 20
219.6932223849826
 30
0.0
 10
193.3039632161458
 20
219.6932223849826
 30
0.0
 10
193.2974175347219
 20
219.7488606770833
 30
0.0
 10
193.2974175347219
 20
219.7488606770833
 30
0.0
 10
191.5293945312499
 20
235.455740017361
 30
0.0
 10
175.1458984374999
 20
235.2467949761284
 30
0.0
 10
174.9808783637151
 20
235.2428331163193
 30
0.0
 10
174.9808783637151
 20
235.2428331163193
 30
0.0
 10
125.8827555338541
 20
235.2430053710937
 30
0.0
 10
125.8827555338541
 20
235.2430053710937
 30
0.0
 10
125.8827555338541
 20
235.2430053710937
 30
0.0
 10
125.8827555338541
 20
255.5278998480901
 30
0.0
 10
125.8827555338541
 20
255.5278998480901
 30
0.0
 10
125.8827555338541
 20
255.5278998480901
 30
0.0
 10
84.5626247829861
 20
255.5278998480901
 30
0.0
 10
84.5626247829861
 20
255.5278998480901
 30
0.0
 10
84.5626247829861
 20
255.5278998480901
 30
0.0
 10
84.55711263020829
 20
233.7919311523436
 30
0.0
 10
84.55711263020829
 20
233.7919311523436
 30
0.0
 10
84.55711263020829
 20
233.7919311523436
 30
0.0
 10
64.42052951388888
 20
233.7919311523436
 30
0.0
 10
64.42052951388888
 20
233.7919311523436
 30
0.0
 10
64.42052951388888
 20
233.7919311523436
 30
0.0
 10
64.41501736111111
 20
255.5278998480901
 30
0.0
 10
64.41501736111111
 20
255.5278998480901
 30
0.0
 10
64.41501736111111
 20
255.5278998480901
 30
0.0
 10
23.91757541232637
 20
255.5278998480901
 30
0.0
 10
23.91757541232637
 20
255.5278998480901
 30
0.0
 10
23.91757541232637
 20
255.5278998480901
 30
0.0
 10
23.91757541232637
 20
233.2393378363715
 30
0.0
 10
23.91757541232637
 20
233.2393378363715
 30
0.0
 10
23.91757541232637
 20
233.2393378363715
 30
0.0
 10
43.65624999999999
 20
233.2393378363715
 30
0.0
 10
43.65624999999999
 20
233.2393378363715
 30
0.0
 10
43.65624999999999
 20
233.2393378363715
 30
0.0
 10
43.65624999999999
 20
211.5188720703125
 30
0.0
 10
43.65624999999999
 20
211.5188720703125
 30
0.0
 10
43.65624999999999
 20
211.5188720703125
 30
0.0
 10
23.91757541232637
 20
211.5188720703125
 30
0.0
 10
23.91757541232637
 20
211.5188720703125
 30
0.0
 10
23.91757541232637
 20
211.5188720703125
 30
0.0
 10
23.91757541232637
 20
189.2303100585936
 30
0.0
 10
23.91757541232637
 20
189.2303100585936
 30
0.0
 10
23.91757541232637
 20
189.2303100585936
 30
0.0
 10
64.41501736111111
 20
189.2303100585936
 30
0.0
 10
64.41501736111111
 20
189.2303100585936
 30
0.0
 10
64.41501736111111
 20
189.2303100585936
 30
0.0
 10
64.42052951388888
 20
211.069976128472
 30
0.0
 10
64.42052951388888
 20
211.069976128472
 30
0.0
 10
64.42052951388888
 20
211.069976128472
 30
0.0
 10
84.55711263020829
 20
211.069976128472
 30
0.0
 10
84.55711263020829
 20
211.069976128472
 30
0.0
 10
84.55711263020829
 20
211.069976128472
 30
0.0
 10
84.5626247829861
 20
189.2303100585936
 30
0.0
 10
84.5626247829861
 20
189.2303100585936
 30
0.0
 10
84.5626247829861
 20
189.2303100585936
 30
0.0
 10
125.8827555338541
 20
189.2303100585936
 30
0.0
 10
125.8827555338541
 20
189.2303100585936
 30
0.0
 10
125.8827555338541
 20
189.2303100585936
 30
0.0
 10
125.8827555338541
 20
211.5188720703125
 30
0.0
 10
125.8827555338541
 20
211.5188720703125
 30
0.0
 10
125.8827555338541
 20
211.5188720703125
 30
0.0
 10
105.3213921440971
 20
211.5188720703125
 30
0.0
 10
105.3213921440971
 20
211.5188720703125
 30
0.0
 10
105.3213921440971
 20
211.5188720703125
 30
0.0
 10
105.3213921440971
 20
233.2393378363715
 30
0.0
 10
105.3213921440971
 20
233.2393378363715
 30
0.0
 10
105.3213921440971
 20
233.2393378363715
 30
0.0
 10
175.0046495225693
 20
233.243127441406
 30
0.0
 10
175.0046495225693
 20
233.243127441406
 30
0.0
 10
175.6268337673611
 20
233.2560465494791
 30
0.0
 10
189.7165852864583
 20
233.3962619357638
 30
0.0
 10
191.3037407769094
 20
219.5690266927083
 30
0.0
 10
191.3037407769094
 20
219.4332899305555
 30
0.0
 10
191.3037407769094
 20
186.1142211914062
 30
0.0
 10
191.3037407769094
 20
186.1142211914062
 30
0.0
 10
191.3037407769094
 20
186.1142211914062
 30
0.0
 10
191.3051188151039
 20
186.0880384657115
 30
0.0
 10
191.3051188151039
 20
186.0880384657115
 30
0.0
 10
191.3054633246526
 20
186.0787367078991
 30
0.0
 10
191.3109754774304
 20
185.9566080729166
 30
0.0
 10
191.3109754774304
 20
185.7399115668401
 30
0.0
 10
191.3109754774304
 20
184.2090833875865
 30
0.0
 10
191.0488037109374
 20
177.9643310546874
 30
0.0
 10
186.9866916232638
 20
173.5652886284722
 30
0.0
 10
184.2540418836804
 20
170.6064683702255
 30
0.0
 10
180.3224989149304
 20
169.0308539496526
 30
0.0
 10
175.300927734375
 20
168.8825425889756
 30
0.0
 10
175.300927734375
 20
168.8825425889756
 30
0.0
 10
107.0094889322916
 20
168.8828870985243
 30
0.0
 10
107.0094889322916
 20
168.8828870985243
 30
0.0
 10
107.0094889322916
 20
168.8828870985243
 30
0.0
 10
107.0094889322916
 20
166.8830091688368
 30
0.0
 10
107.0094889322916
 20
166.8830091688368
 30
0.0
 10
107.0094889322916
 20
166.8830091688368
 30
0.0
 10
175.3305555555555
 20
166.8830091688368
 30
0.0
 10
175.3305555555555
 20
166.8830091688368
 30
0.0
 10
180.9467502170138
 20
167.0485460069444
 30
0.0
 10
185.3571614583333
 20
168.8448187934026
 30
0.0
 10
188.4687717013888
 20
172.2223904079861
 30
0.0
 10
192.9649658203124
 20
177.1034016927083
 30
0.0
 10
193.3136094835069
 20
183.7202243381076
 30
0.0
 10
193.3136094835069
 20
185.6520616319443
 30
0.0
 10
193.3136094835069
 20
185.9247409396701
 30
0.0
 10
193.3070638020833
 20
186.0868326822916
 30
0.0
 10
193.3039632161458
 20
186.1548733181423
 30
0.0
  0
INSERT
  5
2488
102
{ACAD_REACTORS
330
24A8
102
}
330
2486
100
AcDbEntity
  8
LAYER_1
 62
     7
100
AcDbBlockReference
  2
AI9-BLK14
 10
159.5625257703993
 20
200.5118781195744
 30
0.0
  0
INSERT
  5
2489
330
2486
100
AcDbEntity
  8
LAYER_1
 62
     7
100
AcDbBlockReference
  2
AI9-BLK13
 10
27.69615614149305
 20
179.2145562065971
 30
0.0
 42
0.9200000000000001
  0
INSERT
  5
248A
102
{ACAD_REACTORS
330
2495
102
}
330
2486
100
AcDbEntity
  8
LAYER_1
 62
     7
100
AcDbBlockReference
  2
AI9-BLK11
 10
44.76591525607638
 20
179.2145562065971
 30
0.0
 42
0.9200000000000001
  0
INSERT
  5
248B
102
{ACAD_REACTORS
330
24A3
102
}
330
2486
100
AcDbEntity
  8
LAYER_1
 62
     7
100
AcDbBlockReference
  2
AI9-BLK10
 10
54.04665798611111
 20
179.2145562065971
 30
0.0
 42
0.9200000000000001
  0
INSERT
  5
248C
102
{ACAD_REACTORS
330
24A2
102
}
330
2486
100
AcDbEntity
  8
LAYER_1
 62
     7
100
AcDbBlockReference
  2
AI9-BLK9
 10
62.79013807508679
 20
179.2145562065971
 30
0.0
 42
0.9
  0
INSERT
  5
248D
330
2486
100
AcDbEntity
  8
LAYER_1
 62
     7
100
AcDbBlockReference
  2
AI9-BLK8
 10
71.03046196831595
 20
179.2145562065971
 30
0.0
 42
0.9200000000000001
  0
INSERT
  5
248E
330
2486
100
AcDbEntity
  8
LAYER_1
 62
     7
100
AcDbBlockReference
  2
AI9-BLK7
 10
76.93793945312498
 20
179.2145562065971
 30
0.0
 42
0.9200000000000001
  0
INSERT
  5
248F
102
{ACAD_REACTORS
330
2496
102
}
330
2486
100
AcDbEntity
  8
LAYER_1
 62
     7
100
AcDbBlockReference
  2
AI9-BLK6
 10
82.55602891710069
 20
179.2145562065971
 30
0.0
 42
0.9
  0
INSERT
  5
2490
102
{ACAD_REACTORS
330
24A4
102
}
330
2486
100
AcDbEntity
  8
LAYER_1
 62
     7
100
AcDbBlockReference
  2
AI9-BLK5
 10
94.32430284288193
 20
179.2145562065971
 30
0.0
 42
0.9200000000000001
  0
INSERT
  5
2491
102
{ACAD_REACTORS
330
24A5
102
}
330
2486
100
AcDbEntity
  8
LAYER_1
 62
     7
100
AcDbBlockReference
  2
AI9-BLK4
 10
103.2081705729166
 20
179.2145562065971
 30
0.0
 42
0.9200000000000001
  0
INSERT
  5
2492
330
2486
100
AcDbEntity
  8
LAYER_1
 62
     7
100
AcDbBlockReference
  2
AI9-BLK3
 10
108.850978597005
 20
179.2145562065971
 30
0.0
 42
0.9200000000000001
  0
INSERT
  5
2493
330
2486
100
AcDbEntity
  8
LAYER_1
 62
     7
100
AcDbBlockReference
  2
AI9-BLK2
 10
114.2045708550346
 20
179.2145562065971
 30
0.0
 42
0.9200000000000001
  0
INSERT
  5
2494
330
2486
100
AcDbEntity
  8
LAYER_1
 62
     7
100
AcDbBlockReference
  2
AI9-BLK1
 10
122.4125108506944
 20
179.2145562065971
 30
0.0
 42
0.9200000000000001
  0
HATCH
  5
2495
330
2486
100
AcDbEntity
  8
0
  6
Continuous
100
AcDbHatch
 10
0.0
 20
0.0
 30
0.0
210
0.0
220
0.0
230
1.0
  2
SOLID
 70
     1
 71
     1
 91
        2
 92
       16
 93
        1
 72
     4
 94
        3
 73
     0
 74
     0
 95
       26
 96
       22
 40
0.0
 40
0.0
 40
0.0
 40
0.0
 40
1.0
 40
1.0
 40
1.0
 40
2.0
 40
2.0
 40
2.0
 40
3.0
 40
3.0
 40
3.0
 40
4.0
 40
4.0
 40
4.0
 40
5.0
 40
5.0
 40
5.0
 40
6.0
 40
6.0
 40
6.0
 40
7.0
 40
7.0
 40
7.0
 40
7.0
 10
42.12008192274304
 20
180.046229817708
 10
42.12008192274304
 20
180.046229817708
 10
42.12008192274304
 20
186.7401881510414
 10
42.12008192274304
 20
186.7401881510414
 10
42.12008192274304
 20
186.7401881510414
 10
45.23100314670138
 20
186.7401881510414
 10
45.23100314670138
 20
186.7401881510414
 10
45.66853027343749
 20
186.7401881510414
 10
46.01579589843749
 20
186.6064357638887
 10
46.27280002170138
 20
186.3401987847216
 10
46.76751573350694
 20
185.8330807291664
 10
47.01487358940972
 20
184.8822343749995
 10
47.01487358940972
 20
183.4863919270832
 10
47.01487358940972
 20
182.188169704861
 10
46.83848470052082
 20
181.2905707465276
 10
46.48639594184028
 20
180.7929611545137
 10
46.13430718315971
 20
180.2947176649304
 10
45.65888400607638
 20
180.046229817708
 10
45.06012641059028
 20
180.046229817708
 10
45.06012641059028
 20
180.046229817708
 10
42.12008192274304
 20
180.046229817708
 10
42.12008192274304
 20
180.046229817708
 97
        1
330
248A
 92
        1
 93
        1
 72
     4
 94
        3
 73
     0
 74
     0
 95
       68
 96
       64
 40
0.0
 40
0.0
 40
0.0
 40
0.0
 40
1.0
 40
1.0
 40
1.0
 40
2.0
 40
2.0
 40
2.0
 40
3.0
 40
3.0
 40
3.0
 40
4.0
 40
4.0
 40
4.0
 40
5.0
 40
5.0
 40
5.0
 40
6.0
 40
6.0
 40
6.0
 40
7.0
 40
7.0
 40
7.0
 40
8.0
 40
8.0
 40
8.0
 40
9.0
 40
9.0
 40
9.0
 40
10.0
 40
10.0
 40
10.0
 40
11.0
 40
11.0
 40
11.0
 40
12.0
 40
12.0
 40
12.0
 40
13.0
 40
13.0
 40
13.0
 40
14.0
 40
14.0
 40
14.0
 40
15.0
 40
15.0
 40
15.0
 40
16.0
 40
16.0
 40
16.0
 40
17.0
 40
17.0
 40
17.0
 40
18.0
 40
18.0
 40
18.0
 40
19.0
 40
19.0
 40
19.0
 40
20.0
 40
20.0
 40
20.0
 40
21.0
 40
21.0
 40
21.0
 40
21.0
 10
40.79716525607638
 20
169.3358964843748
 10
40.79716525607638
 20
169.3358964843748
 10
42.12008192274304
 20
169.3358964843748
 10
42.12008192274304
 20
169.3358964843748
 10
42.12008192274304
 20
169.3358964843748
 10
42.12008192274304
 20
177.8149103732637
 10
42.12008192274304
 20
177.8149103732637
 10
42.12008192274304
 20
177.8149103732637
 10
45.00500488281249
 20
177.8149103732637
 10
45.00500488281249
 20
177.8149103732637
 10
45.52590332031249
 20
177.8149103732637
 10
45.90968695746528
 20
177.6938359374998
 10
46.15635579427083
 20
177.4516870659717
 10
46.58216959635415
 20
177.0117621527776
 10
46.80954589843749
 20
176.1458580729164
 10
46.83848470052082
 20
174.8539748263887
 10
46.83848470052082
 20
174.8539748263887
 10
46.92667914496527
 20
171.5564396701385
 10
46.92667914496527
 20
171.5564396701385
 10
46.94597167968749
 20
170.7843524305554
 10
46.96870930989581
 20
170.2639225260415
 10
46.99351399739582
 20
169.9951499565971
 10
47.01831868489581
 20
169.725743489583
 10
47.0548366970486
 20
169.5057810329859
 10
47.10444607204859
 20
169.3358964843748
 10
47.10444607204859
 20
169.3358964843748
 10
48.73466525607638
 20
169.3358964843748
 10
48.73466525607638
 20
169.3358964843748
 10
48.73466525607638
 20
169.3358964843748
 10
48.73466525607638
 20
169.7821603732633
 10
48.73466525607638
 20
169.7821603732633
 10
48.53278266059028
 20
169.9609194878471
 10
48.39153374565971
 20
170.3628105468748
 10
48.31160753038194
 20
170.9878335503471
 10
48.26062011718749
 20
171.3542263454858
 10
48.22548014322915
 20
171.9120562065971
 10
48.20549858940971
 20
172.6625909288193
 10
48.20549858940971
 20
172.6625909288193
 10
48.16140136718749
 20
175.3205234374999
 10
48.16140136718749
 20
175.3205234374999
 10
48.14141981336803
 20
176.4716814236109
 10
48.03462185329859
 20
177.3033550347219
 10
47.84169650607638
 20
177.814276475694
 10
47.64808213975693
 20
178.3251979166665
 10
47.35800509982638
 20
178.7372313368054
 10
46.97077636718749
 20
179.0516445312498
 10
47.4021023220486
 20
179.5086846788193
 10
47.73765462239582
 20
180.1134229600693
 10
47.97743326822915
 20
180.866493272569
 10
48.21721191406249
 20
181.6189296874999
 10
48.33779025607638
 20
182.5868912760411
 10
48.33779025607638
 20
183.7697441406248
 10
48.33779025607638
 20
186.0371957465273
 10
47.89061686197913
 20
187.5921464843749
 10
46.99695909288194
 20
188.4345963541665
 10
46.52567003038194
 20
188.8732534722221
 10
45.92966851128472
 20
189.0932159288193
 10
45.20895453559027
 20
189.0932159288193
 10
45.20895453559027
 20
189.0932159288193
 10
40.79716525607638
 20
189.0932159288193
 10
40.79716525607638
 20
189.0932159288193
 10
40.79716525607638
 20
189.0932159288193
 10
40.79716525607638
 20
169.3358964843748
 10
40.79716525607638
 20
169.3358964843748
 97
        0
 75
     0
 76
     1
 98
        0
  0
HATCH
  5
2496
330
2486
100
AcDbEntity
  8
0
  6
Continuous
100
AcDbHatch
 10
0.0
 20
0.0
 30
0.0
210
0.0
220
0.0
230
1.0
  2
SOLID
 70
     1
 71
     1
 91
        1
 92
        1
 93
        1
 72
     4
 94
        3
 73
     0
 74
     0
 95
       59
 96
       55
 40
0.0
 40
0.0
 40
0.0
 40
0.0
 40
1.0
 40
1.0
 40
1.0
 40
2.0
 40
2.0
 40
2.0
 40
3.0
 40
3.0
 40
3.0
 40
4.0
 40
4.0
 40
4.0
 40
5.0
 40
5.0
 40
5.0
 40
6.0
 40
6.0
 40
6.0
 40
7.0
 40
7.0
 40
7.0
 40
8.0
 40
8.0
 40
8.0
 40
9.0
 40
9.0
 40
9.0
 40
10.0
 40
10.0
 40
10.0
 40
11.0
 40
11.0
 40
11.0
 40
12.0
 40
12.0
 40
12.0
 40
13.0
 40
13.0
 40
13.0
 40
14.0
 40
14.0
 40
14.0
 40
15.0
 40
15.0
 40
15.0
 40
16.0
 40
16.0
 40
16.0
 40
17.0
 40
17.0
 40
17.0
 40
18.0
 40
18.0
 40
18.0
 40
18.0
 10
85.61871880425345
 20
187.4658355034721
 10
86.29120144314232
 20
186.1797124565971
 10
86.66671685112847
 20
184.7193364800346
 10
86.7452650282118
 20
183.0840874565969
 10
86.7452650282118
 20
183.0840874565969
 10
85.42234836154511
 20
183.0840874565969
 10
85.42234836154511
 20
183.0840874565969
 10
85.27696533203123
 20
184.3156401909719
 10
84.99171142578125
 20
185.2917046440971
 10
84.56589762369791
 20
186.0122808159719
 10
84.14008382161458
 20
186.7322368706594
 10
83.53994818793401
 20
187.0925249565969
 10
82.76617974175342
 20
187.0925249565969
 10
81.81740044487847
 20
187.0925249565969
 10
81.05258924696178
 20
186.4240386284721
 10
80.47243516710068
 20
185.0883062065971
 10
79.89159206814234
 20
183.7525737847219
 10
79.6015150282118
 20
181.7049468315971
 10
79.6015150282118
 20
178.9454253472221
 10
79.6015150282118
 20
176.6844780815969
 10
79.86265326605901
 20
174.8514116753471
 10
80.38561876085069
 20
173.4456060112846
 10
80.90789523654512
 20
172.0391802300344
 10
81.69199896918403
 20
171.3365874565971
 10
82.73724093967013
 20
171.3365874565971
 10
83.69497748480901
 20
171.3365874565971
 10
84.42120361328125
 20
172.0794878472221
 10
84.91523030598958
 20
173.5665288628469
 10
85.18601481119791
 20
174.3491167534719
 10
85.38445231119791
 20
175.3785112847221
 10
85.51054280598959
 20
176.6547124565971
 10
85.51054280598959
 20
176.6547124565971
 10
86.83345947265625
 20
176.6547124565971
 10
86.83345947265625
 20
176.6547124565971
 10
86.72597249348957
 20
174.6157671440971
 10
86.35114610460069
 20
172.9061040581596
 10
85.70760226779514
 20
171.526343315972
 10
84.93727891710069
 20
169.8650493706596
 10
83.90375027126735
 20
169.0347124565971
 10
82.60701633029514
 20
169.0347124565971
 10
81.48598225911458
 20
169.0347124565971
 10
80.54547119140625
 20
169.7143608940971
 10
79.78479410807292
 20
171.0742778862845
 10
78.78020426432292
 20
172.8726177300344
 10
78.27859836154512
 20
175.6495024956596
 10
78.27859836154512
 20
179.4049321831594
 10
78.27859836154512
 20
182.2562310112846
 10
78.65342475043402
 20
184.5946929253469
 10
79.40445556640622
 20
186.4196978081596
 10
80.22301025390625
 20
188.4028325737846
 10
81.34955647786458
 20
189.3943999565971
 10
82.78271620008679
 20
189.3943999565971
 10
84.00090196397568
 20
189.3943999565971
 10
84.94623616536458
 20
188.7513384331594
 10
85.61871880425345
 20
187.4658355034721
 97
        1
330
248F
 75
     0
 76
     1
 98
        1
 10
0.0
 20
0.0
  0
LINE
  5
2497
102
{ACAD_REACTORS
330
24A6
102
}
330
2486
100
AcDbEntity
  8
LAYER_1
 62
     7
100
AcDbLine
 10
34.65766059027778
 20
177.4497853732638
 30
0.0
 11
36.19830729166666
 21
186.1658769531249
 31
0.0
  0
LINE
  5
2498
102
{ACAD_REACTORS
330
24A6
102
}
330
2486
100
AcDbEntity
  8
LAYER_1
 62
     7
100
AcDbLine
 10
36.19830729166666
 20
186.1658769531249
 30
0.0
 11
37.67556423611111
 21
177.4497853732638
 31
0.0
  0
LINE
  5
2499
102
{ACAD_REACTORS
330
24A6
102
}
330
2486
100
AcDbEntity
  8
LAYER_1
 62
     7
100
AcDbLine
 10
37.67556423611111
 20
177.4497853732638
 30
0.0
 11
34.65766059027778
 21
177.4497853732638
 31
0.0
  0
LINE
  5
249A
102
{ACAD_REACTORS
330
24A6
102
}
330
2486
100
AcDbEntity
  8
LAYER_1
 62
     7
100
AcDbLine
 10
31.83957248263888
 20
169.3358964843748
 30
0.0
 11
33.22450086805555
 21
169.3358964843748
 31
0.0
  0
LINE
  5
249B
102
{ACAD_REACTORS
330
24A6
102
}
330
2486
100
AcDbEntity
  8
LAYER_1
 62
     7
100
AcDbLine
 10
33.22450086805555
 20
169.3358964843748
 30
0.0
 11
34.27043185763887
 21
175.2590353732638
 31
0.0
  0
LINE
  5
249C
102
{ACAD_REACTORS
330
24A6
102
}
330
2486
100
AcDbEntity
  8
LAYER_1
 62
     7
100
AcDbLine
 10
34.27043185763887
 20
175.2590353732638
 30
0.0
 11
38.04694552951389
 21
175.2590353732638
 31
0.0
  0
LINE
  5
249D
102
{ACAD_REACTORS
330
24A6
102
}
330
2486
100
AcDbEntity
  8
LAYER_1
 62
     7
100
AcDbLine
 10
38.04694552951389
 20
175.2590353732638
 30
0.0
 11
39.05015733506942
 21
169.3358964843748
 31
0.0
  0
LINE
  5
249E
102
{ACAD_REACTORS
330
24A6
102
}
330
2486
100
AcDbEntity
  8
LAYER_1
 62
     7
100
AcDbLine
 10
39.05015733506942
 20
169.3358964843748
 30
0.0
 11
40.43508572048611
 21
169.3358964843748
 31
0.0
  0
LINE
  5
249F
102
{ACAD_REACTORS
330
24A6
102
}
330
2486
100
AcDbEntity
  8
LAYER_1
 62
     7
100
AcDbLine
 10
40.43508572048611
 20
169.3358964843748
 30
0.0
 11
36.952783203125
 21
189.0932159288193
 31
0.0
  0
LINE
  5
24A0
102
{ACAD_REACTORS
330
24A6
102
}
330
2486
100
AcDbEntity
  8
LAYER_1
 62
     7
100
AcDbLine
 10
36.952783203125
 20
189.0932159288193
 30
0.0
 11
35.47828233506943
 21
189.0932159288193
 31
0.0
  0
LINE
  5
24A1
102
{ACAD_REACTORS
330
24A6
102
}
330
2486
100
AcDbEntity
  8
LAYER_1
 62
     7
100
AcDbLine
 10
35.47828233506943
 20
189.0932159288193
 30
0.0
 11
31.83957248263888
 21
169.3358964843748
 31
0.0
  0
HATCH
  5
24A2
330
2486
100
AcDbEntity
  8
0
  6
Continuous
100
AcDbHatch
 10
0.0
 20
0.0
 30
0.0
210
0.0
220
0.0
230
1.0
  2
SOLID
 70
     1
 71
     1
 91
        2
 92
       16
 93
        1
 72
     4
 94
        3
 73
     0
 74
     0
 95
       29
 96
       25
 40
0.0
 40
0.0
 40
0.0
 40
0.0
 40
1.0
 40
1.0
 40
1.0
 40
2.0
 40
2.0
 40
2.0
 40
3.0
 40
3.0
 40
3.0
 40
4.0
 40
4.0
 40
4.0
 40
5.0
 40
5.0
 40
5.0
 40
6.0
 40
6.0
 40
6.0
 40
7.0
 40
7.0
 40
7.0
 40
8.0
 40
8.0
 40
8.0
 40
8.0
 10
62.85697292751734
 20
171.3365874565971
 10
61.88338894314235
 20
171.3365874565971
 10
61.18058946397566
 20
172.0714263237844
 10
60.74857449001735
 20
173.5411040581594
 10
60.31587049696178
 20
175.0107817925344
 10
60.10020751953123
 20
176.8165630425341
 10
60.10020751953123
 20
178.9578276909721
 10
60.10020751953123
 20
181.6342534722221
 10
60.35101047092013
 20
183.6589360894094
 10
60.85261637369789
 20
185.0324956597219
 10
61.35422227647566
 20
186.4054351128471
 10
62.00741238064235
 20
187.0925249565969
 10
62.81218668619789
 20
187.0925249565969
 10
63.6369425455729
 20
187.0925249565969
 10
64.28806559244789
 20
186.3992339409721
 10
64.76486680772568
 20
185.0126519097221
 10
65.24166802300347
 20
183.6260698784719
 10
65.48006863064235
 20
181.7961040581594
 10
65.48006863064235
 20
179.5239946831596
 10
65.48006863064235
 20
177.3734282769096
 10
65.27336290147568
 20
175.4715288628467
 10
64.86132948133678
 20
173.8176763237846
 10
64.4492960611979
 20
172.1632036675344
 10
63.78094753689235
 20
171.3365874565971
 10
62.85697292751734
 20
171.3365874565971
 97
        1
330
248C
 92
        1
 93
        1
 72
     4
 94
        3
 73
     0
 74
     0
 95
       29
 96
       25
 40
0.0
 40
0.0
 40
0.0
 40
0.0
 40
1.0
 40
1.0
 40
1.0
 40
2.0
 40
2.0
 40
2.0
 40
3.0
 40
3.0
 40
3.0
 40
4.0
 40
4.0
 40
4.0
 40
5.0
 40
5.0
 40
5.0
 40
6.0
 40
6.0
 40
6.0
 40
7.0
 40
7.0
 40
7.0
 40
8.0
 40
8.0
 40
8.0
 40
8.0
 10
62.76119927300346
 20
189.4340874565971
 10
61.47273356119789
 20
189.4340874565971
 10
60.50121663411457
 20
188.2397417534719
 10
59.84733751085068
 20
185.8516704644094
 10
59.3395304361979
 20
183.9900786675344
 10
59.08597140842012
 20
181.7514556206596
 10
59.08597140842012
 20
179.1351812065971
 10
59.08597140842012
 20
176.2379937065971
 10
59.3836276584201
 20
173.8412407769094
 10
59.9789401584201
 20
171.9449224175346
 10
60.6424655490451
 20
169.9779106987846
 10
61.5602389865451
 20
168.9950249565971
 10
62.7315714518229
 20
168.9950249565971
 10
63.9904093424479
 20
168.9950249565971
 10
64.95641411675345
 20
170.1186773003469
 10
65.63027479383679
 20
172.3659819878471
 10
66.20629475911457
 20
174.2796636284719
 10
66.49430474175345
 20
176.6813774956591
 10
66.49430474175345
 20
179.5698833550344
 10
66.49430474175345
 20
182.2388677300341
 10
66.24005669487845
 20
184.4291216362844
 10
65.73293863932289
 20
186.1412651909719
 10
65.08870578342011
 20
188.3364800347219
 10
64.09789632161457
 20
189.4340874565971
 10
62.76119927300346
 20
189.4340874565971
 97
        0
 75
     0
 76
     1
 98
        0
  0
HATCH
  5
24A3
330
2486
100
AcDbEntity
  8
0
  6
Continuous
100
AcDbHatch
 10
0.0
 20
0.0
 30
0.0
210
0.0
220
0.0
230
1.0
  2
SOLID
 70
     1
 71
     1
 91
        1
 92
        1
 93
        1
 72
     4
 94
        3
 73
     0
 74
     0
 95
       59
 96
       55
 40
0.0
 40
0.0
 40
0.0
 40
0.0
 40
1.0
 40
1.0
 40
1.0
 40
2.0
 40
2.0
 40
2.0
 40
3.0
 40
3.0
 40
3.0
 40
4.0
 40
4.0
 40
4.0
 40
5.0
 40
5.0
 40
5.0
 40
6.0
 40
6.0
 40
6.0
 40
7.0
 40
7.0
 40
7.0
 40
8.0
 40
8.0
 40
8.0
 40
9.0
 40
9.0
 40
9.0
 40
10.0
 40
10.0
 40
10.0
 40
11.0
 40
11.0
 40
11.0
 40
12.0
 40
12.0
 40
12.0
 40
13.0
 40
13.0
 40
13.0
 40
14.0
 40
14.0
 40
14.0
 40
15.0
 40
15.0
 40
15.0
 40
16.0
 40
16.0
 40
16.0
 40
17.0
 40
17.0
 40
17.0
 40
18.0
 40
18.0
 40
18.0
 40
18.0
 10
49.39440104166666
 20
189.0932159288193
 10
49.39440104166666
 20
189.0932159288193
 10
51.24786241319444
 20
189.0932159288193
 10
51.24786241319444
 20
189.0932159288193
 10
51.24786241319444
 20
189.0932159288193
 10
54.04665798611111
 20
172.3887471788193
 10
54.04665798611111
 20
172.3887471788193
 10
54.04665798611111
 20
172.3887471788193
 10
56.83994140624999
 20
189.0932159288193
 10
56.83994140624999
 20
189.0932159288193
 10
56.83994140624999
 20
189.0932159288193
 10
58.69891493055553
 20
189.0932159288193
 10
58.69891493055553
 20
189.0932159288193
 10
58.69891493055553
 20
189.0932159288193
 10
58.69891493055553
 20
169.3358964843748
 10
58.69891493055553
 20
169.3358964843748
 10
58.69891493055553
 20
169.3358964843748
 10
57.46419270833333
 20
169.3358964843748
 10
57.46419270833333
 20
169.3358964843748
 10
57.46419270833333
 20
169.3358964843748
 10
57.46419270833333
 20
180.9964422743054
 10
57.46419270833333
 20
180.9964422743054
 10
57.46419270833333
 20
181.3996011284721
 10
57.47108289930555
 20
182.0677291666664
 10
57.48624131944444
 20
183.0001924913193
 10
57.50071072048609
 20
183.9326558159721
 10
57.50828993055553
 20
184.932312282986
 10
57.50828993055553
 20
185.9997957899304
 10
57.50828993055553
 20
185.9997957899304
 10
54.700537109375
 20
169.3358964843748
 10
54.700537109375
 20
169.3358964843748
 10
54.700537109375
 20
169.3358964843748
 10
53.38382161458333
 20
169.3358964843748
 10
53.38382161458333
 20
169.3358964843748
 10
53.38382161458333
 20
169.3358964843748
 10
50.58502604166665
 20
185.9997957899304
 10
50.58502604166665
 20
185.9997957899304
 10
50.58502604166665
 20
185.9997957899304
 10
50.58502604166665
 20
185.3944236111109
 10
50.58502604166665
 20
185.3944236111109
 10
50.58502604166665
 20
184.9101258680554
 10
50.59191623263888
 20
184.1729029947915
 10
50.60707465277777
 20
183.1821210937498
 10
50.62154405381942
 20
182.1913391927082
 10
50.62912326388889
 20
181.4629908854165
 10
50.62912326388889
 20
180.9964422743054
 10
50.62912326388889
 20
180.9964422743054
 10
50.62912326388889
 20
169.3358964843748
 10
50.62912326388889
 20
169.3358964843748
 10
50.62912326388889
 20
169.3358964843748
 10
49.39440104166666
 20
169.3358964843748
 10
49.39440104166666
 20
169.3358964843748
 10
49.39440104166666
 20
169.3358964843748
 10
49.39440104166666
 20
189.0932159288193
 10
49.39440104166666
 20
189.0932159288193
 97
        1
330
248B
 75
     0
 76
     1
 98
        1
 10
0.0
 20
0.0
  0
HATCH
  5
24A4
330
2486
100
AcDbEntity
  8
0
  6
Continuous
100
AcDbHatch
 10
0.0
 20
0.0
 30
0.0
210
0.0
220
0.0
230
1.0
  2
SOLID
 70
     1
 71
     1
 91
        2
 92
       16
 93
        1
 72
     4
 94
        3
 73
     0
 74
     0
 95
       32
 96
       28
 40
0.0
 40
0.0
 40
0.0
 40
0.0
 40
1.0
 40
1.0
 40
1.0
 40
2.0
 40
2.0
 40
2.0
 40
3.0
 40
3.0
 40
3.0
 40
4.0
 40
4.0
 40
4.0
 40
5.0
 40
5.0
 40
5.0
 40
6.0
 40
6.0
 40
6.0
 40
7.0
 40
7.0
 40
7.0
 40
8.0
 40
8.0
 40
8.0
 40
9.0
 40
9.0
 40
9.0
 40
9.0
 10
91.70051812065969
 20
171.6077853732634
 10
91.70051812065969
 20
171.6077853732634
 10
91.70051812065969
 20
186.7401881510414
 10
91.70051812065969
 20
186.7401881510414
 10
91.70051812065969
 20
186.7401881510414
 10
93.98668348524305
 20
186.7401881510414
 10
93.98668348524305
 20
186.7401881510414
 10
95.02159016927082
 20
186.7401881510414
 10
95.77331000434028
 20
186.0644533420137
 10
96.24322102864582
 20
184.7142515190969
 10
96.71313205295138
 20
183.3640496961804
 10
96.94808756510417
 20
181.4680620659721
 10
96.94808756510417
 20
179.0262886284719
 10
96.94808756510417
 20
178.3911232638887
 10
96.91432562934028
 20
177.7027105034721
 10
96.84749077690971
 20
176.9604164496524
 10
96.7324245876736
 20
175.7167094184024
 10
96.55052354600693
 20
174.6974021267359
 10
96.30109863281248
 20
173.901860677083
 10
95.98414984809028
 20
172.9091770833332
 10
95.57693956163193
 20
172.2378795572914
 10
95.07877875434026
 20
171.8892358940971
 10
94.79076877170138
 20
171.7016022135415
 10
94.43178982204859
 20
171.6077853732634
 10
94.00115288628471
 20
171.6077853732634
 10
94.00115288628471
 20
171.6077853732634
 10
91.70051812065969
 20
171.6077853732634
 10
91.70051812065969
 20
171.6077853732634
 97
        1
330
2490
 92
        1
 93
        1
 72
     4
 94
        3
 73
     0
 74
     0
 95
       26
 96
       22
 40
0.0
 40
0.0
 40
0.0
 40
0.0
 40
1.0
 40
1.0
 40
1.0
 40
2.0
 40
2.0
 40
2.0
 40
3.0
 40
3.0
 40
3.0
 40
4.0
 40
4.0
 40
4.0
 40
5.0
 40
5.0
 40
5.0
 40
6.0
 40
6.0
 40
6.0
 40
7.0
 40
7.0
 40
7.0
 40
7.0
 10
90.37760145399305
 20
169.3358964843748
 10
90.37760145399305
 20
169.3358964843748
 10
94.22990722656248
 20
169.3358964843748
 10
94.22990722656248
 20
169.3358964843748
 10
95.87115071614581
 20
169.3358964843748
 10
97.03008083767359
 20
170.8331625434026
 10
97.70600857204859
 20
173.8283285590274
 10
98.08221299913194
 20
175.5227367621523
 10
98.27100423177082
 20
177.4187243923609
 10
98.27100423177082
 20
179.5169253472221
 10
98.27100423177082
 20
182.233810329861
 10
97.94716525607638
 20
184.4619602864582
 10
97.30086534288195
 20
186.2013752170135
 10
96.57601725260416
 20
188.1290577256939
 10
95.5576470269097
 20
189.0932159288193
 10
94.24437662760416
 20
189.0932159288193
 10
94.24437662760416
 20
189.0932159288193
 10
90.37760145399305
 20
189.0932159288193
 10
90.37760145399305
 20
189.0932159288193
 10
90.37760145399305
 20
189.0932159288193
 10
90.37760145399305
 20
169.3358964843748
 10
90.37760145399305
 20
169.3358964843748
 97
        0
 75
     0
 76
     1
 98
        0
  0
HATCH
  5
24A5
330
2486
100
AcDbEntity
  8
0
  6
Continuous
100
AcDbHatch
 10
0.0
 20
0.0
 30
0.0
210
0.0
220
0.0
230
1.0
  2
SOLID
 70
     1
 71
     1
 91
        2
 92
       16
 93
        1
 72
     4
 94
        3
 73
     0
 74
     0
 95
       26
 96
       22
 40
0.0
 40
0.0
 40
0.0
 40
0.0
 40
1.0
 40
1.0
 40
1.0
 40
2.0
 40
2.0
 40
2.0
 40
3.0
 40
3.0
 40
3.0
 40
4.0
 40
4.0
 40
4.0
 40
5.0
 40
5.0
 40
5.0
 40
6.0
 40
6.0
 40
6.0
 40
7.0
 40
7.0
 40
7.0
 40
7.0
 10
100.5623372395832
 20
180.046229817708
 10
100.5623372395832
 20
180.046229817708
 10
100.5623372395832
 20
186.7401881510414
 10
100.5623372395832
 20
186.7401881510414
 10
100.5623372395832
 20
186.7401881510414
 10
103.6732584635416
 20
186.7401881510414
 10
103.6732584635416
 20
186.7401881510414
 10
104.1107855902777
 20
186.7401881510414
 10
104.4580512152777
 20
186.6064357638887
 10
104.7150553385415
 20
186.3401987847216
 10
105.2097710503471
 20
185.8330807291664
 10
105.4571289062495
 20
184.8822343749995
 10
105.4571289062495
 20
183.4863919270832
 10
105.4571289062495
 20
182.188169704861
 10
105.280740017361
 20
181.2905707465276
 10
104.9286512586804
 20
180.7929611545137
 10
104.5765624999999
 20
180.2947176649304
 10
104.1011393229166
 20
180.046229817708
 10
103.5023817274304
 20
180.046229817708
 10
103.5023817274304
 20
180.046229817708
 10
100.5623372395832
 20
180.046229817708
 10
100.5623372395832
 20
180.046229817708
 97
        1
330
2491
 92
        1
 93
        1
 72
     4
 94
        3
 73
     0
 74
     0
 95
       68
 96
       64
 40
0.0
 40
0.0
 40
0.0
 40
0.0
 40
1.0
 40
1.0
 40
1.0
 40
2.0
 40
2.0
 40
2.0
 40
3.0
 40
3.0
 40
3.0
 40
4.0
 40
4.0
 40
4.0
 40
5.0
 40
5.0
 40
5.0
 40
6.0
 40
6.0
 40
6.0
 40
7.0
 40
7.0
 40
7.0
 40
8.0
 40
8.0
 40
8.0
 40
9.0
 40
9.0
 40
9.0
 40
10.0
 40
10.0
 40
10.0
 40
11.0
 40
11.0
 40
11.0
 40
12.0
 40
12.0
 40
12.0
 40
13.0
 40
13.0
 40
13.0
 40
14.0
 40
14.0
 40
14.0
 40
15.0
 40
15.0
 40
15.0
 40
16.0
 40
16.0
 40
16.0
 40
17.0
 40
17.0
 40
17.0
 40
18.0
 40
18.0
 40
18.0
 40
19.0
 40
19.0
 40
19.0
 40
20.0
 40
20.0
 40
20.0
 40
21.0
 40
21.0
 40
21.0
 40
21.0
 10
99.23942057291661
 20
169.3358964843748
 10
99.23942057291661
 20
169.3358964843748
 10
100.5623372395832
 20
169.3358964843748
 10
100.5623372395832
 20
169.3358964843748
 10
100.5623372395832
 20
169.3358964843748
 10
100.5623372395832
 20
177.8149103732637
 10
100.5623372395832
 20
177.8149103732637
 10
100.5623372395832
 20
177.8149103732637
 10
103.4472601996527
 20
177.8149103732637
 10
103.4472601996527
 20
177.8149103732637
 10
103.9681586371527
 20
177.8149103732637
 10
104.3519422743053
 20
177.6938359374998
 10
104.5986111111109
 20
177.4516870659717
 10
105.0244249131943
 20
177.0117621527776
 10
105.2518012152777
 20
176.1458580729164
 10
105.280740017361
 20
174.8539748263887
 10
105.280740017361
 20
174.8539748263887
 10
105.3689344618053
 20
171.5564396701385
 10
105.3689344618053
 20
171.5564396701385
 10
105.3882269965277
 20
170.7843524305554
 10
105.4109646267359
 20
170.2639225260415
 10
105.4357693142359
 20
169.9951499565971
 10
105.4605740017358
 20
169.725743489583
 10
105.4970920138888
 20
169.5057810329859
 10
105.5467013888887
 20
169.3358964843748
 10
105.5467013888887
 20
169.3358964843748
 10
107.1769205729166
 20
169.3358964843748
 10
107.1769205729166
 20
169.3358964843748
 10
107.1769205729166
 20
169.3358964843748
 10
107.1769205729166
 20
169.7821603732633
 10
107.1769205729166
 20
169.7821603732633
 10
106.9750379774303
 20
169.9609194878471
 10
106.8337890624996
 20
170.3628105468748
 10
106.7538628472221
 20
170.9878335503471
 10
106.7028754340274
 20
171.3542263454858
 10
106.6677354600692
 20
171.9120562065971
 10
106.6477539062496
 20
172.6625909288193
 10
106.6477539062496
 20
172.6625909288193
 10
106.6036566840277
 20
175.3205234374999
 10
106.6036566840277
 20
175.3205234374999
 10
106.5836751302082
 20
176.4716814236109
 10
106.4768771701387
 20
177.3033550347219
 10
106.2839518229166
 20
177.814276475694
 10
106.0903374565971
 20
178.3251979166665
 10
105.8002604166666
 20
178.7372313368054
 10
105.4130316840276
 20
179.0516445312498
 10
105.8443576388885
 20
179.5086846788193
 10
106.179909939236
 20
180.1134229600693
 10
106.4196885850692
 20
180.866493272569
 10
106.6594672309027
 20
181.6189296874999
 10
106.7800455729166
 20
182.5868912760411
 10
106.7800455729166
 20
183.7697441406248
 10
106.7800455729166
 20
186.0371957465273
 10
106.3328721788193
 20
187.5921464843749
 10
105.4392144097221
 20
188.4345963541665
 10
104.9679253472221
 20
188.8732534722221
 10
104.3719238281249
 20
189.0932159288193
 10
103.6512098524303
 20
189.0932159288193
 10
103.6512098524303
 20
189.0932159288193
 10
99.23942057291661
 20
189.0932159288193
 10
99.23942057291661
 20
189.0932159288193
 10
99.23942057291661
 20
189.0932159288193
 10
99.23942057291661
 20
169.3358964843748
 10
99.23942057291661
 20
169.3358964843748
 97
        0
 75
     0
 76
     1
 98
        0
  0
HATCH
  5
24A6
330
2486
100
AcDbEntity
  8
0
  6
Continuous
100
AcDbHatch
 10
0.0
 20
0.0
 30
0.0
210
0.0
220
0.0
230
1.0
  2
SOLID
 70
     1
 71
     1
 91
        2
 92
        1
 93
        8
 72
     1
 10
35.47828233506943
 20
189.0932159288193
 11
31.83957248263888
 21
169.3358964843748
 72
     1
 10
31.83957248263888
 20
169.3358964843748
 11
33.22450086805555
 21
169.3358964843748
 72
     1
 10
33.22450086805555
 20
169.3358964843748
 11
34.27043185763887
 21
175.2590353732638
 72
     1
 10
34.27043185763887
 20
175.2590353732638
 11
38.04694552951389
 21
175.2590353732638
 72
     1
 10
38.04694552951389
 20
175.2590353732638
 11
39.05015733506942
 21
169.3358964843748
 72
     1
 10
39.05015733506942
 20
169.3358964843748
 11
40.43508572048611
 21
169.3358964843748
 72
     1
 10
40.43508572048611
 20
169.3358964843748
 11
36.952783203125
 21
189.0932159288193
 72
     1
 10
36.952783203125
 20
189.0932159288193
 11
35.47828233506943
 21
189.0932159288193
 97
        8
330
24A1
330
249A
330
249B
330
249C
330
249D
330
249E
330
249F
330
24A0
 92
       16
 93
        3
 72
     1
 10
37.67556423611111
 20
177.4497853732638
 11
34.65766059027778
 21
177.4497853732638
 72
     1
 10
34.65766059027778
 20
177.4497853732638
 11
36.19830729166666
 21
186.1658769531249
 72
     1
 10
36.19830729166666
 20
186.1658769531249
 11
37.67556423611111
 21
177.4497853732638
 97
        3
330
2499
330
2497
330
2498
 75
     0
 76
     1
 98
        1
 10
0.0
 20
0.0
  0
HATCH
  5
24A7
330
2486
100
AcDbEntity
  8
0
  6
Continuous
100
AcDbHatch
 10
0.0
 20
0.0
 30
0.0
210
0.0
220
0.0
230
1.0
  2
SOLID
 70
     1
 71
     1
 91
        1
 92
        1
 93
        1
 72
     4
 94
        3
 73
     0
 74
     0
 95
      113
 96
      109
 40
0.0
 40
0.0
 40
0.0
 40
0.0
 40
1.0
 40
1.0
 40
1.0
 40
2.0
 40
2.0
 40
2.0
 40
3.0
 40
3.0
 40
3.0
 40
4.0
 40
4.0
 40
4.0
 40
5.0
 40
5.0
 40
5.0
 40
6.0
 40
6.0
 40
6.0
 40
7.0
 40
7.0
 40
7.0
 40
8.0
 40
8.0
 40
8.0
 40
9.0
 40
9.0
 40
9.0
 40
10.0
 40
10.0
 40
10.0
 40
11.0
 40
11.0
 40
11.0
 40
12.0
 40
12.0
 40
12.0
 40
13.0
 40
13.0
 40
13.0
 40
14.0
 40
14.0
 40
14.0
 40
15.0
 40
15.0
 40
15.0
 40
16.0
 40
16.0
 40
16.0
 40
17.0
 40
17.0
 40
17.0
 40
18.0
 40
18.0
 40
18.0
 40
19.0
 40
19.0
 40
19.0
 40
20.0
 40
20.0
 40
20.0
 40
21.0
 40
21.0
 40
21.0
 40
22.0
 40
22.0
 40
22.0
 40
23.0
 40
23.0
 40
23.0
 40
24.0
 40
24.0
 40
24.0
 40
25.0
 40
25.0
 40
25.0
 40
26.0
 40
26.0
 40
26.0
 40
27.0
 40
27.0
 40
27.0
 40
28.0
 40
28.0
 40
28.0
 40
29.0
 40
29.0
 40
29.0
 40
30.0
 40
30.0
 40
30.0
 40
31.0
 40
31.0
 40
31.0
 40
32.0
 40
32.0
 40
32.0
 40
33.0
 40
33.0
 40
33.0
 40
34.0
 40
34.0
 40
34.0
 40
35.0
 40
35.0
 40
35.0
 40
36.0
 40
36.0
 40
36.0
 40
36.0
 10
193.3039632161458
 20
186.1548733181423
 10
193.3039632161458
 20
186.1860514322916
 10
193.3039632161458
 20
219.6932223849826
 10
193.3039632161458
 20
219.6932223849826
 10
193.3039632161458
 20
219.6932223849826
 10
193.2974175347219
 20
219.7488606770833
 10
193.2974175347219
 20
219.7488606770833
 10
191.5293945312499
 20
235.455740017361
 10
175.1458984374999
 20
235.2467949761284
 10
174.9808783637151
 20
235.2428331163193
 10
174.9808783637151
 20
235.2428331163193
 10
125.8827555338541
 20
235.2430053710937
 10
125.8827555338541
 20
235.2430053710937
 10
125.8827555338541
 20
235.2430053710937
 10
125.8827555338541
 20
255.5278998480901
 10
125.8827555338541
 20
255.5278998480901
 10
125.8827555338541
 20
255.5278998480901
 10
84.5626247829861
 20
255.5278998480901
 10
84.5626247829861
 20
255.5278998480901
 10
84.5626247829861
 20
255.5278998480901
 10
84.55711263020829
 20
233.7919311523436
 10
84.55711263020829
 20
233.7919311523436
 10
84.55711263020829
 20
233.7919311523436
 10
64.42052951388888
 20
233.7919311523436
 10
64.42052951388888
 20
233.7919311523436
 10
64.42052951388888
 20
233.7919311523436
 10
64.41501736111111
 20
255.5278998480901
 10
64.41501736111111
 20
255.5278998480901
 10
64.41501736111111
 20
255.5278998480901
 10
23.91757541232637
 20
255.5278998480901
 10
23.91757541232637
 20
255.5278998480901
 10
23.91757541232637
 20
255.5278998480901
 10
23.91757541232637
 20
233.2393378363715
 10
23.91757541232637
 20
233.2393378363715
 10
23.91757541232637
 20
233.2393378363715
 10
43.65624999999999
 20
233.2393378363715
 10
43.65624999999999
 20
233.2393378363715
 10
43.65624999999999
 20
233.2393378363715
 10
43.65624999999999
 20
211.5188720703125
 10
43.65624999999999
 20
211.5188720703125
 10
43.65624999999999
 20
211.5188720703125
 10
23.91757541232637
 20
211.5188720703125
 10
23.91757541232637
 20
211.5188720703125
 10
23.91757541232637
 20
211.5188720703125
 10
23.91757541232637
 20
189.2303100585936
 10
23.91757541232637
 20
189.2303100585936
 10
23.91757541232637
 20
189.2303100585936
 10
64.41501736111111
 20
189.2303100585936
 10
64.41501736111111
 20
189.2303100585936
 10
64.41501736111111
 20
189.2303100585936
 10
64.42052951388888
 20
211.069976128472
 10
64.42052951388888
 20
211.069976128472
 10
64.42052951388888
 20
211.069976128472
 10
84.55711263020829
 20
211.069976128472
 10
84.55711263020829
 20
211.069976128472
 10
84.55711263020829
 20
211.069976128472
 10
84.5626247829861
 20
189.2303100585936
 10
84.5626247829861
 20
189.2303100585936
 10
84.5626247829861
 20
189.2303100585936
 10
125.8827555338541
 20
189.2303100585936
 10
125.8827555338541
 20
189.2303100585936
 10
125.8827555338541
 20
189.2303100585936
 10
125.8827555338541
 20
211.5188720703125
 10
125.8827555338541
 20
211.5188720703125
 10
125.8827555338541
 20
211.5188720703125
 10
105.3213921440971
 20
211.5188720703125
 10
105.3213921440971
 20
211.5188720703125
 10
105.3213921440971
 20
211.5188720703125
 10
105.3213921440971
 20
233.2393378363715
 10
105.3213921440971
 20
233.2393378363715
 10
105.3213921440971
 20
233.2393378363715
 10
175.0046495225693
 20
233.243127441406
 10
175.0046495225693
 20
233.243127441406
 10
175.6268337673611
 20
233.2560465494791
 10
189.7165852864583
 20
233.3962619357638
 10
191.3037407769094
 20
219.5690266927083
 10
191.3037407769094
 20
219.4332899305555
 10
191.3037407769094
 20
186.1142211914062
 10
191.3037407769094
 20
186.1142211914062
 10
191.3037407769094
 20
186.1142211914062
 10
191.3051188151039
 20
186.0880384657115
 10
191.3051188151039
 20
186.0880384657115
 10
191.3054633246526
 20
186.0787367078991
 10
191.3109754774304
 20
185.9566080729166
 10
191.3109754774304
 20
185.7399115668401
 10
191.3109754774304
 20
184.2090833875865
 10
191.0488037109374
 20
177.9643310546874
 10
186.9866916232638
 20
173.5652886284722
 10
184.2540418836804
 20
170.6064683702255
 10
180.3224989149304
 20
169.0308539496526
 10
175.300927734375
 20
168.8825425889756
 10
175.300927734375
 20
168.8825425889756
 10
107.0094889322916
 20
168.8828870985243
 10
107.0094889322916
 20
168.8828870985243
 10
107.0094889322916
 20
168.8828870985243
 10
107.0094889322916
 20
166.8830091688368
 10
107.0094889322916
 20
166.8830091688368
 10
107.0094889322916
 20
166.8830091688368
 10
175.3305555555555
 20
166.8830091688368
 10
175.3305555555555
 20
166.8830091688368
 10
180.9467502170138
 20
167.0485460069444
 10
185.3571614583333
 20
168.8448187934026
 10
188.4687717013888
 20
172.2223904079861
 10
192.9649658203124
 20
177.1034016927083
 10
193.3136094835069
 20
183.7202243381076
 10
193.3136094835069
 20
185.6520616319443
 10
193.3136094835069
 20
185.9247409396701
 10
193.3070638020833
 20
186.0868326822916
 10
193.3039632161458
 20
186.1548733181423
 97
        1
330
2487
 75
     0
 76
     1
 98
        1
 10
0.0
 20
0.0
  0
HATCH
  5
24A8
330
2486
100
AcDbEntity
  8
0
  6
Continuous
100
AcDbHatch
 10
0.0
 20
0.0
 30
0.0
210
0.0
220
0.0
230
1.0
  2
SOLID
 70
     1
 71
     1
 91
        2
 92
        1
 93
        1
 72
     4
 94
        3
 73
     0
 74
     0
 95
       23
 96
       19
 40
0.0
 40
0.0
 40
0.0
 40
0.0
 40
1.0
 40
1.0
 40
1.0
 40
2.0
 40
2.0
 40
2.0
 40
3.0
 40
3.0
 40
3.0
 40
4.0
 40
4.0
 40
4.0
 40
5.0
 40
5.0
 40
5.0
 40
6.0
 40
6.0
 40
6.0
 40
6.0
 10
148.6593153211804
 20
211.3929538302948
 10
148.6593153211804
 20
211.3929538302948
 10
148.6593153211804
 20
189.6308024088539
 10
148.6593153211804
 20
189.6308024088539
 10
148.6593153211804
 20
189.6308024088539
 10
161.3152180989583
 20
189.6308024088539
 10
161.3152180989583
 20
189.6308024088539
 10
162.8431179470483
 20
189.6308024088539
 10
170.4657362196178
 20
190.1880466037321
 10
170.4657362196178
 20
201.1911648220483
 10
170.4657362196178
 20
211.1288872612844
 10
162.3356553819444
 20
211.3914035373261
 10
162.2536621093749
 20
211.3927815755205
 10
162.2536621093749
 20
211.3927815755205
 10
149.6594265407986
 20
211.3929538302948
 10
149.6594265407986
 20
211.3929538302948
 10
149.6594265407986
 20
211.3929538302948
 10
148.6593153211804
 20
211.3929538302948
 10
148.6593153211804
 20
211.3929538302948
 97
        1
330
2488
 92
       16
 93
        1
 72
     4
 94
        3
 73
     0
 74
     0
 95
       20
 96
       16
 40
0.0
 40
0.0
 40
0.0
 40
0.0
 40
1.0
 40
1.0
 40
1.0
 40
2.0
 40
2.0
 40
2.0
 40
3.0
 40
3.0
 40
3.0
 40
4.0
 40
4.0
 40
4.0
 40
5.0
 40
5.0
 40
5.0
 40
5.0
 10
162.2354031032983
 20
209.3930759006072
 10
162.467947048611
 20
209.3861857096351
 10
168.4655137803819
 20
209.1283203124997
 10
168.4655137803819
 20
201.1911648220483
 10
168.4655137803819
 20
192.3202162000865
 10
162.9926350911458
 20
191.6306803385413
 10
161.3152180989583
 20
191.6306803385413
 10
161.3152180989583
 20
191.6306803385413
 10
152.3310980902776
 20
191.6306803385413
 10
150.6595377604166
 20
191.6306803385413
 10
150.6595377604166
 20
193.3373806423608
 10
150.6595377604166
 20
207.6863755967879
 10
150.6595377604166
 20
209.3930759006072
 10
152.3538357204859
 20
209.3930759006072
 10
162.2354031032983
 20
209.3930759006072
 10
162.2354031032983
 20
209.3930759006072
 97
        0
 75
     0
 76
     1
 98
        0
  0
ENDBLK
  5
24AA
330
2486
100
AcDbEntity
  8
0
100
AcDbBlockEnd
  0
BLOCK
  5
24AD
330
24AB
100
AcDbEntity
  8
0
100
AcDbBlockBegin
  2
HD logo-new
 70
     0
 10
0.0
 20
0.0
 30
0.0
  3
HD logo-new
  1

  0
INSERT
  5
24AC
330
24AB
100
AcDbEntity
  8
0
 62
     3
100
AcDbBlockReference
  2
HD_LLC_logo_OT5
 10
-27.1607188578505
 20
-68.37367811463031
 30
0.0
 41
0.2999999999999971
 42
0.3000000000000007
 43
0.3
  0
ENDBLK
  5
24AE
330
24AB
100
AcDbEntity
  8
0
100
AcDbBlockEnd
  0
BLOCK
  5
24B1
330
24AF
100
AcDbEntity
  8
0
100
AcDbBlockBegin
  2
HD Logo
 70
     0
 10
0.0
 20
0.0
 30
0.0
  3
HD Logo
  1

  0
INSERT
  5
24B0
330
24AF
100
AcDbEntity
  8
0
100
AcDbBlockReference
  2
HD logo-new
 10
0.9700256734946606
 20
7.273795608420527
 30
0.0
  0
ENDBLK
  5
24B2
330
24AF
100
AcDbEntity
  8
0
100
AcDbBlockEnd
  0
BLOCK
  5
24BD
330
24BB
100
AcDbEntity
  8
0
100
AcDbBlockBegin
  2
Harmonic Drive LLC
 70
     0
 10
0.0
 20
0.0
 30
0.0
  3
Harmonic Drive LLC
  1

  0
MTEXT
  5
24BC
330
24BB
100
AcDbEntity
  8
0
100
AcDbMText
 10
189.3064368747374
 20
-164.4147342669637
 30
0.0
 40
3.5
 41
76.932
 71
     5
 72
     5
  1
Harmonic Drive LLC\P800-921-3332\Pwww.harmonicdrive.net
 73
     1
 44
1.0
  0
ENDBLK
  5
24BE
330
24BB
100
AcDbEntity
  8
0
100
AcDbBlockEnd
  0
BLOCK
  5
24CF
330
24CC
100
AcDbEntity
  8
0
100
AcDbBlockBegin
  2
NTC
 70
     0
 10
0.0
 20
0.0
 30
0.0
  3
NTC
  1

  0
LWPOLYLINE
  5
24CD
330
24CC
100
AcDbEntity
  8
0
100
AcDbPolyline
 90
        8
 70
     1
 43
0.0
 10
4.581008201925953
 20
-10.78862239032818
 10
319.3921777697513
 20
-10.78862239032818
 42
-0.4142135623730951
 10
324.9046777697513
 20
-16.30112239032816
 10
324.9046777697513
 20
-117.4075202476924
 42
-0.4142135623730951
 10
319.3921777697513
 20
-122.9200202476925
 10
4.581008201925838
 20
-122.9200202476925
 42
-0.4142135623730951
 10
-0.9314917980741483
 20
-117.4075202476924
 10
-0.9314917980740915
 20
-16.30112239032816
 42
-0.4142135623730951
  0
MTEXT
  5
24CE
330
24CC
100
AcDbEntity
  8
0
  6
Continuous
370
    30
100
AcDbMText
 10
21.65307678143926
 20
-17.4535155144544
 30
0.0
 40
8.75
 41
294.5432999999998
 71
     1
 72
     5
  3
{\fTxt|b1|i0|c0|p2;Notice:\P\Ftxt.shx;\H0.5714x;All specifications and dimensions shown in the drawing are subject to change without notice. This drawing is the property of Harmonic Drive LLC.   This data is believed to be accurate, however, Harmonic
  1
 Drive LLC assumes no liability for any errors or omissions in the specifications, models, or drawings.\P\PHarmonic Drive LLC\PTel: 800-921-3332\Pwww.harmonicdrive.net}
 73
     1
 44
1.0
  0
ENDBLK
  5
24D0
330
24CC
100
AcDbEntity
  8
0
100
AcDbBlockEnd
  0
ENDSEC
  0
SECTION
  2
ENTITIES
  0
LINE
  5
2221
330
2201
100
AcDbEntity
  8
1
  6
CENTER
 62
     3
100
AcDbLine
 10
329.4694283605571
 20
145.6491152014889
 30
0.0
 11
326.0944283606928
 21
139.8034437258654
 31
0.0
  0
LINE
  5
2222
330
2201
100
AcDbEntity
  8
1
  6
CENTER
 62
     3
100
AcDbLine
 10
316.9788114561226
 20
158.139732105342
 30
0.0
 11
311.1331399806563
 21
154.7647321052059
 31
0.0
  0
LINE
  5
2223
330
2201
100
AcDbEntity
  8
1
  6
CENTER
 62
     3
100
AcDbLine
 10
316.9788114553288
 20
192.2647321053418
 30
0.0
 11
311.1331399797052
 21
195.6397321052061
 31
0.0
  0
LINE
  5
2224
330
2201
100
AcDbEntity
  8
1
  6
CENTER
 62
     3
100
AcDbLine
 10
329.469428359182
 20
204.7553490097766
 30
0.0
 11
326.0944283590458
 21
210.601020485243
 31
0.0
  0
LINE
  5
2225
330
2201
100
AcDbEntity
  8
2
  6
CENTER
 62
     3
100
AcDbLine
 10
346.5319283598915
 20
212.7022321060298
 30
0.0
 11
346.5319283598867
 21
207.4022316226101
 31
0.0
  0
LINE
  5
2226
330
2201
100
AcDbEntity
  8
2
  6
CENTER
 62
     3
100
AcDbLine
 10
346.5319283598738
 20
192.7022318433898
 30
0.0
 11
346.5319283598172
 21
128.7022327442316
 31
0.0
  0
LINE
  5
2227
330
2201
100
AcDbEntity
  8
2
  6
CENTER
 62
     3
100
AcDbLine
 10
346.5319283598867
 20
207.4022316226101
 30
0.0
 11
346.5319283598738
 21
192.7022318433898
 31
0.0
  0
LINE
  5
2228
330
2201
100
AcDbEntity
  8
2
  6
CENTER
 62
     3
100
AcDbLine
 10
346.5319283598958
 20
217.7022314678279
 30
0.0
 11
346.5319283598915
 21
212.7022321060298
 31
0.0
  0
LINE
  5
2229
330
2201
100
AcDbEntity
  8
1
  6
CENTER
 62
     3
100
AcDbLine
 10
64.88125406643238
 20
231.2022321060295
 30
0.0
 11
64.88125406643238
 21
119.2022321060294
 31
0.0
  0
LINE
  5
222A
330
2201
100
AcDbEntity
  8
1
  6
CENTER
 62
     3
100
AcDbLine
 10
8.881254066432376
 20
175.2022321060293
 30
0.0
 11
121.8812540664323
 21
175.2022321060293
 31
0.0
  0
LINE
  5
222B
330
2201
100
AcDbEntity
  8
1
  6
CENTER
 62
     3
100
AcDbLine
 10
39.19375406643249
 20
130.710176986604
 30
0.0
 11
42.56875406643247
 21
136.5558484621492
 31
0.0
  0
LINE
  5
222C
330
2201
100
AcDbEntity
  8
1
  6
CENTER
 62
     3
100
AcDbLine
 10
20.38919894700686
 20
149.5147321060295
 30
0.0
 11
26.23487042255186
 21
152.8897321060294
 31
0.0
  0
LINE
  5
222D
330
2201
100
AcDbEntity
  8
1
  6
CENTER
 62
     3
100
AcDbLine
 10
20.38919894700686
 20
200.8897321060298
 30
0.0
 11
26.23487042255186
 21
197.5147321060297
 31
0.0
  0
LINE
  5
222E
330
2201
100
AcDbEntity
  8
1
  6
CENTER
 62
     3
100
AcDbLine
 10
39.19375406643236
 20
219.6942872254553
 30
0.0
 11
42.56875406643238
 21
213.8486157499102
 31
0.0
  0
LINE
  5
222F
330
2201
100
AcDbEntity
  8
1
 62
     7
100
AcDbLine
 10
188.7243785319236
 20
175.2022321060293
 30
0.0
 11
188.7243785319236
 21
130.8022321060298
 31
0.0
  0
LINE
  5
2230
330
2201
100
AcDbEntity
  8
1
 62
     7
100
AcDbLine
 10
188.7243785319236
 20
130.8022321060298
 30
0.0
 11
189.1243785319236
 21
131.2022321060299
 31
0.0
  0
LINE
  5
2231
330
2201
100
AcDbEntity
  8
1
 62
     7
100
AcDbLine
 10
191.2983785319233
 20
131.2022321060297
 30
0.0
 11
189.1243785319236
 21
131.2022321060299
 31
0.0
  0
LINE
  5
2232
330
2201
100
AcDbEntity
  8
1
 62
     7
100
AcDbLine
 10
189.1243785319236
 20
123.2022321060299
 30
0.0
 11
188.7243785319236
 21
123.6022321060298
 31
0.0
  0
LINE
  5
2233
330
2201
100
AcDbEntity
  8
1
 62
     7
100
AcDbLine
 10
188.7243785319236
 20
124.9522321060297
 30
0.0
 11
188.7243785319236
 21
123.6022321060298
 31
0.0
  0
LINE
  5
2234
330
2201
100
AcDbEntity
  8
1
 62
     7
100
AcDbLine
 10
191.6243785319236
 20
123.2022321060299
 30
0.0
 11
189.1243785319236
 21
123.2022321060299
 31
0.0
  0
LINE
  5
2235
330
2201
100
AcDbEntity
  8
1
 62
     7
100
AcDbLine
 10
191.6243785319236
 20
123.2022321060299
 30
0.0
 11
192.0243785319236
 21
123.6022321060298
 31
0.0
  0
LINE
  5
2236
330
2201
100
AcDbEntity
  8
1
 62
     7
100
AcDbLine
 10
192.0243785319236
 20
124.9522321060297
 30
0.0
 11
192.0243785319236
 21
123.6022321060298
 31
0.0
  0
LINE
  5
2237
330
2201
100
AcDbEntity
  8
1
 62
     7
100
AcDbLine
 10
191.5483785319232
 20
175.2022321060293
 30
0.0
 11
191.5483785319232
 21
142.7222321060298
 31
0.0
  0
LINE
  5
2238
330
2201
100
AcDbEntity
  8
1
  6
CENTER
 62
     3
100
AcDbLine
 10
193.055403833123
 20
127.2022321060297
 30
0.0
 11
187.4639420495723
 21
127.2022321060297
 31
0.0
  0
LINE
  5
2239
330
2201
100
AcDbEntity
  8
1
 62
     7
100
AcDbLine
 10
188.7243785319236
 20
124.9522321060297
 30
0.0
 11
188.7243785319236
 21
129.4522321060294
 31
0.0
  0
LINE
  5
223A
330
2201
100
AcDbEntity
  8
1
 62
     7
100
AcDbLine
 10
192.0243785319236
 20
124.9522321060297
 30
0.0
 11
192.0243785319236
 21
129.4522321060294
 31
0.0
  0
LINE
  5
223B
330
2201
100
AcDbEntity
  8
1
 62
     7
100
AcDbLine
 10
192.0243785319236
 20
124.9522321060297
 30
0.0
 11
188.7243785319236
 21
124.9522321060297
 31
0.0
  0
LINE
  5
223C
330
2201
100
AcDbEntity
  8
1
 62
     7
100
AcDbLine
 10
192.0243785319236
 20
129.4522321060294
 30
0.0
 11
192.0243785319236
 21
142.5962321060294
 31
0.0
  0
LINE
  5
223D
330
2201
100
AcDbEntity
  8
1
 62
     7
100
AcDbLine
 10
192.0243785319236
 20
129.4522321060294
 30
0.0
 11
188.7243785319236
 21
129.4522321060294
 31
0.0
  0
LINE
  5
223E
330
2201
100
AcDbEntity
  8
1
 62
     7
100
AcDbLine
 10
188.7243785319236
 20
129.4522321060294
 30
0.0
 11
188.7243785319236
 21
130.8022321060298
 31
0.0
  0
LINE
  5
223F
330
2201
100
AcDbEntity
  8
1
 62
     7
100
AcDbLine
 10
191.5483785319232
 20
131.4522321060294
 30
0.0
 11
191.5483785319232
 21
142.7222321060298
 31
0.0
  0
LINE
  5
2240
330
2201
100
AcDbEntity
  8
1
 62
     7
100
AcDbLine
 10
188.7243785319236
 20
219.6022321060291
 30
0.0
 11
188.7243785319236
 21
175.2022321060293
 31
0.0
  0
LINE
  5
2241
330
2201
100
AcDbEntity
  8
1
 62
     7
100
AcDbLine
 10
189.1243785319236
 20
219.2022321060297
 30
0.0
 11
188.7243785319236
 21
219.6022321060291
 31
0.0
  0
LINE
  5
2242
330
2201
100
AcDbEntity
  8
1
 62
     7
100
AcDbLine
 10
189.1243785319236
 20
219.2022321060297
 30
0.0
 11
190.7243785319236
 21
219.2022321060297
 31
0.0
  0
LINE
  5
2243
330
2201
100
AcDbEntity
  8
1
 62
     7
100
AcDbLine
 10
188.7243785319236
 20
226.8022321060294
 30
0.0
 11
189.1243785319236
 21
227.2022321060297
 31
0.0
  0
LINE
  5
2244
330
2201
100
AcDbEntity
  8
1
 62
     7
100
AcDbLine
 10
188.7243785319236
 20
226.8022321060294
 30
0.0
 11
188.7243785319236
 21
225.4522321060297
 31
0.0
  0
LINE
  5
2245
330
2201
100
AcDbEntity
  8
1
 62
     7
100
AcDbLine
 10
189.1243785319236
 20
227.2022321060297
 30
0.0
 11
191.6243785319236
 21
227.2022321060297
 31
0.0
  0
LINE
  5
2246
330
2201
100
AcDbEntity
  8
1
 62
     7
100
AcDbLine
 10
192.0243785319236
 20
226.8022321060294
 30
0.0
 11
191.6243785319236
 21
227.2022321060297
 31
0.0
  0
LINE
  5
2247
330
2201
100
AcDbEntity
  8
1
 62
     7
100
AcDbLine
 10
192.0243785319236
 20
226.8022321060294
 30
0.0
 11
192.0243785319236
 21
225.4522321060297
 31
0.0
  0
LINE
  5
2248
330
2201
100
AcDbEntity
  8
1
  6
CENTER
 62
     3
100
AcDbLine
 10
191.5483785319232
 20
175.2022321060293
 30
0.0
 11
184.7243785319236
 21
175.2022321060293
 31
0.0
  0
LINE
  5
2249
330
2201
100
AcDbEntity
  8
1
 62
     7
100
AcDbLine
 10
191.5483785319232
 20
207.6822321060293
 30
0.0
 11
191.5483785319232
 21
175.2022321060293
 31
0.0
  0
LINE
  5
224A
330
2201
100
AcDbEntity
  8
1
  6
CENTER
 62
     3
100
AcDbLine
 10
187.4639420495723
 20
223.2022321060297
 30
0.0
 11
193.055403833123
 21
223.2022321060297
 31
0.0
  0
LINE
  5
224B
330
2201
100
AcDbEntity
  8
1
 62
     7
100
AcDbLine
 10
188.7243785319236
 20
220.9522321060297
 30
0.0
 11
188.7243785319236
 21
225.4522321060297
 31
0.0
  0
LINE
  5
224C
330
2201
100
AcDbEntity
  8
1
 62
     7
100
AcDbLine
 10
192.0243785319236
 20
220.9522321060297
 30
0.0
 11
192.0243785319236
 21
225.4522321060297
 31
0.0
  0
LINE
  5
224D
330
2201
100
AcDbEntity
  8
1
 62
     7
100
AcDbLine
 10
188.7243785319236
 20
225.4522321060297
 30
0.0
 11
192.0243785319236
 21
225.4522321060297
 31
0.0
  0
LINE
  5
224E
330
2201
100
AcDbEntity
  8
1
 62
     7
100
AcDbLine
 10
192.0243785319236
 20
207.8082321060294
 30
0.0
 11
192.0243785319236
 21
220.9522321060297
 31
0.0
  0
LINE
  5
224F
330
2201
100
AcDbEntity
  8
1
 62
     7
100
AcDbLine
 10
188.7243785319236
 20
220.9522321060297
 30
0.0
 11
192.0243785319236
 21
220.9522321060297
 31
0.0
  0
LINE
  5
2250
330
2201
100
AcDbEntity
  8
1
 62
     7
100
AcDbLine
 10
222.7243785319235
 20
205.9216398853128
 30
0.0
 11
222.7243785319235
 21
197.8047321060294
 31
0.0
  0
LINE
  5
2251
330
2201
100
AcDbEntity
  8
1
 62
     7
100
AcDbLine
 10
222.7243785319235
 20
144.4828243267465
 30
0.0
 11
222.7243785319235
 21
144.0772321060294
 31
0.0
  0
LINE
  5
2252
330
2201
100
AcDbEntity
  8
1
 62
     7
100
AcDbLine
 10
222.7243785319235
 20
144.4828243267465
 30
0.0
 11
221.7243785319236
 21
144.5352321060297
 31
0.0
  0
LINE
  5
2253
330
2201
100
AcDbEntity
  8
1
 62
     7
100
AcDbLine
 10
221.7243785319236
 20
144.5352321060297
 30
0.0
 11
193.5873785319236
 21
144.5352321060297
 31
0.0
  0
LINE
  5
2254
330
2201
100
AcDbEntity
  8
1
 62
     7
100
AcDbLine
 10
221.8735979809165
 20
143.2264515550228
 30
0.0
 11
219.4743785319236
 21
143.1992321060296
 31
0.0
  0
LINE
  5
2255
330
2201
100
AcDbEntity
  8
1
 62
     7
100
AcDbLine
 10
216.4743785319235
 20
143.1992321060296
 30
0.0
 11
219.4743785319236
 21
143.1992321060296
 31
0.0
  0
LINE
  5
2256
330
2201
100
AcDbEntity
  8
1
 62
     7
100
AcDbLine
 10
211.4781502889969
 20
143.260275586342
 30
0.0
 11
216.4743785319235
 21
143.1992321060296
 31
0.0
  0
LINE
  5
2257
330
2201
100
AcDbEntity
  8
1
 62
     7
100
AcDbLine
 10
222.7243785319235
 20
206.3272321060297
 30
0.0
 11
222.7243785319235
 21
205.9216398853128
 31
0.0
  0
LINE
  5
2258
330
2201
100
AcDbEntity
  8
1
 62
     7
100
AcDbLine
 10
221.7243785319236
 20
205.8692321060298
 30
0.0
 11
222.7243785319235
 21
205.9216398853128
 31
0.0
  0
LINE
  5
2259
330
2201
100
AcDbEntity
  8
1
 62
     7
100
AcDbLine
 10
193.4613785319236
 20
205.8692321060298
 30
0.0
 11
221.7243785319236
 21
205.8692321060298
 31
0.0
  0
LINE
  5
225A
330
2201
100
AcDbEntity
  8
1
  6
CENTER
 62
     3
100
AcDbLine
 10
227.3129202200497
 20
175.2022321060293
 30
0.0
 11
203.7828950758859
 21
175.2022321060293
 31
0.0
  0
LINE
  5
225B
330
2201
100
AcDbEntity
  8
1
 62
     7
100
AcDbLine
 10
219.4743785319236
 20
207.2052321060298
 30
0.0
 11
221.8735979809165
 21
207.1780126570365
 31
0.0
  0
LINE
  5
225C
330
2201
100
AcDbEntity
  8
1
 62
     7
100
AcDbLine
 10
219.4743785319236
 20
207.2052321060298
 30
0.0
 11
216.4743785319235
 21
207.2052321060298
 31
0.0
  0
LINE
  5
225D
330
2201
100
AcDbEntity
  8
1
 62
     7
100
AcDbLine
 10
216.4743785319235
 20
207.2052321060298
 30
0.0
 11
211.4781502889969
 21
207.144188625717
 31
0.0
  0
LINE
  5
225E
330
2201
100
AcDbEntity
  8
1
 62
     7
100
AcDbLine
 10
193.5873785319236
 20
206.3452321060295
 30
0.0
 11
204.8343785319234
 21
206.3452321060295
 31
0.0
  0
LINE
  5
225F
330
2201
100
AcDbEntity
  8
1
 62
     7
100
AcDbLine
 10
221.8735979809165
 20
207.1780126570365
 30
0.0
 11
222.7243785319235
 21
206.3272321060297
 31
0.0
  0
LINE
  5
2260
330
2201
100
AcDbEntity
  8
1
 62
     7
100
AcDbLine
 10
222.7243785319235
 20
144.0772321060294
 30
0.0
 11
221.8735979809165
 21
143.2264515550228
 31
0.0
  0
LINE
  5
2261
330
2201
100
AcDbEntity
  8
1
 62
     7
100
AcDbLine
 10
222.7243785319235
 20
152.4819457565454
 30
0.0
 11
222.7243785319235
 21
144.4828243267465
 31
0.0
  0
LINE
  5
2262
330
2201
100
AcDbEntity
  8
1
  6
DIVIDE
 62
     7
100
AcDbLine
 10
224.2243785317941
 20
142.2022321060294
 30
0.0
 11
224.2243785317941
 21
151.4263945636398
 31
0.0
  0
LINE
  5
2263
330
2201
100
AcDbEntity
  8
1
 62
     7
100
AcDbLine
 10
222.724378531794
 20
142.2022321060294
 30
0.0
 11
222.7243785318758
 21
143.1992321060296
 31
0.0
  0
LINE
  5
2264
330
2201
100
AcDbEntity
  8
1
  6
DIVIDE
 62
     7
100
AcDbLine
 10
222.724378531794
 20
142.2022321060294
 30
0.0
 11
224.2243785317941
 21
142.2022321060294
 31
0.0
  0
LINE
  5
2265
330
2201
100
AcDbEntity
  8
1
 62
     7
100
AcDbLine
 10
213.2243785318943
 20
152.596232445563
 30
0.0
 11
213.2243785318943
 21
162.2022321060295
 31
0.0
  0
LINE
  5
2266
330
2201
100
AcDbEntity
  8
1
 62
     7
100
AcDbLine
 10
213.2243785318943
 20
197.8082317665064
 30
0.0
 11
213.2243785318943
 21
188.2022319107804
 31
0.0
  0
LINE
  5
2267
330
2201
100
AcDbEntity
  8
1
 62
     7
100
AcDbLine
 10
222.7243785318758
 20
143.1992321060296
 30
0.0
 11
222.7243785318908
 21
143.3832321060294
 31
0.0
  0
LINE
  5
2268
330
2201
100
AcDbEntity
  8
1
 62
     7
100
AcDbLine
 10
222.7243785318758
 20
143.1992321060296
 30
0.0
 11
209.7243785632179
 21
143.1992321060296
 31
0.0
  0
LINE
  5
2269
330
2201
100
AcDbEntity
  8
1
 62
     7
100
AcDbLine
 10
210.1243785319236
 20
143.7832321060294
 30
0.0
 11
209.7243785425604
 21
143.3832321060294
 31
0.0
  0
LINE
  5
226A
330
2201
100
AcDbEntity
  8
1
 62
     7
100
AcDbLine
 10
222.3243785319235
 20
143.7832321060294
 30
0.0
 11
222.7243785318908
 21
143.3832321060294
 31
0.0
  0
LINE
  5
226B
330
2201
100
AcDbEntity
  8
1
 62
     7
100
AcDbLine
 10
209.7243785425604
 20
143.3832321060294
 30
0.0
 11
209.724378576625
 21
142.1022326031218
 31
0.0
  0
LINE
  5
226C
330
2201
100
AcDbEntity
  8
1
 62
     7
100
AcDbLine
 10
222.3243785319235
 20
143.7832321060294
 30
0.0
 11
210.1243785319236
 21
143.7832321060294
 31
0.0
  0
LINE
  5
226D
330
2201
100
AcDbEntity
  8
1
 62
     7
100
AcDbLine
 10
222.7243785316101
 20
139.9522326693732
 30
0.0
 11
222.724378531794
 21
142.2022321060294
 31
0.0
  0
LINE
  5
226E
330
2201
100
AcDbEntity
  8
1
 62
     7
100
AcDbLine
 10
222.3243785319235
 20
206.6212321060297
 30
0.0
 11
222.7243785319235
 21
207.0212321060297
 31
0.0
  0
LINE
  5
226F
330
2201
100
AcDbEntity
  8
1
 62
     7
100
AcDbLine
 10
209.7243785426271
 20
207.0212321060297
 30
0.0
 11
210.1243785319236
 21
206.6212321060297
 31
0.0
  0
LINE
  5
2270
330
2201
100
AcDbEntity
  8
1
 62
     7
100
AcDbLine
 10
222.7243785319235
 20
207.2052321060298
 30
0.0
 11
222.7243785319235
 21
207.0212321060297
 31
0.0
  0
LINE
  5
2271
330
2201
100
AcDbEntity
  8
1
 62
     7
100
AcDbLine
 10
209.7243785319236
 20
207.2052321060298
 30
0.0
 11
222.7243785319235
 21
207.2052321060298
 31
0.0
  0
LINE
  5
2272
330
2201
100
AcDbEntity
  8
1
 62
     7
100
AcDbLine
 10
209.7243785426271
 20
207.0212321060297
 30
0.0
 11
209.7243785769046
 21
208.3022316089631
 31
0.0
  0
LINE
  5
2273
330
2201
100
AcDbEntity
  8
1
 62
     7
100
AcDbLine
 10
222.3243785319235
 20
206.6212321060297
 30
0.0
 11
210.1243785319236
 21
206.6212321060297
 31
0.0
  0
LINE
  5
2274
330
2201
100
AcDbEntity
  8
0
 62
     7
100
AcDbLine
 10
222.7243785319288
 20
210.4522321060295
 30
0.0
 11
222.7243785319364
 21
214.9522321060297
 31
0.0
  0
LINE
  5
2275
330
2201
100
AcDbEntity
  8
1
 62
     7
100
AcDbLine
 10
222.7243785319288
 20
210.4522321060295
 30
0.0
 11
222.7243785319364
 21
210.4522321060295
 31
0.0
  0
LINE
  5
2276
330
2201
100
AcDbEntity
  8
1
 62
     7
100
AcDbLine
 10
222.7243785319288
 20
210.4522321060295
 30
0.0
 11
222.7243785319235
 21
207.2052321060298
 31
0.0
  0
LINE
  5
2277
330
2201
100
AcDbEntity
  8
2
  6
CENTER
 62
     3
100
AcDbLine
 10
359.5319283598588
 20
175.2022321060293
 30
0.0
 11
393.0319277216156
 21
175.2022321060293
 31
0.0
  0
LINE
  5
2278
330
2201
100
AcDbEntity
  8
0
 62
     7
100
AcDbLine
 10
346.9652616866407
 20
162.2533339599979
 30
0.0
 11
346.9652616866407
 21
158.95223235019
 31
0.0
  0
LINE
  5
2279
330
2201
100
AcDbEntity
  8
0
 62
     7
100
AcDbLine
 10
346.0985950329956
 20
162.2533339599979
 30
0.0
 11
346.0985950329956
 21
158.95223235019
 31
0.0
  0
LINE
  5
227A
330
2201
100
AcDbEntity
  8
0
 62
     7
100
AcDbLine
 10
346.0985950329956
 20
158.95223235019
 30
0.0
 11
343.2385950759496
 21
158.95223235019
 31
0.0
  0
LINE
  5
227B
330
2201
100
AcDbEntity
  8
0
 62
     7
100
AcDbLine
 10
342.3719284223281
 20
159.8188990038555
 30
0.0
 11
342.3719284223281
 21
161.582238492786
 31
0.0
  0
LINE
  5
227C
330
2201
100
AcDbEntity
  8
0
 62
     7
100
AcDbLine
 10
350.691928297322
 20
159.8188990038555
 30
0.0
 11
350.691928297322
 21
161.582238492786
 31
0.0
  0
LINE
  5
227D
330
2201
100
AcDbEntity
  8
0
 62
     7
100
AcDbLine
 10
346.9652616866407
 20
158.95223235019
 30
0.0
 11
349.8252616436896
 21
158.95223235019
 31
0.0
  0
LINE
  5
227E
330
2201
100
AcDbEntity
  8
0
 62
     7
100
AcDbLine
 10
213.2243785318943
 20
197.8082317665064
 30
0.0
 11
220.6243785318944
 21
197.8082317665064
 31
0.0
  0
LINE
  5
227F
330
2201
100
AcDbEntity
  8
0
 62
     7
100
AcDbLine
 10
220.6243785318944
 20
197.8082317665064
 30
0.0
 11
220.6243785318944
 21
188.4522319070171
 31
0.0
  0
LINE
  5
2280
330
2201
100
AcDbEntity
  8
0
 62
     7
100
AcDbLine
 10
220.6243785318944
 20
188.4522319070171
 30
0.0
 11
213.2243785318943
 21
188.4522319070171
 31
0.0
  0
LINE
  5
2281
330
2201
100
AcDbEntity
  8
0
 62
     7
100
AcDbLine
 10
216.9518785398333
 20
188.4522319070171
 30
0.0
 11
216.9518785398333
 21
197.8082317665064
 31
0.0
  0
LINE
  5
2282
330
2201
100
AcDbEntity
  8
0
 62
     7
100
AcDbLine
 10
216.9518785398333
 20
191.2022318657281
 30
0.0
 11
213.2243785318943
 21
191.2022318657281
 31
0.0
  0
LINE
  5
2283
330
2201
100
AcDbEntity
  8
0
 62
     7
100
AcDbLine
 10
213.2243785318943
 20
152.596232445563
 30
0.0
 11
220.6243785318488
 21
152.596232445563
 31
0.0
  0
LINE
  5
2284
330
2201
100
AcDbEntity
  8
0
 62
     7
100
AcDbLine
 10
220.6243785318488
 20
152.596232445563
 30
0.0
 11
220.6243785318488
 21
161.9522323050524
 31
0.0
  0
LINE
  5
2285
330
2201
100
AcDbEntity
  8
0
 62
     7
100
AcDbLine
 10
220.6243785318488
 20
161.9522323050524
 30
0.0
 11
213.2243785318943
 21
161.9522323050524
 31
0.0
  0
LINE
  5
2286
330
2201
100
AcDbEntity
  8
0
 62
     7
100
AcDbLine
 10
216.9518785398333
 20
161.9522323050524
 30
0.0
 11
216.9518785398333
 21
159.2022323463388
 31
0.0
  0
LINE
  5
2287
330
2201
100
AcDbEntity
  8
0
 62
     7
100
AcDbLine
 10
216.9518785398333
 20
159.2022323463388
 30
0.0
 11
213.2243785318943
 21
159.2022323463388
 31
0.0
  0
LINE
  5
2288
330
2201
100
AcDbEntity
  8
0
 62
     7
100
AcDbLine
 10
205.5243785318944
 20
196.7022317831528
 30
0.0
 11
205.5243785318944
 21
183.1327475788399
 31
0.0
  0
LINE
  5
2289
330
2201
100
AcDbEntity
  8
0
 62
     7
100
AcDbLine
 10
205.5243785318944
 20
196.7022317831528
 30
0.0
 11
209.2243785318944
 21
196.7022317831528
 31
0.0
  0
LINE
  5
228A
330
2201
100
AcDbEntity
  8
0
 62
     7
100
AcDbLine
 10
209.2243785318944
 20
196.7022317831528
 30
0.0
 11
209.2243785318944
 21
188.602231904761
 31
0.0
  0
LINE
  5
228B
330
2201
100
AcDbEntity
  8
0
 62
     7
100
AcDbLine
 10
209.6243785258856
 20
188.2022319107804
 30
0.0
 11
221.7018784684918
 21
188.2022319107804
 31
0.0
  0
LINE
  5
228C
330
2201
100
AcDbEntity
  8
0
 62
     7
100
AcDbLine
 10
221.7018784684918
 20
188.2022319107804
 30
0.0
 11
221.7018784684918
 21
187.6522319190556
 31
0.0
  0
LINE
  5
228D
330
2201
100
AcDbEntity
  8
0
 62
     7
100
AcDbLine
 10
221.7018784684918
 20
187.6522319190556
 30
0.0
 11
223.0243785319236
 21
187.6522319190556
 31
0.0
  0
LINE
  5
228E
330
2201
100
AcDbEntity
  8
0
 62
     7
100
AcDbLine
 10
223.0243785319236
 20
187.6522319190556
 30
0.0
 11
223.0243785319236
 21
188.2022319107804
 31
0.0
  0
LINE
  5
228F
330
2201
100
AcDbEntity
  8
0
 62
     7
100
AcDbLine
 10
223.0243785319236
 20
188.2022319107804
 30
0.0
 11
225.2243785394349
 21
188.2022319107323
 31
0.0
  0
LINE
  5
2290
330
2201
100
AcDbEntity
  8
0
 62
     7
100
AcDbLine
 10
225.7243785319236
 20
187.4522319220423
 30
0.0
 11
225.7243785319236
 21
175.2022321060293
 31
0.0
  0
LINE
  5
2291
330
2201
100
AcDbEntity
  8
0
 62
     7
100
AcDbLine
 10
225.2243785394349
 20
188.2022319107804
 30
0.0
 11
225.7243785319236
 21
187.7022319182561
 31
0.0
  0
LINE
  5
2292
330
2201
100
AcDbEntity
  8
0
 62
     7
100
AcDbLine
 10
225.7243785319236
 20
187.7022319182561
 30
0.0
 11
225.7243785319236
 21
187.4522319220423
 31
0.0
  0
LINE
  5
2293
330
2201
100
AcDbEntity
  8
0
 62
     7
100
AcDbLine
 10
205.5243785318944
 20
153.7022324289116
 30
0.0
 11
209.2243785318944
 21
153.7022324289116
 31
0.0
  0
LINE
  5
2294
330
2201
100
AcDbEntity
  8
0
 62
     7
100
AcDbLine
 10
209.2243785318944
 20
153.7022324289116
 30
0.0
 11
209.2243785318944
 21
161.8022323073056
 31
0.0
  0
LINE
  5
2295
330
2201
100
AcDbEntity
  8
0
 62
     7
100
AcDbLine
 10
209.6243785258856
 20
162.2022323012967
 30
0.0
 11
221.7018784684918
 21
162.2022323012967
 31
0.0
  0
LINE
  5
2296
330
2201
100
AcDbEntity
  8
0
 62
     7
100
AcDbLine
 10
221.7018784684918
 20
162.2022323012967
 30
0.0
 11
221.7018784684918
 21
162.752232293009
 31
0.0
  0
LINE
  5
2297
330
2201
100
AcDbEntity
  8
0
 62
     7
100
AcDbLine
 10
221.7018784684918
 20
162.752232293009
 30
0.0
 11
223.0243785319236
 21
162.752232293009
 31
0.0
  0
LINE
  5
2298
330
2201
100
AcDbEntity
  8
0
 62
     7
100
AcDbLine
 10
223.0243785319236
 20
162.752232293009
 30
0.0
 11
223.0243785319236
 21
162.2022323012967
 31
0.0
  0
LINE
  5
2299
330
2201
100
AcDbEntity
  8
0
 62
     7
100
AcDbLine
 10
223.0243785319236
 20
162.2022323012967
 30
0.0
 11
225.2243785394349
 21
162.2022323013474
 31
0.0
  0
LINE
  5
229A
330
2201
100
AcDbEntity
  8
0
 62
     7
100
AcDbLine
 10
225.7243785319236
 20
162.9522322900299
 30
0.0
 11
225.7243785319236
 21
175.2022321060293
 31
0.0
  0
LINE
  5
229B
330
2201
100
AcDbEntity
  8
0
 62
     7
100
AcDbLine
 10
225.2243785394349
 20
162.2022323012967
 30
0.0
 11
225.7243785319236
 21
162.7022322938109
 31
0.0
  0
LINE
  5
229C
330
2201
100
AcDbEntity
  8
0
 62
     7
100
AcDbLine
 10
225.7243785319236
 20
162.7022322938109
 30
0.0
 11
225.7243785319236
 21
162.9522322900299
 31
0.0
  0
LINE
  5
229D
330
2201
100
AcDbEntity
  8
0
 62
     7
100
AcDbLine
 10
209.7243785244359
 20
188.7022319032566
 30
0.0
 11
212.7518786029328
 21
188.7022319032566
 31
0.0
  0
LINE
  5
229E
330
2201
100
AcDbEntity
  8
0
 62
     7
100
AcDbLine
 10
209.7243785244359
 20
188.7022319032566
 30
0.0
 11
209.7243785244359
 21
190.2022318807761
 31
0.0
  0
LINE
  5
229F
330
2201
100
AcDbEntity
  8
0
 62
     7
100
AcDbLine
 10
209.2243785319454
 20
190.2022318807761
 30
0.0
 11
209.2243785319454
 21
188.7022319032566
 31
0.0
  0
LINE
  5
22A0
330
2201
100
AcDbEntity
  8
0
 62
     7
100
AcDbLine
 10
210.7518786329683
 20
196.2022317906285
 30
0.0
 11
210.7518786329683
 21
201.7022317079844
 31
0.0
  0
LINE
  5
22A1
330
2201
100
AcDbEntity
  8
0
 62
     7
100
AcDbLine
 10
210.7518786329683
 20
201.7022317079844
 30
0.0
 11
212.2518786104391
 21
201.7022317079844
 31
0.0
  0
LINE
  5
22A2
330
2201
100
AcDbEntity
  8
0
 62
     7
100
AcDbLine
 10
209.2243785319454
 20
190.2022318807761
 30
0.0
 11
209.2243785319454
 21
196.2022317906285
 31
0.0
  0
LINE
  5
22A3
330
2201
100
AcDbEntity
  8
0
 62
     7
100
AcDbLine
 10
209.2243785319454
 20
196.2022317906285
 30
0.0
 11
210.7518786329683
 21
196.2022317906285
 31
0.0
  0
LINE
  5
22A4
330
2201
100
AcDbEntity
  8
0
 62
     7
100
AcDbLine
 10
209.7243785244359
 20
190.2022318807761
 30
0.0
 11
209.2243785319454
 21
190.2022318807761
 31
0.0
  0
LINE
  5
22A5
330
2201
100
AcDbEntity
  8
0
 62
     7
100
AcDbLine
 10
212.2518786104391
 20
201.7022317079844
 30
0.0
 11
212.2518786104391
 21
196.2022317906285
 31
0.0
  0
LINE
  5
22A6
330
2201
100
AcDbEntity
  8
0
 62
     7
100
AcDbLine
 10
212.2518786104391
 20
196.2022317906285
 30
0.0
 11
216.7518785428684
 21
196.2022317906285
 31
0.0
  0
LINE
  5
22A7
330
2201
100
AcDbEntity
  8
0
 62
     7
100
AcDbLine
 10
216.7518785428684
 20
196.2022317906285
 30
0.0
 11
216.7518785428684
 21
191.4522318619676
 31
0.0
  0
LINE
  5
22A8
330
2201
100
AcDbEntity
  8
0
 62
     7
100
AcDbLine
 10
216.7518785428684
 20
191.4522318619676
 30
0.0
 11
212.7518786029328
 21
191.4522318619676
 31
0.0
  0
LINE
  5
22A9
330
2201
100
AcDbEntity
  8
0
 62
     7
100
AcDbLine
 10
212.7518786029328
 20
188.7022319032566
 30
0.0
 11
212.7518786029328
 21
191.4522318619676
 31
0.0
  0
LINE
  5
22AA
330
2201
100
AcDbEntity
  8
0
 62
     7
100
AcDbLine
 10
209.7243785244359
 20
161.702232308808
 30
0.0
 11
212.7518786029328
 21
161.702232308808
 31
0.0
  0
LINE
  5
22AB
330
2201
100
AcDbEntity
  8
0
 62
     7
100
AcDbLine
 10
212.2518786104391
 20
154.2022324214513
 30
0.0
 11
212.2518786104391
 21
148.7022325041258
 31
0.0
  0
LINE
  5
22AC
330
2201
100
AcDbEntity
  8
0
 62
     7
100
AcDbLine
 10
212.2518786104391
 20
148.7022325041258
 30
0.0
 11
210.7518786329683
 21
148.7022325041258
 31
0.0
  0
LINE
  5
22AD
330
2201
100
AcDbEntity
  8
0
 62
     7
100
AcDbLine
 10
210.7518786329683
 20
148.7022325041258
 30
0.0
 11
210.7518786329683
 21
154.2022324214513
 31
0.0
  0
LINE
  5
22AE
330
2201
100
AcDbEntity
  8
0
 62
     7
100
AcDbLine
 10
213.224378531907
 20
154.2022324214513
 30
0.0
 11
212.2518786104391
 21
154.2022324214513
 31
0.0
  0
LINE
  5
22AF
330
2201
100
AcDbEntity
  8
0
 62
     7
100
AcDbLine
 10
210.7518786329683
 20
154.2022324214513
 30
0.0
 11
205.7518787080751
 21
154.2022324214513
 31
0.0
  0
LINE
  5
22B0
330
2201
100
AcDbEntity
  8
0
 62
     7
100
AcDbLine
 10
205.7518787080751
 20
154.2022324214513
 30
0.0
 11
205.7518787080751
 21
160.2022323313414
 31
0.0
  0
LINE
  5
22B1
330
2201
100
AcDbEntity
  8
0
 62
     7
100
AcDbLine
 10
205.7518787080751
 20
160.2022323313414
 30
0.0
 11
209.2243785319454
 21
160.2022323313414
 31
0.0
  0
LINE
  5
22B2
330
2201
100
AcDbEntity
  8
0
 62
     7
100
AcDbLine
 10
209.2243785319454
 20
160.2022323313414
 30
0.0
 11
209.2243785319454
 21
161.702232308808
 31
0.0
  0
LINE
  5
22B3
330
2201
100
AcDbEntity
  8
0
 62
     7
100
AcDbLine
 10
209.2243785319454
 20
160.2022323313414
 30
0.0
 11
209.2243785319454
 21
154.2022324214513
 31
0.0
  0
LINE
  5
22B4
330
2201
100
AcDbEntity
  8
0
 62
     7
100
AcDbLine
 10
209.2243785319454
 20
160.2022323313414
 30
0.0
 11
209.7243785244359
 21
160.2022323313414
 31
0.0
  0
LINE
  5
22B5
330
2201
100
AcDbEntity
  8
0
 62
     7
100
AcDbLine
 10
209.7243785244359
 20
160.2022323313414
 30
0.0
 11
209.7243785244359
 21
161.702232308808
 31
0.0
  0
LINE
  5
22B6
330
2201
100
AcDbEntity
  8
0
 62
     7
100
AcDbLine
 10
212.7518786029328
 20
161.702232308808
 30
0.0
 11
212.7518786029328
 21
158.9522323500944
 31
0.0
  0
LINE
  5
22B7
330
2201
100
AcDbEntity
  8
0
 62
     7
100
AcDbLine
 10
212.7518786029328
 20
158.9522323500944
 30
0.0
 11
213.224378531907
 21
158.9522323500944
 31
0.0
  0
LINE
  5
22B8
330
2201
100
AcDbEntity
  8
0
 62
     7
100
AcDbLine
 10
209.2243785319454
 20
188.7022319032566
 30
0.0
 11
209.2243785319454
 21
188.2022319107804
 31
0.0
  0
LINE
  5
22B9
330
2201
100
AcDbEntity
  8
0
 62
     7
100
AcDbLine
 10
209.7243785244359
 20
188.7022319032566
 30
0.0
 11
209.7243785244359
 21
188.2022319107804
 31
0.0
  0
LINE
  5
22BA
330
2201
100
AcDbEntity
  8
0
 62
     7
100
AcDbLine
 10
212.7518786029328
 20
188.7022319032566
 30
0.0
 11
212.7518786029328
 21
188.2022319107804
 31
0.0
  0
LINE
  5
22BB
330
2201
100
AcDbEntity
  8
0
 62
     7
100
AcDbLine
 10
213.224378531907
 20
188.2022319107804
 30
0.0
 11
213.2243785318943
 21
188.2022319107804
 31
0.0
  0
LINE
  5
22BC
330
2201
100
AcDbEntity
  8
0
 62
     7
100
AcDbLine
 10
209.2243785319454
 20
161.702232308808
 30
0.0
 11
209.2243785319454
 21
162.2022323013474
 31
0.0
  0
LINE
  5
22BD
330
2201
100
AcDbEntity
  8
0
 62
     7
100
AcDbLine
 10
209.7243785244359
 20
161.702232308808
 30
0.0
 11
209.7243785244359
 21
162.2022323013474
 31
0.0
  0
LINE
  5
22BE
330
2201
100
AcDbEntity
  8
0
 62
     7
100
AcDbLine
 10
212.7518786029328
 20
161.702232308808
 30
0.0
 11
212.7518786029328
 21
162.2022323013474
 31
0.0
  0
LINE
  5
22BF
330
2201
100
AcDbEntity
  8
0
 62
     7
100
AcDbLine
 10
225.7243785319236
 20
162.7022322938109
 30
0.0
 11
225.7243785319236
 21
162.9522322900299
 31
0.0
  0
LINE
  5
22C0
330
2201
100
AcDbEntity
  8
0
 62
     7
100
AcDbLine
 10
205.5243785318944
 20
182.5022319964113
 30
0.0
 11
225.7243785319236
 21
182.5022319964113
 31
0.0
  0
LINE
  5
22C1
330
2201
100
AcDbEntity
  8
0
 62
     7
100
AcDbLine
 10
205.5243785318944
 20
180.7022320234286
 30
0.0
 11
225.7243785319236
 21
180.7022320234286
 31
0.0
  0
LINE
  5
22C2
330
2201
100
AcDbEntity
  8
0
 62
     7
100
AcDbLine
 10
205.5243785318944
 20
169.7022321886534
 30
0.0
 11
225.7243785319236
 21
169.7022321886534
 31
0.0
  0
LINE
  5
22C3
330
2201
100
AcDbEntity
  8
0
 62
     7
100
AcDbLine
 10
205.5243785318944
 20
161.702232308808
 30
0.0
 11
209.2243785319454
 21
161.702232308808
 31
0.0
  0
LINE
  5
22C4
330
2201
100
AcDbEntity
  8
0
 62
     7
100
AcDbLine
 10
220.6518784842399
 20
192.7022318432046
 30
0.0
 11
221.7018784684918
 21
192.7022318432046
 31
0.0
  0
LINE
  5
22C5
330
2201
100
AcDbEntity
  8
0
 62
     7
100
AcDbLine
 10
221.7018784684918
 20
192.7022318432046
 30
0.0
 11
221.7018784684918
 21
188.2022319107804
 31
0.0
  0
LINE
  5
22C6
330
2201
100
AcDbEntity
  8
0
 62
     7
100
AcDbLine
 10
221.7018784684918
 20
188.7022319032566
 30
0.0
 11
220.6243785318743
 21
188.7022319032566
 31
0.0
  0
LINE
  5
22C7
330
2201
100
AcDbEntity
  8
0
 62
     7
100
AcDbLine
 10
221.7018784684918
 20
191.2022318657281
 30
0.0
 11
223.0243785319236
 21
191.2022318657281
 31
0.0
  0
LINE
  5
22C8
330
2201
100
AcDbEntity
  8
0
 62
     7
100
AcDbLine
 10
223.0243785319236
 20
191.2022318657281
 30
0.0
 11
223.0243785319236
 21
188.2022319107804
 31
0.0
  0
LINE
  5
22C9
330
2201
100
AcDbEntity
  8
0
 62
     7
100
AcDbLine
 10
220.6243785318284
 20
157.7022323689234
 30
0.0
 11
221.7018784684918
 21
157.7022323689234
 31
0.0
  0
LINE
  5
22CA
330
2201
100
AcDbEntity
  8
0
 62
     7
100
AcDbLine
 10
221.7018784684918
 20
157.7022323689234
 30
0.0
 11
221.7018784684918
 21
162.2022323012967
 31
0.0
  0
LINE
  5
22CB
330
2201
100
AcDbEntity
  8
0
 62
     7
100
AcDbLine
 10
221.7018784684918
 20
161.702232308808
 30
0.0
 11
220.6243785318284
 21
161.702232308808
 31
0.0
  0
LINE
  5
22CC
330
2201
100
AcDbEntity
  8
0
 62
     7
100
AcDbLine
 10
221.7018784684918
 20
159.2022323463388
 30
0.0
 11
223.0243785319236
 21
159.2022323463388
 31
0.0
  0
LINE
  5
22CD
330
2201
100
AcDbEntity
  8
0
 62
     7
100
AcDbLine
 10
223.0243785319236
 20
159.2022323463388
 30
0.0
 11
223.0243785319236
 21
162.2022323012967
 31
0.0
  0
LINE
  5
22CE
330
2201
100
AcDbEntity
  8
0
 62
     7
100
AcDbLine
 10
222.7243785319521
 20
217.3022314736335
 30
0.0
 11
222.324378537798
 21
217.7022314675991
 31
0.0
  0
LINE
  5
22CF
330
2201
100
AcDbEntity
  8
0
 62
     7
100
AcDbLine
 10
222.324378537798
 20
217.7022314675991
 30
0.0
 11
213.1243785259296
 21
217.7022314678784
 31
0.0
  0
LINE
  5
22D0
330
2201
100
AcDbEntity
  8
0
 62
     7
100
AcDbLine
 10
213.1243785259296
 20
217.7022314678784
 30
0.0
 11
212.7243785319131
 21
217.3022314738112
 31
0.0
  0
LINE
  5
22D1
330
2201
100
AcDbEntity
  8
0
 62
     7
100
AcDbLine
 10
212.7243785319131
 20
217.3022314738112
 30
0.0
 11
212.7243785319236
 21
214.9522321060297
 31
0.0
  0
LINE
  5
22D2
330
2201
100
AcDbEntity
  8
0
 62
     7
100
AcDbLine
 10
212.4243785364709
 20
208.7022316028523
 30
0.0
 11
210.1243785709717
 21
208.7022316029286
 31
0.0
  0
LINE
  5
22D3
330
2201
100
AcDbEntity
  8
0
 62
     7
100
AcDbLine
 10
210.1243785709717
 20
208.7022316029286
 30
0.0
 11
209.7243785769046
 21
208.3022316089631
 31
0.0
  0
LINE
  5
22D4
330
2201
100
AcDbEntity
  8
0
 62
     7
100
AcDbLine
 10
222.7243785315904
 20
133.1022327385783
 30
0.0
 11
222.3243785374324
 21
132.7022327444856
 31
0.0
  0
LINE
  5
22D5
330
2201
100
AcDbEntity
  8
0
 62
     7
100
AcDbLine
 10
222.3243785374324
 20
132.7022327444856
 30
0.0
 11
213.1243785256499
 21
132.7022327444856
 31
0.0
  0
LINE
  5
22D6
330
2201
100
AcDbEntity
  8
0
 62
     7
100
AcDbLine
 10
213.1243785256499
 20
132.7022327444856
 30
0.0
 11
212.7243785316339
 21
133.102232738324
 31
0.0
  0
LINE
  5
22D7
330
2201
100
AcDbEntity
  8
0
 62
     7
100
AcDbLine
 10
212.7243785316339
 20
133.102232738324
 30
0.0
 11
212.7243785316056
 21
135.4522326693732
 31
0.0
  0
LINE
  5
22D8
330
2201
100
AcDbEntity
  8
0
 62
     7
100
AcDbLine
 10
212.4243785360897
 20
141.702232609283
 30
0.0
 11
210.1243785706161
 21
141.7022326095372
 31
0.0
  0
LINE
  5
22D9
330
2201
100
AcDbEntity
  8
0
 62
     7
100
AcDbLine
 10
210.1243785706161
 20
141.7022326095372
 30
0.0
 11
209.724378576625
 21
142.1022326031218
 31
0.0
  0
LINE
  5
22DA
330
2201
100
AcDbEntity
  8
0
 62
     7
100
AcDbLine
 10
222.7243785315904
 20
133.1022327385783
 30
0.0
 11
222.7243785316101
 21
135.4522326693732
 31
0.0
  0
LINE
  5
22DB
330
2201
100
AcDbEntity
  8
0
 62
     7
100
AcDbLine
 10
212.7243785319274
 20
211.0522321060297
 30
0.0
 11
212.7243785319236
 21
210.7022321060297
 31
0.0
  0
LINE
  5
22DC
330
2201
100
AcDbEntity
  8
0
 62
     7
100
AcDbLine
 10
222.7243785319288
 20
210.4522321060295
 30
0.0
 11
222.7243785319364
 21
210.4522321060295
 31
0.0
  0
LINE
  5
22DD
330
2201
100
AcDbEntity
  8
2
  6
CENTER
 62
     3
100
AcDbLine
 10
346.5319283598994
 20
221.7022314678279
 30
0.0
 11
346.5319283598958
 21
217.7022314678279
 31
0.0
  0
LINE
  5
22DE
330
2201
100
AcDbEntity
  8
2
  6
CENTER
 62
     3
100
AcDbLine
 10
300.0319289980191
 20
175.2022321060293
 30
0.0
 11
359.5319283598588
 21
175.2022321060293
 31
0.0
  0
LINE
  5
22DF
330
2201
100
AcDbEntity
  8
1
 62
     7
100
AcDbLine
 10
344.5319283901163
 20
180.3257074121853
 30
0.0
 11
344.5319283901163
 21
182.5022319965432
 31
0.0
  0
LINE
  5
22E0
330
2201
100
AcDbEntity
  8
1
 62
     7
100
AcDbLine
 10
348.5319283297723
 20
182.5022319965432
 30
0.0
 11
348.5319283297723
 21
180.3257074121853
 31
0.0
  0
LINE
  5
22E1
330
2201
100
AcDbEntity
  8
1
 62
     7
100
AcDbLine
 10
344.5319283901163
 20
182.5022319965432
 30
0.0
 11
348.5319283297723
 21
182.5022319965432
 31
0.0
  0
LINE
  5
22E2
330
2201
100
AcDbEntity
  8
1
  6
CENTER
 62
     3
100
AcDbLine
 10
366.9694283590409
 20
139.8034437258654
 30
0.0
 11
363.5944283591768
 21
145.6491152014889
 31
0.0
  0
LINE
  5
22E3
330
2201
100
AcDbEntity
  8
1
  6
CENTER
 62
     3
100
AcDbLine
 10
381.9307167390779
 20
154.7647321052059
 30
0.0
 11
376.0850452636115
 21
158.139732105342
 31
0.0
  0
LINE
  5
22E4
330
2201
100
AcDbEntity
  8
1
  6
CENTER
 62
     3
100
AcDbLine
 10
381.9307167400288
 20
195.6397321052061
 30
0.0
 11
376.0850452644052
 21
192.2647321053418
 31
0.0
  0
LINE
  5
22E5
330
2201
100
AcDbEntity
  8
1
  6
CENTER
 62
     3
100
AcDbLine
 10
366.969428360688
 20
210.601020485243
 30
0.0
 11
363.594428360552
 21
204.7553490097766
 31
0.0
  0
LINE
  5
22E6
330
2201
100
AcDbEntity
  8
1
  6
CENTER
 62
     3
100
AcDbLine
 10
336.0497570332132
 20
214.3222280707372
 30
0.0
 11
337.6026713038278
 21
208.5266731130028
 31
0.0
  0
LINE
  5
22E7
330
2201
100
AcDbEntity
  8
1
  6
CENTER
 62
     3
100
AcDbLine
 10
357.0140996865156
 20
136.082236141322
 30
0.0
 11
355.4611854159006
 21
141.8777910990566
 31
0.0
  0
LINE
  5
22E8
330
2201
100
AcDbEntity
  8
1
 62
     3
100
AcDbLine
 10
212.7243785319236
 20
214.7022321060297
 30
0.0
 11
218.5800409646343
 21
214.7022321060297
 31
0.0
  0
LINE
  5
22E9
330
2201
100
AcDbEntity
  8
0
 62
     7
100
AcDbLine
 10
212.7243785319236
 20
214.7022321060297
 30
0.0
 11
212.7243785319236
 21
214.3022321060298
 31
0.0
  0
LINE
  5
22EA
330
2201
100
AcDbEntity
  8
0
 62
     7
100
AcDbLine
 10
212.7243785319236
 20
210.7022321060297
 30
0.0
 11
212.7243785319236
 21
210.4522321060295
 31
0.0
  0
LINE
  5
22EB
330
2201
100
AcDbEntity
  8
1
 62
     7
100
AcDbLine
 10
212.7243785319236
 20
214.3022321060298
 30
0.0
 11
218.3491008569585
 21
214.3022321060298
 31
0.0
  0
LINE
  5
22EC
330
2201
100
AcDbEntity
  8
0
 62
     7
100
AcDbLine
 10
212.7243785319236
 20
214.3022321060298
 30
0.0
 11
212.7243785319236
 21
211.1022321060297
 31
0.0
  0
LINE
  5
22ED
330
2201
100
AcDbEntity
  8
0
 62
     7
100
AcDbLine
 10
212.7243785319236
 20
211.1022321060297
 30
0.0
 11
212.7243785319274
 21
211.0522321060297
 31
0.0
  0
LINE
  5
22EE
330
2201
100
AcDbEntity
  8
1
  6
DASHDOT
 62
     3
100
AcDbLine
 10
209.524378579985
 20
212.7022321060297
 30
0.0
 11
228.9518783597546
 21
212.7022321060297
 31
0.0
  0
LINE
  5
22EF
330
2201
100
AcDbEntity
  8
0
 62
     7
100
AcDbLine
 10
212.7243785319236
 20
210.4522321060295
 30
0.0
 11
212.7243785319385
 21
209.0022315983202
 31
0.0
  0
LINE
  5
22F0
330
2201
100
AcDbEntity
  8
0
 62
     7
100
AcDbLine
 10
222.7243785319364
 20
210.4522321060295
 30
0.0
 11
222.7243785319288
 21
210.4522321060295
 31
0.0
  0
LINE
  5
22F1
330
2201
100
AcDbEntity
  8
0
 62
     7
100
AcDbLine
 10
222.7243785319364
 20
210.4522321060295
 30
0.0
 11
222.7243785319288
 21
210.4522321060295
 31
0.0
  0
LINE
  5
22F2
330
2201
100
AcDbEntity
  8
0
 62
     7
100
AcDbLine
 10
212.7243785319236
 20
214.9522321060297
 30
0.0
 11
212.7243785319236
 21
214.7022321060297
 31
0.0
  0
LINE
  5
22F3
330
2201
100
AcDbEntity
  8
0
 62
     7
100
AcDbLine
 10
222.7243785319364
 20
214.9522321060297
 30
0.0
 11
222.7243785319521
 21
217.3022314736335
 31
0.0
  0
LINE
  5
22F4
330
2201
100
AcDbEntity
  8
1
 62
     7
100
AcDbLine
 10
218.7243785319316
 20
214.9522321060297
 30
0.0
 11
222.7243785319364
 21
214.9522321060297
 31
0.0
  0
LINE
  5
22F5
330
2201
100
AcDbEntity
  8
1
 62
     7
100
AcDbLine
 10
218.7243785319419
 20
210.4522321060295
 30
0.0
 11
222.7243785319288
 21
210.4522321060295
 31
0.0
  0
LINE
  5
22F6
330
2201
100
AcDbEntity
  8
1
 62
     7
100
AcDbLine
 10
218.7243785319316
 20
214.9522321060297
 30
0.0
 11
218.3491008569585
 21
214.3022321060298
 31
0.0
  0
LINE
  5
22F7
330
2201
100
AcDbEntity
  8
1
 62
     7
100
AcDbLine
 10
218.3491008569585
 20
214.3022321060298
 30
0.0
 11
218.3491008569688
 21
211.1022321060297
 31
0.0
  0
LINE
  5
22F8
330
2201
100
AcDbEntity
  8
1
 62
     7
100
AcDbLine
 10
218.3491008569688
 20
211.1022321060297
 30
0.0
 11
212.7243785319236
 21
211.1022321060297
 31
0.0
  0
LINE
  5
22F9
330
2201
100
AcDbEntity
  8
1
 62
     7
100
AcDbLine
 10
218.3491008569688
 20
211.1022321060297
 30
0.0
 11
218.7243785319419
 21
210.4522321060295
 31
0.0
  0
LINE
  5
22FA
330
2201
100
AcDbEntity
  8
1
 62
     7
100
AcDbLine
 10
218.7243785319419
 20
210.4522321060295
 30
0.0
 11
218.7243785319316
 21
214.9522321060297
 31
0.0
  0
LINE
  5
22FB
330
2201
100
AcDbEntity
  8
1
 62
     3
100
AcDbLine
 10
218.5800409646446
 20
210.7022321060297
 30
0.0
 11
212.7243785319236
 21
210.7022321060297
 31
0.0
  0
LINE
  5
22FC
330
2201
100
AcDbEntity
  8
1
  6
DASHDOT
 62
     3
100
AcDbLine
 10
209.5243785796688
 20
137.7022326693732
 30
0.0
 11
228.9518783594264
 21
137.7022326693732
 31
0.0
  0
LINE
  5
22FD
330
2201
100
AcDbEntity
  8
1
 62
     7
100
AcDbLine
 10
212.7243785316056
 20
135.4522326693732
 30
0.0
 11
222.7243785316101
 21
135.4522326693732
 31
0.0
  0
LINE
  5
22FE
330
2201
100
AcDbEntity
  8
0
 62
     7
100
AcDbLine
 10
212.7243785316056
 20
135.4522326693732
 30
0.0
 11
212.7243785316056
 21
139.9522326693732
 31
0.0
  0
LINE
  5
22FF
330
2201
100
AcDbEntity
  8
0
 62
     7
100
AcDbLine
 10
222.7243785316101
 20
135.4522326693732
 30
0.0
 11
222.7243785316101
 21
139.9522326693732
 31
0.0
  0
LINE
  5
2300
330
2201
100
AcDbEntity
  8
1
 62
     7
100
AcDbLine
 10
212.7243785316056
 20
139.9522326693732
 30
0.0
 11
222.7243785316101
 21
139.9522326693732
 31
0.0
  0
LINE
  5
2301
330
2201
100
AcDbEntity
  8
0
 62
     7
100
AcDbLine
 10
212.7243785316056
 20
139.9522326693732
 30
0.0
 11
212.7243785315831
 21
141.4022326138406
 31
0.0
  0
LINE
  5
2302
330
2201
100
AcDbEntity
  8
1
 62
     7
100
AcDbLine
 10
188.7243785319236
 20
219.6022321060291
 30
0.0
 11
188.7243785319236
 21
220.9522321060297
 31
0.0
  0
LINE
  5
2303
330
2201
100
AcDbEntity
  8
1
 62
     7
100
AcDbLine
 10
191.5483785319232
 20
207.6822321060293
 30
0.0
 11
191.5483785319232
 21
218.9522321060297
 31
0.0
  0
LINE
  5
2304
330
2201
100
AcDbEntity
  8
1
 62
     7
100
AcDbLine
 10
204.8343785319234
 20
144.0592321060295
 30
0.0
 11
193.4613785319236
 21
144.0592321060298
 31
0.0
  0
LINE
  5
2305
330
2201
100
AcDbEntity
  8
1
  6
PHANTOM
 62
     4
100
AcDbLine
 10
190.7243785319236
 20
203.2022321060297
 30
0.0
 11
200.1243785319235
 21
203.2022321060297
 31
0.0
  0
LINE
  5
2306
330
2201
100
AcDbEntity
  8
1
  6
PHANTOM
 62
     4
100
AcDbLine
 10
190.7243785319236
 20
219.2022321060297
 30
0.0
 11
190.7243785319236
 21
203.2022321060297
 31
0.0
  0
LINE
  5
2307
330
2201
100
AcDbEntity
  8
1
 62
     7
100
AcDbLine
 10
190.7243785319236
 20
219.2022321060297
 30
0.0
 11
191.2983785319233
 21
219.2022321060297
 31
0.0
  0
LINE
  5
2308
330
2201
100
AcDbEntity
  8
1
  6
PHANTOM
 62
     4
100
AcDbLine
 10
203.0243785319532
 20
208.2022321060295
 30
0.0
 11
192.9243785319048
 21
208.2022321060295
 31
0.0
  0
LINE
  5
2309
330
2201
100
AcDbEntity
  8
1
  6
PHANTOM
 62
     4
100
AcDbLine
 10
192.9243785319048
 20
219.2022321060297
 30
0.0
 11
192.9243785319048
 21
208.2022321060295
 31
0.0
  0
LINE
  5
230A
330
2201
100
AcDbEntity
  8
1
  6
DIVIDE
 62
     4
100
AcDbLine
 10
192.9243785319048
 20
208.2022321060295
 30
0.0
 11
192.9243785319532
 21
208.2022321060295
 31
0.0
  0
LINE
  5
230B
330
2201
100
AcDbEntity
  8
0
 62
     7
100
AcDbLine
 10
205.5243785318944
 20
183.1327475788399
 30
0.0
 11
205.5243785318944
 21
153.7022324289116
 31
0.0
  0
LINE
  5
230C
330
2201
100
AcDbEntity
  8
1
  6
CENTER
 62
     3
100
AcDbLine
 10
87.19375406643226
 20
213.8486157499102
 30
0.0
 11
90.56875406643229
 21
219.6942872254553
 31
0.0
  0
LINE
  5
230D
330
2201
100
AcDbEntity
  8
1
  6
CENTER
 62
     3
100
AcDbLine
 10
103.5276377103127
 20
197.5147321060297
 30
0.0
 11
109.3733091858577
 21
200.8897321060298
 31
0.0
  0
LINE
  5
230E
330
2201
100
AcDbEntity
  8
1
  6
CENTER
 62
     3
100
AcDbLine
 10
103.5276377103127
 20
152.8897321060294
 30
0.0
 11
109.3733091858577
 21
149.5147321060295
 31
0.0
  0
LINE
  5
230F
330
2201
100
AcDbEntity
  8
1
  6
CENTER
 62
     3
100
AcDbLine
 10
87.19375406643219
 20
136.5558484621492
 30
0.0
 11
90.5687540664322
 21
130.710176986604
 31
0.0
  0
LINE
  5
2310
330
2201
100
AcDbEntity
  8
1
  6
DIVIDE
 62
     7
100
AcDbLine
 10
224.2243785317941
 20
198.9780696484196
 30
0.0
 11
224.2243785317941
 21
208.2022321060298
 31
0.0
  0
LINE
  5
2311
330
2201
100
AcDbEntity
  8
1
 62
     7
100
AcDbLine
 10
222.724378531794
 20
208.2022321060298
 30
0.0
 11
222.7243785316101
 21
210.4522315426862
 31
0.0
  0
LINE
  5
2312
330
2201
100
AcDbEntity
  8
1
  6
DIVIDE
 62
     7
100
AcDbLine
 10
224.2243785317941
 20
208.2022321060298
 30
0.0
 11
222.724378531794
 21
208.2022321060298
 31
0.0
  0
LINE
  5
2313
330
2201
100
AcDbEntity
  8
1
 62
     7
100
AcDbLine
 10
222.7243785318758
 20
207.2052321060299
 30
0.0
 11
222.724378531794
 21
208.2022321060298
 31
0.0
  0
LINE
  5
2314
330
2201
100
AcDbEntity
  8
1
  6
PHANTOM
 62
     4
100
AcDbLine
 10
192.9243785319048
 20
142.2022321060299
 30
0.0
 11
203.0243785319532
 21
142.2022321060299
 31
0.0
  0
LINE
  5
2315
330
2201
100
AcDbEntity
  8
1
  6
PHANTOM
 62
     4
100
AcDbLine
 10
190.7243785319236
 20
147.2022321060298
 30
0.0
 11
190.7243785319236
 21
131.2022321060299
 31
0.0
  0
LINE
  5
2316
330
2201
100
AcDbEntity
  8
1
  6
PHANTOM
 62
     4
100
AcDbLine
 10
200.1243785319235
 20
147.2022321060298
 30
0.0
 11
190.7243785319236
 21
147.2022321060298
 31
0.0
  0
LINE
  5
2317
330
2201
100
AcDbEntity
  8
1
  6
PHANTOM
 62
     4
100
AcDbLine
 10
192.9243785319048
 20
142.2022321060299
 30
0.0
 11
192.9243785319048
 21
131.2022321060299
 31
0.0
  0
LINE
  5
2318
330
2201
100
AcDbEntity
  8
1
  6
CENTER
 62
     3
100
AcDbLine
 10
195.9053630240893
 20
175.2022321060293
 30
0.0
 11
191.5483785319232
 21
175.2022321060293
 31
0.0
  0
LINE
  5
2319
330
2201
100
AcDbEntity
  8
1
 62
     7
100
AcDbLine
 10
213.4693785319236
 20
205.8692321060298
 30
0.0
 11
217.4768785319236
 21
205.8692321060298
 31
0.0
  0
LINE
  5
231A
330
2201
100
AcDbEntity
  8
1
 62
     7
100
AcDbLine
 10
212.9693785319235
 20
205.5805569714348
 30
0.0
 11
212.9693785319235
 21
204.5587321060297
 31
0.0
  0
LINE
  5
231B
330
2201
100
AcDbEntity
  8
1
 62
     7
100
AcDbLine
 10
213.1693785319236
 20
204.3587321060297
 30
0.0
 11
216.296728746674
 21
204.3587321060297
 31
0.0
  0
LINE
  5
231C
330
2201
100
AcDbEntity
  8
1
 62
     7
100
AcDbLine
 10
212.9693785319235
 20
204.5587321060297
 30
0.0
 11
213.1693785319236
 21
204.3587321060297
 31
0.0
  0
LINE
  5
231D
330
2201
100
AcDbEntity
  8
1
 62
     7
100
AcDbLine
 10
212.9693785319235
 20
205.5805569714348
 30
0.0
 11
213.4693785319236
 21
205.8692321060298
 31
0.0
  0
LINE
  5
231E
330
2201
100
AcDbEntity
  8
1
 62
     7
100
AcDbLine
 10
221.9843785319234
 20
204.5587321060297
 30
0.0
 11
221.9843785319234
 21
201.3912321060294
 31
0.0
  0
LINE
  5
231F
330
2201
100
AcDbEntity
  8
1
 62
     7
100
AcDbLine
 10
221.4843785319235
 20
205.8692321060298
 30
0.0
 11
221.9843785319234
 21
205.5805569714348
 31
0.0
  0
LINE
  5
2320
330
2201
100
AcDbEntity
  8
1
 62
     7
100
AcDbLine
 10
221.7843785319236
 20
204.3587321060297
 30
0.0
 11
221.9843785319234
 21
204.5587321060297
 31
0.0
  0
LINE
  5
2321
330
2201
100
AcDbEntity
  8
1
 62
     7
100
AcDbLine
 10
218.7819541104341
 20
199.3912321060293
 30
0.0
 11
220.3518785319236
 21
199.3912321060293
 31
0.0
  0
LINE
  5
2322
330
2201
100
AcDbEntity
  8
1
 62
     7
100
AcDbLine
 10
217.4768785319236
 20
197.8047321060294
 30
0.0
 11
220.3518785319236
 21
197.8047321060294
 31
0.0
  0
LINE
  5
2323
330
2201
100
AcDbEntity
  8
1
 62
     7
100
AcDbLine
 10
218.6570283171731
 20
204.3587321060297
 30
0.0
 11
221.7843785319236
 21
204.3587321060297
 31
0.0
  0
LINE
  5
2324
330
2201
100
AcDbEntity
  8
1
 62
     7
100
AcDbLine
 10
221.9843785319234
 20
204.5587321060297
 30
0.0
 11
221.9843785319234
 21
205.5805569714348
 31
0.0
  0
LINE
  5
2325
330
2201
100
AcDbEntity
  8
1
 62
     7
100
AcDbLine
 10
217.4768785319236
 20
205.8692321060298
 30
0.0
 11
221.4843785319235
 21
205.8692321060298
 31
0.0
  0
LINE
  5
2326
330
2201
100
AcDbEntity
  8
1
 62
     7
100
AcDbLine
 10
220.6518785319233
 20
199.0912321060296
 30
0.0
 11
220.6518785319233
 21
198.1047321060295
 31
0.0
  0
LINE
  5
2327
330
2201
100
AcDbEntity
  8
1
 62
     7
100
AcDbLine
 10
212.9693785319235
 20
201.3912321060294
 30
0.0
 11
212.9693785319235
 21
204.5587321060297
 31
0.0
  0
LINE
  5
2328
330
2201
100
AcDbEntity
  8
1
 62
     7
100
AcDbLine
 10
220.6518785319233
 20
199.0912321060296
 30
0.0
 11
220.3518785319236
 21
199.3912321060293
 31
0.0
  0
LINE
  5
2329
330
2201
100
AcDbEntity
  8
1
 62
     7
100
AcDbLine
 10
220.6518785319233
 20
198.1047321060295
 30
0.0
 11
220.3518785319236
 21
197.8047321060294
 31
0.0
  0
LINE
  5
232A
330
2201
100
AcDbEntity
  8
1
 62
     7
100
AcDbLine
 10
214.6018785319236
 20
197.8047321060294
 30
0.0
 11
217.4768785319236
 21
197.8047321060294
 31
0.0
  0
LINE
  5
232B
330
2201
100
AcDbEntity
  8
1
 62
     7
100
AcDbLine
 10
214.6018785319236
 20
197.8047321060294
 30
0.0
 11
214.3018785319234
 21
198.1047321060295
 31
0.0
  0
LINE
  5
232C
330
2201
100
AcDbEntity
  8
1
 62
     7
100
AcDbLine
 10
214.3018785319234
 20
198.1047321060295
 30
0.0
 11
214.3018785319234
 21
199.0912321060296
 31
0.0
  0
LINE
  5
232D
330
2201
100
AcDbEntity
  8
1
 62
     7
100
AcDbLine
 10
214.6018785319236
 20
199.3912321060293
 30
0.0
 11
214.3018785319234
 21
199.0912321060296
 31
0.0
  0
LINE
  5
232E
330
2201
100
AcDbEntity
  8
1
 62
     7
100
AcDbLine
 10
214.6018785319236
 20
199.3912321060293
 30
0.0
 11
216.1718029534128
 21
199.3912321060293
 31
0.0
  0
LINE
  5
232F
330
2201
100
AcDbEntity
  8
1
 62
     7
100
AcDbLine
 10
216.1718029534128
 20
151.0062321060295
 30
0.0
 11
214.6018785319236
 21
151.0062321060295
 31
0.0
  0
LINE
  5
2330
330
2201
100
AcDbEntity
  8
1
 62
     7
100
AcDbLine
 10
214.3018785319234
 20
151.3062321060296
 30
0.0
 11
214.6018785319236
 21
151.0062321060295
 31
0.0
  0
LINE
  5
2331
330
2201
100
AcDbEntity
  8
1
 62
     7
100
AcDbLine
 10
214.3018785319234
 20
151.3062321060296
 30
0.0
 11
214.3018785319234
 21
152.2927321060294
 31
0.0
  0
LINE
  5
2332
330
2201
100
AcDbEntity
  8
1
 62
     7
100
AcDbLine
 10
214.3018785319234
 20
152.2927321060294
 30
0.0
 11
214.6018785319236
 21
152.5927321060295
 31
0.0
  0
LINE
  5
2333
330
2201
100
AcDbEntity
  8
1
 62
     7
100
AcDbLine
 10
217.4768785319236
 20
152.5927321060295
 30
0.0
 11
214.6018785319236
 21
152.5927321060295
 31
0.0
  0
LINE
  5
2334
330
2201
100
AcDbEntity
  8
1
 62
     7
100
AcDbLine
 10
220.3518785319236
 20
152.5927321060295
 30
0.0
 11
220.6518785319233
 21
152.2927321060294
 31
0.0
  0
LINE
  5
2335
330
2201
100
AcDbEntity
  8
1
 62
     7
100
AcDbLine
 10
220.3518785319236
 20
151.0062321060295
 30
0.0
 11
220.6518785319233
 21
151.3062321060296
 31
0.0
  0
LINE
  5
2336
330
2201
100
AcDbEntity
  8
1
 62
     7
100
AcDbLine
 10
212.9693785319235
 20
145.8387321060294
 30
0.0
 11
212.9693785319235
 21
149.0062321060294
 31
0.0
  0
LINE
  5
2337
330
2201
100
AcDbEntity
  8
1
 62
     7
100
AcDbLine
 10
220.6518785319233
 20
152.2927321060294
 30
0.0
 11
220.6518785319233
 21
151.3062321060296
 31
0.0
  0
LINE
  5
2338
330
2201
100
AcDbEntity
  8
1
 62
     7
100
AcDbLine
 10
221.4843785319235
 20
144.5282321060297
 30
0.0
 11
217.4768785319236
 21
144.5282321060297
 31
0.0
  0
LINE
  5
2339
330
2201
100
AcDbEntity
  8
1
 62
     7
100
AcDbLine
 10
221.9843785319234
 20
144.8169072406244
 30
0.0
 11
221.9843785319234
 21
145.8387321060294
 31
0.0
  0
LINE
  5
233A
330
2201
100
AcDbEntity
  8
1
 62
     7
100
AcDbLine
 10
221.7843785319236
 20
146.0387321060295
 30
0.0
 11
218.6570283171731
 21
146.0387321060295
 31
0.0
  0
LINE
  5
233B
330
2201
100
AcDbEntity
  8
1
 62
     7
100
AcDbLine
 10
220.3518785319236
 20
152.5927321060295
 30
0.0
 11
217.4768785319236
 21
152.5927321060295
 31
0.0
  0
LINE
  5
233C
330
2201
100
AcDbEntity
  8
1
 62
     7
100
AcDbLine
 10
220.3518785319236
 20
151.0062321060295
 30
0.0
 11
218.7819541104341
 21
151.0062321060295
 31
0.0
  0
LINE
  5
233D
330
2201
100
AcDbEntity
  8
1
 62
     7
100
AcDbLine
 10
221.9843785319234
 20
145.8387321060294
 30
0.0
 11
221.7843785319236
 21
146.0387321060295
 31
0.0
  0
LINE
  5
233E
330
2201
100
AcDbEntity
  8
1
 62
     7
100
AcDbLine
 10
221.9843785319234
 20
144.8169072406244
 30
0.0
 11
221.4843785319235
 21
144.5282321060297
 31
0.0
  0
LINE
  5
233F
330
2201
100
AcDbEntity
  8
1
 62
     7
100
AcDbLine
 10
221.9843785319234
 20
149.0062321060294
 30
0.0
 11
221.9843785319234
 21
145.8387321060294
 31
0.0
  0
LINE
  5
2340
330
2201
100
AcDbEntity
  8
1
 62
     7
100
AcDbLine
 10
213.4693785319236
 20
144.5282321060297
 30
0.0
 11
212.9693785319235
 21
144.8169072406244
 31
0.0
  0
LINE
  5
2341
330
2201
100
AcDbEntity
  8
1
 62
     7
100
AcDbLine
 10
213.1693785319236
 20
146.0387321060295
 30
0.0
 11
212.9693785319235
 21
145.8387321060294
 31
0.0
  0
LINE
  5
2342
330
2201
100
AcDbEntity
  8
1
 62
     7
100
AcDbLine
 10
216.296728746674
 20
146.0387321060295
 30
0.0
 11
213.1693785319236
 21
146.0387321060295
 31
0.0
  0
LINE
  5
2343
330
2201
100
AcDbEntity
  8
1
 62
     7
100
AcDbLine
 10
212.9693785319235
 20
145.8387321060294
 30
0.0
 11
212.9693785319235
 21
144.8169072406244
 31
0.0
  0
LINE
  5
2344
330
2201
100
AcDbEntity
  8
1
 62
     7
100
AcDbLine
 10
217.4768785319236
 20
144.5282321060297
 30
0.0
 11
213.4693785319236
 21
144.5282321060297
 31
0.0
  0
LINE
  5
2345
330
2201
100
AcDbEntity
  8
1
 62
     7
100
AcDbLine
 10
214.5987535319235
 20
203.7087321060296
 30
0.0
 11
215.3990239715605
 21
203.6877762870631
 31
0.0
  0
LINE
  5
2346
330
2201
100
AcDbEntity
  8
1
 62
     7
100
AcDbLine
 10
213.6387535319236
 20
203.7087321060296
 30
0.0
 11
214.5987535319235
 21
203.7087321060296
 31
0.0
  0
LINE
  5
2347
330
2201
100
AcDbEntity
  8
1
 62
     7
100
AcDbLine
 10
213.3887535319236
 20
203.4587321060294
 30
0.0
 11
213.3887535319236
 21
201.9648187130233
 31
0.0
  0
LINE
  5
2348
330
2201
100
AcDbEntity
  8
1
 62
     7
100
AcDbLine
 10
213.1731905906036
 20
200.2091994418806
 30
0.0
 11
213.3887535319236
 21
201.9648187130233
 31
0.0
  0
LINE
  5
2349
330
2201
100
AcDbEntity
  8
1
 62
     7
100
AcDbLine
 10
213.421327128514
 20
199.9287321060295
 30
0.0
 11
214.5987535319235
 21
199.9287321060295
 31
0.0
  0
LINE
  5
234A
330
2201
100
AcDbEntity
  8
1
 62
     7
100
AcDbLine
 10
214.5987535319235
 20
199.9287321060295
 30
0.0
 11
214.5987535319235
 21
203.7087321060296
 31
0.0
  0
LINE
  5
234B
330
2201
100
AcDbEntity
  8
1
 62
     7
100
AcDbLine
 10
215.4642301484186
 20
199.9287321060295
 30
0.0
 11
214.5987535319235
 21
199.9287321060295
 31
0.0
  0
LINE
  5
234C
330
2201
100
AcDbEntity
  8
1
 62
     7
100
AcDbLine
 10
214.5987535319235
 20
150.4687321060296
 30
0.0
 11
215.4642301484186
 21
150.4687321060296
 31
0.0
  0
LINE
  5
234D
330
2201
100
AcDbEntity
  8
1
 62
     7
100
AcDbLine
 10
214.5987535319235
 20
146.6887321060295
 30
0.0
 11
214.5987535319235
 21
150.4687321060296
 31
0.0
  0
LINE
  5
234E
330
2201
100
AcDbEntity
  8
1
 62
     7
100
AcDbLine
 10
214.5987535319235
 20
150.4687321060296
 30
0.0
 11
213.421327128514
 21
150.4687321060296
 31
0.0
  0
LINE
  5
234F
330
2201
100
AcDbEntity
  8
1
 62
     7
100
AcDbLine
 10
213.3887535319236
 20
148.4326454990361
 30
0.0
 11
213.1731905906036
 21
150.1882647701784
 31
0.0
  0
LINE
  5
2350
330
2201
100
AcDbEntity
  8
1
 62
     7
100
AcDbLine
 10
213.3887535319236
 20
148.4326454990361
 30
0.0
 11
213.3887535319236
 21
146.9387321060295
 31
0.0
  0
LINE
  5
2351
330
2201
100
AcDbEntity
  8
1
 62
     7
100
AcDbLine
 10
214.5987535319235
 20
146.6887321060295
 30
0.0
 11
213.6387535319236
 21
146.6887321060295
 31
0.0
  0
LINE
  5
2352
330
2201
100
AcDbEntity
  8
1
 62
     7
100
AcDbLine
 10
215.3990239715605
 20
146.7096879249961
 30
0.0
 11
214.5987535319235
 21
146.6887321060295
 31
0.0
  0
ARC
  5
2357
330
2201
100
AcDbEntity
  8
1
 62
     7
100
AcDbCircle
 10
205.2039054006636
 20
119.1092321060295
 30
0.0
 40
24.95273632503492
100
AcDbArc
 50
75.43695394287046
 51
90.84852834074466
  0
ARC
  5
2358
330
2201
100
AcDbEntity
  8
1
 62
     7
100
AcDbCircle
 10
205.2039054006636
 20
231.2952321060297
 30
0.0
 40
24.95273632503498
100
AcDbArc
 50
269.1514716592553
 51
284.5630460571295
  0
ARC
  5
2359
330
2201
100
AcDbEntity
  8
0
 62
     7
100
AcDbCircle
 10
349.8252616436772
 20
159.8188990038545
 30
0.0
 40
0.8666666536645093
100
AcDbArc
 50
270.0000000008076
 51
0.0000000000716515
  0
ARC
  5
235A
330
2201
100
AcDbEntity
  8
0
 62
     7
100
AcDbCircle
 10
343.2385950759716
 20
159.8188990038555
 30
0.0
 40
0.8666666536655609
100
AcDbArc
 50
180.0
 51
269.9999999985456
  0
ARC
  5
235B
330
2201
100
AcDbEntity
  8
0
 62
     7
100
AcDbCircle
 10
341.5052617686681
 20
161.5822384927778
 30
0.0
 40
0.8666666536598198
100
AcDbArc
 50
0.0000000005487856
 51
70.73036112248899
  0
ARC
  5
235C
330
2201
100
AcDbEntity
  8
0
 62
     7
100
AcDbCircle
 10
346.5319283598187
 20
175.9605654279974
 30
0.0
 40
14.36499978417248
100
AcDbArc
 50
90.00000000000651
 51
250.730361122028
  0
ARC
  5
235D
330
2201
100
AcDbEntity
  8
0
 62
     7
100
AcDbCircle
 10
346.531928359816
 20
175.9605654279974
 30
0.0
 40
14.36499978417257
100
AcDbArc
 50
289.2696388779717
 51
89.99999999999348
  0
ARC
  5
235E
330
2201
100
AcDbEntity
  8
0
 62
     7
100
AcDbCircle
 10
351.5585949509722
 20
161.582238492786
 30
0.0
 40
0.8666666536509906
100
AcDbArc
 50
109.2696388775064
 51
180.0
  0
ARC
  5
235F
330
2201
100
AcDbEntity
  8
0
 62
     7
100
AcDbCircle
 10
209.6243785258804
 20
188.6022319047663
 30
0.0
 40
0.3999999939860004
100
AcDbArc
 50
180.0000000007165
 51
270.0000000007164
  0
ARC
  5
2360
330
2201
100
AcDbEntity
  8
0
 62
     7
100
AcDbCircle
 10
209.6243785258856
 20
161.8022323073056
 30
0.0
 40
0.3999999939910097
100
AcDbArc
 50
90.0
 51
180.0
  0
ARC
  5
2361
330
2201
100
AcDbEntity
  8
0
 62
     7
100
AcDbCircle
 10
212.4243785364709
 20
209.0022315983202
 30
0.0
 40
0.2999999954678358
100
AcDbArc
 50
270.0
 51
0.0
  0
ARC
  5
2362
330
2201
100
AcDbEntity
  8
0
 62
     7
100
AcDbCircle
 10
212.4243785361151
 20
141.4022326138154
 30
0.0
 40
0.2999999954677719
100
AcDbArc
 50
0.0000000048527631
 51
90.00000000485277
  0
ARC
  5
2363
330
2201
100
AcDbEntity
  8
1
 62
     7
100
AcDbCircle
 10
346.5319283598172
 20
175.2022321060293
 30
0.0
 40
5.499999917604275
100
AcDbArc
 50
111.3236862625702
 51
270.0000000158755
  0
ARC
  5
2364
330
2201
100
AcDbEntity
  8
1
 62
     7
100
AcDbCircle
 10
346.5319283598204
 20
175.2022321060456
 30
0.0
 40
5.499999917493791
100
AcDbArc
 50
270.0000000158447
 51
68.6763137370136
  0
ARC
  5
2365
330
2201
100
AcDbEntity
  8
1
 62
     7
100
AcDbCircle
 10
64.88125406643238
 20
175.2022321060293
 30
0.0
 40
30.66777631467784
100
AcDbArc
 50
70.9692741804274
 51
89.59232291439025
  0
ARC
  5
2366
330
2201
100
AcDbEntity
  8
1
 62
     7
100
AcDbCircle
 10
64.88125406643238
 20
175.2022321060293
 30
0.0
 40
30.66777631467785
100
AcDbArc
 50
89.59232291439025
 51
289.0307258195722
  0
ARC
  5
2367
330
2201
100
AcDbEntity
  8
1
 62
     7
100
AcDbCircle
 10
64.88125406643238
 20
175.2022321060293
 30
0.0
 40
44.00000000000001
100
AcDbArc
 50
76.86344121305555
 51
283.1365587869443
  0
ARC
  5
2368
330
2201
100
AcDbEntity
  8
1
  6
CENTER
 62
     3
100
AcDbCircle
 10
64.88125406643238
 20
175.2022321060293
 30
0.0
 40
47.99999999999997
100
AcDbArc
 50
77.97530081943365
 51
282.0246991805663
  0
ARC
  5
2369
330
2201
100
AcDbEntity
  8
1
 62
     7
100
AcDbCircle
 10
64.88125406643238
 20
175.2022321060293
 30
0.0
 40
52.0
100
AcDbArc
 50
78.91251078902998
 51
281.0874892109699
  0
ARC
  5
236A
330
2201
100
AcDbEntity
  8
1
 62
     7
100
AcDbCircle
 10
64.88125406643238
 20
175.2022321060293
 30
0.0
 40
30.66777631467787
100
AcDbArc
 50
289.0307258195722
 51
70.9692741804274
  0
ARC
  5
236B
330
2201
100
AcDbEntity
  8
1
 62
     7
100
AcDbCircle
 10
64.88125406643238
 20
175.2022321060293
 30
0.0
 40
44.00000000000001
100
AcDbArc
 50
283.1365587869443
 51
76.86344121305555
  0
ARC
  5
236C
330
2201
100
AcDbEntity
  8
1
 62
     7
100
AcDbCircle
 10
64.88125406643238
 20
175.2022321060293
 30
0.0
 40
52.00000000000001
100
AcDbArc
 50
281.0874892109699
 51
78.91251078902998
  0
ARC
  5
236D
330
2201
100
AcDbEntity
  8
1
  6
CENTER
 62
     3
100
AcDbCircle
 10
64.88125406643238
 20
175.2022321060293
 30
0.0
 40
48.0
100
AcDbArc
 50
282.0246991805663
 51
77.97530081943365
  0
ARC
  5
236E
330
2201
100
AcDbEntity
  8
1
 62
     7
100
AcDbCircle
 10
346.5319283598588
 20
201.8472321060297
 30
0.0
 40
2.778125000000033
100
AcDbArc
 50
296.5820701883041
 51
63.62159537898746
  0
ARC
  5
236F
330
2201
100
AcDbEntity
  8
1
 62
     7
100
AcDbCircle
 10
346.5319283598588
 20
201.8472321060297
 30
0.0
 40
2.778124999999934
100
AcDbArc
 50
116.3784046210122
 51
243.4179298116958
  0
ARC
  5
2370
330
2201
100
AcDbEntity
  8
1
 62
     7
100
AcDbCircle
 10
339.3431933923798
 20
200.8591632274119
 30
0.0
 40
2.778124999999976
100
AcDbArc
 50
132.0305785340559
 51
259.0701037247396
  0
ARC
  5
2371
330
2201
100
AcDbEntity
  8
1
 62
     7
100
AcDbCircle
 10
335.9165313209056
 20
150.7631369774169
 30
0.0
 40
2.778124999999866
100
AcDbArc
 50
272.9001437514468
 51
39.93966894213081
  0
ARC
  5
2372
330
2201
100
AcDbEntity
  8
1
 62
     7
100
AcDbCircle
 10
342.9037679946893
 20
148.8054050738917
 30
0.0
 40
2.77812499999993
100
AcDbArc
 50
288.5523176644916
 51
55.59184285517453
  0
ARC
  5
2373
330
2201
100
AcDbEntity
  8
1
 62
     7
100
AcDbCircle
 10
350.160088725028
 20
148.8054050738917
 30
0.0
 40
2.77812499999996
100
AcDbArc
 50
304.2044915775345
 51
71.24401676821576
  0
ARC
  5
2374
330
2201
100
AcDbEntity
  8
1
 62
     7
100
AcDbCircle
 10
357.1473253988118
 20
150.7631369774169
 30
0.0
 40
2.778124999999988
100
AcDbArc
 50
319.8566654905777
 51
86.89619068125992
  0
ARC
  5
2375
330
2201
100
AcDbEntity
  8
1
 62
     7
100
AcDbCircle
 10
363.3472666364264
 20
154.5334047652104
 30
0.0
 40
2.778124999999974
100
AcDbArc
 50
335.5088394036203
 51
102.5483645943032
  0
ARC
  5
2376
330
2201
100
AcDbEntity
  8
1
 62
     7
100
AcDbCircle
 10
368.3000911591221
 20
159.8365849232791
 30
0.0
 40
2.778124999999976
100
AcDbArc
 50
351.1610133166639
 51
118.2005385073472
  0
ARC
  5
2377
330
2201
100
AcDbEntity
  8
1
 62
     7
100
AcDbCircle
 10
371.6384706297148
 20
166.2793648397338
 30
0.0
 40
2.778125000000069
100
AcDbArc
 50
6.813187229708713
 51
133.8527124203904
  0
ARC
  5
2378
330
2201
100
AcDbEntity
  8
1
 62
     7
100
AcDbCircle
 10
373.1148127149407
 20
173.3839130019281
 30
0.0
 40
2.778124999999963
100
AcDbArc
 50
22.46536114275085
 51
149.504886333433
  0
ARC
  5
2379
330
2201
100
AcDbEntity
  8
1
 62
     7
100
AcDbCircle
 10
372.6196238761543
 20
180.6233175738172
 30
0.0
 40
2.778124999999963
100
AcDbArc
 50
38.11753505579456
 51
165.1570602464774
  0
ARC
  5
237A
330
2201
100
AcDbEntity
  8
1
 62
     7
100
AcDbCircle
 10
370.1896300041902
 20
187.4606650363763
 30
0.0
 40
2.778124999999898
100
AcDbArc
 50
53.76970896883884
 51
180.8092341595228
  0
ARC
  5
237B
330
2201
100
AcDbEntity
  8
1
 62
     7
100
AcDbCircle
 10
366.0050526280491
 20
193.3888606070908
 30
0.0
 40
2.778124999999951
100
AcDbArc
 50
69.42188288188271
 51
196.4614080725652
  0
ARC
  5
237C
330
2201
100
AcDbEntity
  8
1
 62
     7
100
AcDbCircle
 10
360.3762427085527
 20
197.9682371401708
 30
0.0
 40
2.778124999999998
100
AcDbArc
 50
85.07405679492419
 51
212.1135819856083
  0
ARC
  5
237D
330
2201
100
AcDbEntity
  8
1
 62
     7
100
AcDbCircle
 10
353.7206633273377
 20
200.8591632274117
 30
0.0
 40
2.778125000000069
100
AcDbArc
 50
100.726230707969
 51
227.7657558986522
  0
ARC
  5
237E
330
2201
100
AcDbEntity
  8
1
 62
     7
100
AcDbCircle
 10
339.3431933923798
 20
200.8591632274119
 30
0.0
 40
2.77812499999999
100
AcDbArc
 50
312.2342441013477
 51
79.27376929203075
  0
ARC
  5
237F
330
2201
100
AcDbEntity
  8
1
 62
     7
100
AcDbCircle
 10
335.9165313209056
 20
150.7631369774169
 30
0.0
 40
2.778125000000061
100
AcDbArc
 50
93.10380931873844
 51
220.1433345094199
  0
ARC
  5
2380
330
2201
100
AcDbEntity
  8
1
 62
     7
100
AcDbCircle
 10
342.9037679946893
 20
148.8054050738917
 30
0.0
 40
2.778125
100
AcDbArc
 50
108.7559832317826
 51
235.7955084224641
  0
ARC
  5
2381
330
2201
100
AcDbEntity
  8
1
 62
     7
100
AcDbCircle
 10
350.160088725028
 20
148.8054050738917
 30
0.0
 40
2.778125000000069
100
AcDbArc
 50
124.4081571448264
 51
251.4476823355103
  0
ARC
  5
2382
330
2201
100
AcDbEntity
  8
1
 62
     7
100
AcDbCircle
 10
357.1473253988118
 20
150.7631369774169
 30
0.0
 40
2.778124999999976
100
AcDbArc
 50
140.0603310578713
 51
267.099856248553
  0
ARC
  5
2383
330
2201
100
AcDbEntity
  8
1
 62
     7
100
AcDbCircle
 10
363.3472666364264
 20
154.5334047652104
 30
0.0
 40
2.778125000000016
100
AcDbArc
 50
155.7125049709147
 51
282.7520301615957
  0
ARC
  5
2384
330
2201
100
AcDbEntity
  8
1
 62
     7
100
AcDbCircle
 10
368.3000911591221
 20
159.8365849232791
 30
0.0
 40
2.778125000000029
100
AcDbArc
 50
171.3646788839568
 51
298.4042040746392
  0
ARC
  5
2385
330
2201
100
AcDbEntity
  8
1
 62
     7
100
AcDbCircle
 10
371.6384706297148
 20
166.2793648397338
 30
0.0
 40
2.778124999999898
100
AcDbArc
 50
187.0168527969995
 51
314.0563779876845
  0
ARC
  5
2386
330
2201
100
AcDbEntity
  8
1
 62
     7
100
AcDbCircle
 10
373.1148127149407
 20
173.3839130019281
 30
0.0
 40
2.778124999999963
100
AcDbArc
 50
202.6690267100424
 51
329.7085519007275
  0
ARC
  5
2387
330
2201
100
AcDbEntity
  8
1
 62
     7
100
AcDbCircle
 10
372.6196238761543
 20
180.6233175738172
 30
0.0
 40
2.778125000000091
100
AcDbArc
 50
218.3212006230859
 51
345.3607258137695
  0
ARC
  5
2388
330
2201
100
AcDbEntity
  8
1
 62
     7
100
AcDbCircle
 10
370.1896300041902
 20
187.4606650363763
 30
0.0
 40
2.778125000000096
100
AcDbArc
 50
233.9733745361311
 51
1.012899726813395
  0
ARC
  5
2389
330
2201
100
AcDbEntity
  8
1
 62
     7
100
AcDbCircle
 10
366.0050526280491
 20
193.3888606070908
 30
0.0
 40
2.778124999999991
100
AcDbArc
 50
249.6255484491736
 51
16.66507363985758
  0
ARC
  5
238A
330
2201
100
AcDbEntity
  8
1
 62
     7
100
AcDbCircle
 10
360.3762427085527
 20
197.9682371401708
 30
0.0
 40
2.778124999999976
100
AcDbArc
 50
265.277722362217
 51
32.31724755290108
  0
ARC
  5
238B
330
2201
100
AcDbEntity
  8
1
 62
     7
100
AcDbCircle
 10
353.7206633273377
 20
200.8591632274117
 30
0.0
 40
2.778125000000016
100
AcDbArc
 50
280.9298962752619
 51
47.96942146594633
  0
ARC
  5
238C
330
2201
100
AcDbEntity
  8
1
 62
     7
100
AcDbCircle
 10
329.7173743108122
 20
154.5327667735268
 30
0.0
 40
2.778125000000037
100
AcDbArc
 50
77.45380931873746
 51
204.4933345094214
  0
ARC
  5
238D
330
2201
100
AcDbEntity
  8
1
 62
     7
100
AcDbCircle
 10
324.7649316282143
 20
159.8349331148531
 30
0.0
 40
2.778125000000141
100
AcDbArc
 50
61.80380931873817
 51
188.8433345094203
  0
ARC
  5
238E
330
2201
100
AcDbEntity
  8
1
 62
     7
100
AcDbCircle
 10
321.42640190535
 20
166.2765071247564
 30
0.0
 40
2.77812500000002
100
AcDbArc
 50
46.15380931873864
 51
173.1933345094228
  0
ARC
  5
238F
330
2201
100
AcDbEntity
  8
1
 62
     7
100
AcDbCircle
 10
319.9493202731608
 20
173.379878598033
 30
0.0
 40
2.778125000000061
100
AcDbArc
 50
30.50380931873949
 51
157.5433345094221
  0
ARC
  5
2390
330
2201
100
AcDbEntity
  8
1
 62
     7
100
AcDbCircle
 10
329.7173743108122
 20
154.5327667735268
 30
0.0
 40
2.778124999999831
100
AcDbArc
 50
257.2501437514491
 51
24.2896689421296
  0
ARC
  5
2391
330
2201
100
AcDbEntity
  8
1
 62
     7
100
AcDbCircle
 10
324.7649316282143
 20
159.8349331148531
 30
0.0
 40
2.778124999999763
100
AcDbArc
 50
241.6001437514497
 51
8.639668942130606
  0
ARC
  5
2392
330
2201
100
AcDbEntity
  8
1
 62
     7
100
AcDbCircle
 10
321.42640190535
 20
166.2765071247564
 30
0.0
 40
2.77812499999987
100
AcDbArc
 50
225.9501437514471
 51
352.9896689421288
  0
ARC
  5
2393
330
2201
100
AcDbEntity
  8
1
 62
     7
100
AcDbCircle
 10
319.9493202731608
 20
173.379878598033
 30
0.0
 40
2.778124999999934
100
AcDbArc
 50
210.3001437514458
 51
337.3396689421296
  0
ARC
  5
2394
330
2201
100
AcDbEntity
  8
1
 62
     7
100
AcDbCircle
 10
320.4432048805295
 20
180.6183683873543
 30
0.0
 40
2.778125000000144
100
AcDbArc
 50
14.85380931874073
 51
141.8933345094212
  0
ARC
  5
2395
330
2201
100
AcDbEntity
  8
1
 62
     7
100
AcDbCircle
 10
322.8714366762257
 20
187.4552790041376
 30
0.0
 40
2.778125000000028
100
AcDbArc
 50
359.2038093187403
 51
126.2433345094224
  0
ARC
  5
2396
330
2201
100
AcDbEntity
  8
1
 62
     7
100
AcDbCircle
 10
327.0539745267555
 20
193.3836880288584
 30
0.0
 40
2.778125000000073
100
AcDbArc
 50
343.5538093187381
 51
110.5933345094207
  0
ARC
  5
2397
330
2201
100
AcDbEntity
  8
1
 62
     7
100
AcDbCircle
 10
332.680704357828
 20
197.96403385026
 30
0.0
 40
2.778125000000077
100
AcDbArc
 50
327.9038093187407
 51
94.94333450942269
  0
ARC
  5
2398
330
2201
100
AcDbEntity
  8
1
 62
     7
100
AcDbCircle
 10
320.4432048805295
 20
180.6183683873543
 30
0.0
 40
2.77812499999983
100
AcDbArc
 50
194.6501437514454
 51
321.689668942132
  0
ARC
  5
2399
330
2201
100
AcDbEntity
  8
1
 62
     7
100
AcDbCircle
 10
322.8714366762257
 20
187.4552790041376
 30
0.0
 40
2.778124999999922
100
AcDbArc
 50
179.000143751447
 51
306.039668942131
  0
ARC
  5
239A
330
2201
100
AcDbEntity
  8
1
 62
     7
100
AcDbCircle
 10
327.0539745267555
 20
193.3836880288584
 30
0.0
 40
2.778124999999854
100
AcDbArc
 50
163.3501437514482
 51
290.3896689421308
  0
ARC
  5
239B
330
2201
100
AcDbEntity
  8
1
 62
     7
100
AcDbCircle
 10
332.680704357828
 20
197.96403385026
 30
0.0
 40
2.778124999999901
100
AcDbArc
 50
147.7001437514465
 51
274.7396689421305
  0
ARC
  5
239C
330
2201
100
AcDbEntity
  8
1
 62
     7
100
AcDbCircle
 10
346.5319283598588
 20
175.2022321060293
 30
0.0
 40
28.51000000000004
100
AcDbArc
 50
79.3663492783443
 51
84.98147680861208
  0
ARC
  5
239D
330
2201
100
AcDbEntity
  8
1
 62
     7
100
AcDbCircle
 10
346.5319283598588
 20
201.8472321060297
 30
0.0
 40
3.050000000000068
100
AcDbArc
 50
318.5061152954387
 51
35.1445569834689
  0
ARC
  5
239E
330
2201
100
AcDbEntity
  8
1
 62
     7
100
AcDbCircle
 10
346.5319283598588
 20
175.2022321060293
 30
0.0
 40
24.73000000000004
100
AcDbArc
 50
79.64830543687857
 51
84.69952065007898
  0
ARC
  5
239F
330
2201
100
AcDbEntity
  8
1
 62
     7
100
AcDbCircle
 10
353.7206633273377
 20
200.8591632274117
 30
0.0
 40
3.049999999999982
100
AcDbArc
 50
129.2032691034868
 51
205.8417107915142
  0
ARC
  5
23A0
330
2201
100
AcDbEntity
  8
1
 62
     7
100
AcDbCircle
 10
346.5319283598588
 20
175.2022321060293
 30
0.0
 40
28.50999999999996
100
AcDbArc
 50
63.71417536530051
 51
69.32930289556971
  0
ARC
  5
23A1
330
2201
100
AcDbEntity
  8
1
 62
     7
100
AcDbCircle
 10
353.7206633273377
 20
200.8591632274117
 30
0.0
 40
3.04999999999999
100
AcDbArc
 50
302.853941382397
 51
19.49238307042621
  0
ARC
  5
23A2
330
2201
100
AcDbEntity
  8
1
 62
     7
100
AcDbCircle
 10
346.5319283598588
 20
175.2022321060293
 30
0.0
 40
24.73000000000004
100
AcDbArc
 50
63.99613152383492
 51
69.04734673703481
  0
ARC
  5
23A3
330
2201
100
AcDbEntity
  8
1
 62
     7
100
AcDbCircle
 10
360.3762427085527
 20
197.9682371401708
 30
0.0
 40
3.04999999999997
100
AcDbArc
 50
113.5510951904449
 51
190.1895368784724
  0
ARC
  5
23A4
330
2201
100
AcDbEntity
  8
1
 62
     7
100
AcDbCircle
 10
346.5319283598588
 20
175.2022321060293
 30
0.0
 40
28.51
100
AcDbArc
 50
48.06200145225735
 51
53.67712898252546
  0
ARC
  5
23A5
330
2201
100
AcDbEntity
  8
1
 62
     7
100
AcDbCircle
 10
360.3762427085527
 20
197.9682371401708
 30
0.0
 40
3.050000000000018
100
AcDbArc
 50
287.2017674693529
 51
3.840209157381451
  0
ARC
  5
23A6
330
2201
100
AcDbEntity
  8
1
 62
     7
100
AcDbCircle
 10
346.5319283598588
 20
175.2022321060293
 30
0.0
 40
24.73
100
AcDbArc
 50
48.34395761079164
 51
53.39517282399217
  0
ARC
  5
23A7
330
2201
100
AcDbEntity
  8
1
 62
     7
100
AcDbCircle
 10
366.0050526280491
 20
193.3888606070908
 30
0.0
 40
3.049999999999933
100
AcDbArc
 50
97.89892127740117
 51
174.5373629654295
  0
ARC
  5
23A8
330
2201
100
AcDbEntity
  8
1
 62
     7
100
AcDbCircle
 10
346.5319283598588
 20
175.2022321060293
 30
0.0
 40
28.50999999999999
100
AcDbArc
 50
32.40982753921382
 51
38.02495506948158
  0
ARC
  5
23A9
330
2201
100
AcDbEntity
  8
1
 62
     7
100
AcDbCircle
 10
366.0050526280491
 20
193.3888606070908
 30
0.0
 40
3.05000000000005
100
AcDbArc
 50
271.5495935563103
 51
348.1880352443372
  0
ARC
  5
23AA
330
2201
100
AcDbEntity
  8
1
 62
     7
100
AcDbCircle
 10
346.5319283598588
 20
175.2022321060293
 30
0.0
 40
24.72999999999996
100
AcDbArc
 50
32.69178369774865
 51
37.74299891094823
  0
ARC
  5
23AB
330
2201
100
AcDbEntity
  8
1
 62
     7
100
AcDbCircle
 10
370.1896300041902
 20
187.4606650363763
 30
0.0
 40
3.04999999999997
100
AcDbArc
 50
82.24674736435877
 51
158.8851890523853
  0
ARC
  5
23AC
330
2201
100
AcDbEntity
  8
1
 62
     7
100
AcDbCircle
 10
346.5319283598588
 20
175.2022321060293
 30
0.0
 40
28.50999999999992
100
AcDbArc
 50
16.75765362617028
 51
22.37278115643785
  0
ARC
  5
23AD
330
2201
100
AcDbEntity
  8
1
 62
     7
100
AcDbCircle
 10
370.1896300041902
 20
187.4606650363763
 30
0.0
 40
3.05000000000006
100
AcDbArc
 50
255.8974196432663
 51
332.535861331295
  0
ARC
  5
23AE
330
2201
100
AcDbEntity
  8
1
 62
     7
100
AcDbCircle
 10
346.5319283598588
 20
175.2022321060293
 30
0.0
 40
24.73000000000006
100
AcDbArc
 50
17.03960978470496
 51
22.09082499790465
  0
ARC
  5
23AF
330
2201
100
AcDbEntity
  8
1
 62
     7
100
AcDbCircle
 10
372.6196238761543
 20
180.6233175738172
 30
0.0
 40
3.049999999999926
100
AcDbArc
 50
66.59457345131464
 51
143.2330151393418
  0
ARC
  5
23B0
330
2201
100
AcDbEntity
  8
1
 62
     7
100
AcDbCircle
 10
346.5319283598588
 20
175.2022321060293
 30
0.0
 40
28.51000000000005
100
AcDbArc
 50
1.105479713126664
 51
6.720607243395415
  0
ARC
  5
23B1
330
2201
100
AcDbEntity
  8
1
 62
     7
100
AcDbCircle
 10
372.6196238761543
 20
180.6233175738172
 30
0.0
 40
3.050000000000068
100
AcDbArc
 50
240.2452457302227
 51
316.8836874182502
  0
ARC
  5
23B2
330
2201
100
AcDbEntity
  8
1
 62
     7
100
AcDbCircle
 10
346.5319283598588
 20
175.2022321060293
 30
0.0
 40
24.73
100
AcDbArc
 50
1.387435871661554
 51
6.438651084861788
  0
ARC
  5
23B3
330
2201
100
AcDbEntity
  8
1
 62
     7
100
AcDbCircle
 10
373.1148127149407
 20
173.3839130019281
 30
0.0
 40
3.050000000000034
100
AcDbArc
 50
50.94239953826985
 51
127.5808412262985
  0
ARC
  5
23B4
330
2201
100
AcDbEntity
  8
1
 62
     7
100
AcDbCircle
 10
346.5319283598588
 20
175.2022321060293
 30
0.0
 40
28.51000000000003
100
AcDbArc
 50
345.4533058000838
 51
351.068433330351
  0
ARC
  5
23B5
330
2201
100
AcDbEntity
  8
1
 62
     7
100
AcDbCircle
 10
373.1148127149407
 20
173.3839130019281
 30
0.0
 40
3.050000000000034
100
AcDbArc
 50
224.5930718171794
 51
301.2315135052068
  0
ARC
  5
23B6
330
2201
100
AcDbEntity
  8
1
 62
     7
100
AcDbCircle
 10
346.5319283598588
 20
175.2022321060293
 30
0.0
 40
24.73
100
AcDbArc
 50
345.7352619586174
 51
350.7864771718178
  0
ARC
  5
23B7
330
2201
100
AcDbEntity
  8
1
 62
     7
100
AcDbCircle
 10
371.6384706297148
 20
166.2793648397338
 30
0.0
 40
3.050000000000038
100
AcDbArc
 50
35.29022562522568
 51
111.9286673132531
  0
ARC
  5
23B8
330
2201
100
AcDbEntity
  8
1
 62
     7
100
AcDbCircle
 10
346.5319283598588
 20
175.2022321060293
 30
0.0
 40
28.51
100
AcDbArc
 50
329.8011318870391
 51
335.4162594173079
  0
ARC
  5
23B9
330
2201
100
AcDbEntity
  8
1
 62
     7
100
AcDbCircle
 10
371.6384706297148
 20
166.2793648397338
 30
0.0
 40
3.049999999999898
100
AcDbArc
 50
208.9408979041365
 51
285.5793395921651
  0
ARC
  5
23BA
330
2201
100
AcDbEntity
  8
1
 62
     7
100
AcDbCircle
 10
346.5319283598588
 20
175.2022321060293
 30
0.0
 40
24.7299999999999
100
AcDbArc
 50
330.0830880455736
 51
335.1343032587738
  0
ARC
  5
23BB
330
2201
100
AcDbEntity
  8
1
 62
     7
100
AcDbCircle
 10
368.3000911591221
 20
159.8365849232791
 30
0.0
 40
3.050000000000018
100
AcDbArc
 50
19.63805171218304
 51
96.27649340021207
  0
ARC
  5
23BC
330
2201
100
AcDbEntity
  8
1
 62
     7
100
AcDbCircle
 10
346.5319283598588
 20
175.2022321060293
 30
0.0
 40
28.51
100
AcDbArc
 50
314.1489579739968
 51
319.7640855042648
  0
ARC
  5
23BD
330
2201
100
AcDbEntity
  8
1
 62
     7
100
AcDbCircle
 10
368.3000911591221
 20
159.8365849232791
 30
0.0
 40
3.049999999999917
100
AcDbArc
 50
193.288723991092
 51
269.9271656791223
  0
ARC
  5
23BE
330
2201
100
AcDbEntity
  8
1
 62
     7
100
AcDbCircle
 10
346.5319283598588
 20
175.2022321060293
 30
0.0
 40
24.72999999999996
100
AcDbArc
 50
314.4309141325296
 51
319.4821293457308
  0
ARC
  5
23BF
330
2201
100
AcDbEntity
  8
1
 62
     7
100
AcDbCircle
 10
363.3472666364264
 20
154.5334047652104
 30
0.0
 40
3.049999999999993
100
AcDbArc
 50
3.985877799139787
 51
80.62431948716698
  0
ARC
  5
23C0
330
2201
100
AcDbEntity
  8
1
 62
     7
100
AcDbCircle
 10
346.5319283598588
 20
175.2022321060293
 30
0.0
 40
28.50999999999995
100
AcDbArc
 50
298.4967840609533
 51
304.1119115912211
  0
ARC
  5
23C1
330
2201
100
AcDbEntity
  8
1
 62
     7
100
AcDbCircle
 10
363.3472666364264
 20
154.5334047652104
 30
0.0
 40
3.050000000000063
100
AcDbArc
 50
177.6365500780487
 51
254.2749917660768
  0
ARC
  5
23C2
330
2201
100
AcDbEntity
  8
1
 62
     7
100
AcDbCircle
 10
346.5319283598588
 20
175.2022321060293
 30
0.0
 40
24.72999999999996
100
AcDbArc
 50
298.7787402194864
 51
303.8299554326872
  0
ARC
  5
23C3
330
2201
100
AcDbEntity
  8
1
 62
     7
100
AcDbCircle
 10
357.1473253988118
 20
150.7631369774169
 30
0.0
 40
3.049999999999973
100
AcDbArc
 50
348.3337038860963
 51
64.97214557412447
  0
ARC
  5
23C4
330
2201
100
AcDbEntity
  8
1
 62
     7
100
AcDbCircle
 10
346.5319283598588
 20
175.2022321060293
 30
0.0
 40
28.51
100
AcDbArc
 50
282.8446101479086
 51
288.4597376781776
  0
ARC
  5
23C5
330
2201
100
AcDbEntity
  8
1
 62
     7
100
AcDbCircle
 10
357.1473253988118
 20
150.7631369774169
 30
0.0
 40
3.050000000000001
100
AcDbArc
 50
161.984376165007
 51
238.6228178530343
  0
ARC
  5
23C6
330
2201
100
AcDbEntity
  8
1
 62
     7
100
AcDbCircle
 10
346.5319283598588
 20
175.2022321060293
 30
0.0
 40
24.72999999999996
100
AcDbArc
 50
283.1265663064428
 51
288.1777815196439
  0
ARC
  5
23C7
330
2201
100
AcDbEntity
  8
1
 62
     7
100
AcDbCircle
 10
350.160088725028
 20
148.8054050738917
 30
0.0
 40
3.049999999999943
100
AcDbArc
 50
332.6815299730522
 51
49.319971661082
  0
ARC
  5
23C8
330
2201
100
AcDbEntity
  8
1
 62
     7
100
AcDbCircle
 10
346.5319283598588
 20
175.2022321060293
 30
0.0
 40
28.50999999999989
100
AcDbArc
 50
267.1924362348651
 51
272.8075637651348
  0
ARC
  5
23C9
330
2201
100
AcDbEntity
  8
1
 62
     7
100
AcDbCircle
 10
350.160088725028
 20
148.8054050738917
 30
0.0
 40
3.050000000000022
100
AcDbArc
 50
146.3322022519612
 51
222.9706439399888
  0
ARC
  5
23CA
330
2201
100
AcDbEntity
  8
1
 62
     7
100
AcDbCircle
 10
346.5319283598588
 20
175.2022321060293
 30
0.0
 40
24.72999999999994
100
AcDbArc
 50
267.4743923933994
 51
272.5256076066004
  0
ARC
  5
23CB
330
2201
100
AcDbEntity
  8
1
 62
     7
100
AcDbCircle
 10
342.9037679946893
 20
148.8054050738917
 30
0.0
 40
3.049999999999913
100
AcDbArc
 50
317.0293560600108
 51
33.66779774803873
  0
ARC
  5
23CC
330
2201
100
AcDbEntity
  8
1
 62
     7
100
AcDbCircle
 10
346.5319283598588
 20
175.2022321060293
 30
0.0
 40
28.50999999999994
100
AcDbArc
 50
251.5402623218223
 51
257.1553898520911
  0
ARC
  5
23CD
330
2201
100
AcDbEntity
  8
1
 62
     7
100
AcDbCircle
 10
342.9037679946893
 20
148.8054050738917
 30
0.0
 40
3.049999999999982
100
AcDbArc
 50
130.6800283389192
 51
207.3184700269474
  0
ARC
  5
23CE
330
2201
100
AcDbEntity
  8
1
 62
     7
100
AcDbCircle
 10
346.5319283598588
 20
175.2022321060293
 30
0.0
 40
24.72999999999994
100
AcDbArc
 50
251.8222184803557
 51
256.8734336935564
  0
ARC
  5
23CF
330
2201
100
AcDbEntity
  8
1
 62
     7
100
AcDbCircle
 10
335.9165313209056
 20
150.7631369774169
 30
0.0
 40
3.049999999999903
100
AcDbArc
 50
301.377182146967
 51
18.01562383499453
  0
ARC
  5
23D0
330
2201
100
AcDbEntity
  8
1
 62
     7
100
AcDbCircle
 10
346.5319283598588
 20
175.2022321060293
 30
0.0
 40
28.51000000000004
100
AcDbArc
 50
110.6706971044302
 51
116.2858246346994
  0
ARC
  5
23D1
330
2201
100
AcDbEntity
  8
1
 62
     7
100
AcDbCircle
 10
332.6876140111647
 20
197.9682371401708
 30
0.0
 40
3.049999999999946
100
AcDbArc
 50
349.8104631215275
 51
66.44890480955654
  0
ARC
  5
23D2
330
2201
100
AcDbEntity
  8
1
 62
     7
100
AcDbCircle
 10
346.5319283598588
 20
175.2022321060293
 30
0.0
 40
24.73
100
AcDbArc
 50
110.9526532629649
 51
116.0038684761649
  0
ARC
  5
23D3
330
2201
100
AcDbEntity
  8
1
 62
     7
100
AcDbCircle
 10
339.3431933923798
 20
200.8591632274119
 30
0.0
 40
3.049999999999998
100
AcDbArc
 50
160.5076169295768
 51
237.1460586176029
  0
ARC
  5
23D4
330
2201
100
AcDbEntity
  8
1
 62
     7
100
AcDbCircle
 10
346.5319283598588
 20
201.8472321060297
 30
0.0
 40
3.049999999999917
100
AcDbArc
 50
144.8554430165324
 51
221.4938847045611
  0
ARC
  5
23D5
330
2201
100
AcDbEntity
  8
1
 62
     7
100
AcDbCircle
 10
346.5319283598588
 20
175.2022321060293
 30
0.0
 40
24.73000000000001
100
AcDbArc
 50
95.30047934992099
 51
100.3516945631214
  0
ARC
  5
23D6
330
2201
100
AcDbEntity
  8
1
 62
     7
100
AcDbCircle
 10
339.3431933923798
 20
200.8591632274119
 30
0.0
 40
3.049999999999978
100
AcDbArc
 50
334.1582892084831
 51
50.79673089651311
  0
ARC
  5
23D7
330
2201
100
AcDbEntity
  8
1
 62
     7
100
AcDbCircle
 10
346.5319283598588
 20
175.2022321060293
 30
0.0
 40
28.51000000000004
100
AcDbArc
 50
95.01852319138789
 51
100.6336507216557
  0
ARC
  5
23D8
330
2201
100
AcDbEntity
  8
1
 62
     7
100
AcDbCircle
 10
346.5319283598588
 20
175.2022321060293
 30
0.0
 40
28.50999999999985
100
AcDbArc
 50
235.890262321822
 51
241.5053898520901
  0
ARC
  5
23D9
330
2201
100
AcDbEntity
  8
1
 62
     7
100
AcDbCircle
 10
335.9174585952338
 20
150.7627342262478
 30
0.0
 40
3.049999999999958
100
AcDbArc
 50
115.0300283389178
 51
191.668470026949
  0
ARC
  5
23DA
330
2201
100
AcDbEntity
  8
1
 62
     7
100
AcDbCircle
 10
346.5319283598588
 20
175.2022321060293
 30
0.0
 40
24.72999999999994
100
AcDbArc
 50
236.1722184803558
 51
241.223433693556
  0
ARC
  5
23DB
330
2201
100
AcDbEntity
  8
1
 62
     7
100
AcDbCircle
 10
329.7173743108068
 20
154.5327667735276
 30
0.0
 40
3.049999999999907
100
AcDbArc
 50
285.7271821469672
 51
2.365623834994126
  0
ARC
  5
23DC
330
2201
100
AcDbEntity
  8
1
 62
     7
100
AcDbCircle
 10
346.5319283598588
 20
175.2022321060293
 30
0.0
 40
28.50999999999989
100
AcDbArc
 50
220.2402623218225
 51
225.8553898520915
  0
ARC
  5
23DD
330
2201
100
AcDbEntity
  8
1
 62
     7
100
AcDbCircle
 10
329.7181585625285
 20
154.5321288116003
 30
0.0
 40
3.050000000000038
100
AcDbArc
 50
99.38002833891893
 51
176.0184700269468
  0
ARC
  5
23DE
330
2201
100
AcDbEntity
  8
1
 62
     7
100
AcDbCircle
 10
346.5319283598588
 20
175.2022321060293
 30
0.0
 40
24.72999999999989
100
AcDbArc
 50
220.5222184803566
 51
225.5734336935568
  0
ARC
  5
23DF
330
2201
100
AcDbEntity
  8
1
 62
     7
100
AcDbCircle
 10
324.7649316282039
 20
159.834933114856
 30
0.0
 40
3.049999999999913
100
AcDbArc
 50
270.0771821469654
 51
346.7156238349949
  0
ARC
  5
23E0
330
2201
100
AcDbEntity
  8
1
 62
     7
100
AcDbCircle
 10
346.5319283598588
 20
175.2022321060293
 30
0.0
 40
28.50999999999987
100
AcDbArc
 50
204.590262321822
 51
210.2053898520908
  0
ARC
  5
23E1
330
2201
100
AcDbEntity
  8
1
 62
     7
100
AcDbCircle
 10
324.7655147090118
 20
159.8341072438278
 30
0.0
 40
3.049999999999926
100
AcDbArc
 50
83.73002833891757
 51
160.3684700269479
  0
ARC
  5
23E2
330
2201
100
AcDbEntity
  8
1
 62
     7
100
AcDbCircle
 10
346.5319283598588
 20
175.2022321060293
 30
0.0
 40
24.72999999999987
100
AcDbArc
 50
204.8722184803568
 51
209.9234336935568
  0
ARC
  5
23E3
330
2201
100
AcDbEntity
  8
1
 62
     7
100
AcDbCircle
 10
321.4264019053351
 20
166.2765071247628
 30
0.0
 40
3.049999999999971
100
AcDbArc
 50
254.4271821469672
 51
331.0656238349943
  0
ARC
  5
23E4
330
2201
100
AcDbEntity
  8
1
 62
     7
100
AcDbCircle
 10
346.5319283598588
 20
175.2022321060293
 30
0.0
 40
28.50999999999979
100
AcDbArc
 50
188.940262321822
 51
194.5553898520904
  0
ARC
  5
23E5
330
2201
100
AcDbEntity
  8
1
 62
     7
100
AcDbCircle
 10
321.4267405827298
 20
166.2755545788029
 30
0.0
 40
3.049999999999911
100
AcDbArc
 50
68.08002833891892
 51
144.7184700269493
  0
ARC
  5
23E6
330
2201
100
AcDbEntity
  8
1
 62
     7
100
AcDbCircle
 10
346.5319283598588
 20
175.2022321060293
 30
0.0
 40
24.72999999999988
100
AcDbArc
 50
189.2222184803559
 51
194.2734336935567
  0
ARC
  5
23E7
330
2201
100
AcDbEntity
  8
1
 62
     7
100
AcDbCircle
 10
319.9493202731429
 20
173.379878598044
 30
0.0
 40
3.049999999999798
100
AcDbArc
 50
238.7771821469673
 51
315.415623834995
  0
ARC
  5
23E8
330
2201
100
AcDbEntity
  8
1
 62
     7
100
AcDbCircle
 10
346.5319283598588
 20
175.2022321060293
 30
0.0
 40
28.50999999999987
100
AcDbArc
 50
173.2902623218223
 51
178.9053898520903
  0
ARC
  5
23E9
330
2201
100
AcDbEntity
  8
1
 62
     7
100
AcDbCircle
 10
319.949389435905
 20
173.378870003628
 30
0.0
 40
3.050000000000009
100
AcDbArc
 50
52.43002833891979
 51
129.0684700269474
  0
ARC
  5
23EA
330
2201
100
AcDbEntity
  8
1
 62
     7
100
AcDbCircle
 10
346.5319283598588
 20
175.2022321060293
 30
0.0
 40
24.72999999999988
100
AcDbArc
 50
173.5722184803564
 51
178.6234336935568
  0
ARC
  5
23EB
330
2201
100
AcDbEntity
  8
1
 62
     7
100
AcDbCircle
 10
320.4432048805096
 20
180.618368387371
 30
0.0
 40
3.049999999999903
100
AcDbArc
 50
223.1271821469677
 51
299.7656238349945
  0
ARC
  5
23EC
330
2201
100
AcDbEntity
  8
1
 62
     7
100
AcDbCircle
 10
346.5319283598588
 20
175.2022321060293
 30
0.0
 40
28.50999999999987
100
AcDbArc
 50
157.6402623218227
 51
163.2553898520896
  0
ARC
  5
23ED
330
2201
100
AcDbEntity
  8
1
 62
     7
100
AcDbCircle
 10
320.4429994005692
 20
180.617378526685
 30
0.0
 40
3.049999999999971
100
AcDbArc
 50
36.78002833891953
 51
113.4184700269494
  0
ARC
  5
23EE
330
2201
100
AcDbEntity
  8
1
 62
     7
100
AcDbCircle
 10
346.5319283598588
 20
175.2022321060293
 30
0.0
 40
24.72999999999981
100
AcDbArc
 50
157.9222184803561
 51
162.9734336935564
  0
ARC
  5
23EF
330
2201
100
AcDbEntity
  8
1
 62
     7
100
AcDbCircle
 10
322.8714366762051
 20
187.4552790041595
 30
0.0
 40
3.049999999999895
100
AcDbArc
 50
207.4771821469667
 51
284.1156238349958
  0
ARC
  5
23F0
330
2201
100
AcDbEntity
  8
1
 62
     7
100
AcDbCircle
 10
346.5319283598588
 20
175.2022321060293
 30
0.0
 40
28.50999999999981
100
AcDbArc
 50
141.9902623218229
 51
147.6053898520904
  0
ARC
  5
23F1
330
2201
100
AcDbEntity
  8
1
 62
     7
100
AcDbCircle
 10
322.8709717888629
 20
187.4543812703781
 30
0.0
 40
3.050000000000063
100
AcDbArc
 50
21.13002833891779
 51
97.76847002694816
  0
ARC
  5
23F2
330
2201
100
AcDbEntity
  8
1
 62
     7
100
AcDbCircle
 10
346.5319283598588
 20
175.2022321060293
 30
0.0
 40
24.72999999999981
100
AcDbArc
 50
142.2722184803565
 51
147.3234336935568
  0
ARC
  5
23F3
330
2201
100
AcDbEntity
  8
1
 62
     7
100
AcDbCircle
 10
327.0539745267368
 20
193.3836880288859
 30
0.0
 40
3.049999999999871
100
AcDbArc
 50
191.8271821469659
 51
268.465623834994
  0
ARC
  5
23F4
330
2201
100
AcDbEntity
  8
1
 62
     7
100
AcDbCircle
 10
346.5319283598588
 20
175.2022321060293
 30
0.0
 40
28.50999999999983
100
AcDbArc
 50
126.3402623218224
 51
131.9553898520902
  0
ARC
  5
23F5
330
2201
100
AcDbEntity
  8
1
 62
     7
100
AcDbCircle
 10
327.0532847010426
 20
193.382948984438
 30
0.0
 40
3.04999999999995
100
AcDbArc
 50
5.480028338922023
 51
82.11847002695156
  0
ARC
  5
23F6
330
2201
100
AcDbEntity
  8
1
 62
     7
100
AcDbCircle
 10
346.5319283598588
 20
175.2022321060293
 30
0.0
 40
24.72999999999996
100
AcDbArc
 50
126.6222184803563
 51
131.6734336935567
  0
ARC
  5
23F7
330
2201
100
AcDbEntity
  8
1
 62
     7
100
AcDbCircle
 10
332.6807043578118
 20
197.9640338502923
 30
0.0
 40
3.049999999999795
100
AcDbArc
 50
176.177182146966
 51
252.8156238349938
  0
ARC
  5
23F8
330
2201
100
AcDbEntity
  8
1
 62
     7
100
AcDbCircle
 10
217.4768785319236
 20
201.8437321060297
 30
0.0
 40
2.778125000000021
100
AcDbArc
 50
90.0
 51
115.1380567845764
  0
ARC
  5
23F9
330
2201
100
AcDbEntity
  8
1
 62
     7
100
AcDbCircle
 10
217.4768785319236
 20
201.8437321060297
 30
0.0
 40
2.77812499999996
100
AcDbArc
 50
115.1380567845764
 51
270.0
  0
ARC
  5
23FA
330
2201
100
AcDbEntity
  8
1
 62
     7
100
AcDbCircle
 10
217.4768785319236
 20
201.8437321060297
 30
0.0
 40
2.778124999999988
100
AcDbArc
 50
270.0
 51
298.01926958932
  0
ARC
  5
23FB
330
2201
100
AcDbEntity
  8
1
 62
     7
100
AcDbCircle
 10
217.4768785319236
 20
201.8437321060297
 30
0.0
 40
2.778124999999998
100
AcDbArc
 50
298.01926958932
 51
64.86194321542277
  0
ARC
  5
23FC
330
2201
100
AcDbEntity
  8
1
 62
     7
100
AcDbCircle
 10
217.4768785319236
 20
201.8437321060297
 30
0.0
 40
2.778124999999983
100
AcDbArc
 50
64.86194321542277
 51
90.0
  0
ARC
  5
23FD
330
2201
100
AcDbEntity
  8
1
 62
     7
100
AcDbCircle
 10
217.4768785319236
 20
148.5537321060296
 30
0.0
 40
2.77812499999999
100
AcDbArc
 50
270.0
 51
295.1380567845772
  0
ARC
  5
23FE
330
2201
100
AcDbEntity
  8
1
 62
     7
100
AcDbCircle
 10
217.4768785319236
 20
148.5537321060296
 30
0.0
 40
2.778124999999963
100
AcDbArc
 50
295.1380567845772
 51
61.98073041067992
  0
ARC
  5
23FF
330
2201
100
AcDbEntity
  8
1
 62
     7
100
AcDbCircle
 10
217.4768785319236
 20
148.5537321060296
 30
0.0
 40
2.77812499999999
100
AcDbArc
 50
61.98073041067992
 51
90.0
  0
ARC
  5
2400
330
2201
100
AcDbEntity
  8
1
 62
     7
100
AcDbCircle
 10
217.4768785319236
 20
148.5537321060296
 30
0.0
 40
2.778124999999988
100
AcDbArc
 50
90.0
 51
244.8619432154234
  0
ARC
  5
2401
330
2201
100
AcDbEntity
  8
1
 62
     7
100
AcDbCircle
 10
217.4768785319236
 20
148.5537321060296
 30
0.0
 40
2.778124999999938
100
AcDbArc
 50
244.8619432154234
 51
270.0
  0
CIRCLE
  5
2402
330
2201
100
AcDbEntity
  8
1
 62
     7
100
AcDbCircle
 10
327.7819283606252
 20
142.7262794636772
 30
0.0
 40
2.250000000000035
  0
CIRCLE
  5
2403
330
2201
100
AcDbEntity
  8
1
 62
     7
100
AcDbCircle
 10
314.0559757183895
 20
156.452232105274
 30
0.0
 40
2.250000000000008
  0
CIRCLE
  5
2404
330
2201
100
AcDbEntity
  8
1
 62
     7
100
AcDbCircle
 10
309.0319283598698
 20
175.2022321051574
 30
0.0
 40
2.25
  0
CIRCLE
  5
2405
330
2201
100
AcDbEntity
  8
1
 62
     7
100
AcDbCircle
 10
314.055975717517
 20
193.952232105274
 30
0.0
 40
2.250000000000009
  0
CIRCLE
  5
2406
330
2201
100
AcDbEntity
  8
1
 62
     7
100
AcDbCircle
 10
327.7819283591142
 20
207.6781847475099
 30
0.0
 40
2.250000000000035
  0
CIRCLE
  5
2407
330
2201
100
AcDbEntity
  8
1
  6
CENTER
 62
     3
100
AcDbCircle
 10
346.5319283598588
 20
175.2022321060293
 30
0.0
 40
37.50000000000009
  0
CIRCLE
  5
2408
330
2201
100
AcDbEntity
  8
1
 62
     7
100
AcDbCircle
 10
346.5319283598588
 20
175.2022321060293
 30
0.0
 40
17.4999997373605
  0
CIRCLE
  5
2409
330
2201
100
AcDbEntity
  8
1
 62
     7
100
AcDbCircle
 10
346.5319283598172
 20
175.2022321060293
 30
0.0
 40
32.19999951658051
  0
CIRCLE
  5
240A
330
2201
100
AcDbEntity
  8
1
 62
     7
100
AcDbCircle
 10
346.5319283598172
 20
175.2022321060293
 30
0.0
 40
42.49999936179809
  0
CIRCLE
  5
240B
330
2201
100
AcDbEntity
  8
1
 62
     7
100
AcDbCircle
 10
64.88125406643238
 20
127.2022321060297
 30
0.0
 40
2.25
  0
CIRCLE
  5
240C
330
2201
100
AcDbEntity
  8
1
 62
     7
100
AcDbCircle
 10
40.88125406643249
 20
133.6330127243767
 30
0.0
 40
2.250000000000009
  0
CIRCLE
  5
240D
330
2201
100
AcDbEntity
  8
1
 62
     7
100
AcDbCircle
 10
23.31203468477937
 20
151.2022321060294
 30
0.0
 40
2.250000000000009
  0
CIRCLE
  5
240E
330
2201
100
AcDbEntity
  8
1
 62
     7
100
AcDbCircle
 10
16.88125406643235
 20
175.2022321060293
 30
0.0
 40
2.25
  0
CIRCLE
  5
240F
330
2201
100
AcDbEntity
  8
1
 62
     7
100
AcDbCircle
 10
23.31203468477937
 20
199.2022321060295
 30
0.0
 40
2.250000000000009
  0
CIRCLE
  5
2410
330
2201
100
AcDbEntity
  8
1
 62
     7
100
AcDbCircle
 10
40.88125406643237
 20
216.7714514876827
 30
0.0
 40
2.250000000000009
  0
CIRCLE
  5
2411
330
2201
100
AcDbEntity
  8
1
 62
     7
100
AcDbCircle
 10
64.88125406643238
 20
223.2022321060297
 30
0.0
 40
2.25
  0
CIRCLE
  5
2412
330
2201
100
AcDbEntity
  8
1
 62
     7
100
AcDbCircle
 10
346.5319283598588
 20
175.2022321060293
 30
0.0
 40
13.0
  0
CIRCLE
  5
2413
330
2201
100
AcDbEntity
  8
0
 62
     7
100
AcDbCircle
 10
348.8285949919795
 20
161.0322323189127
 30
0.0
 40
0.8666666536457936
  0
CIRCLE
  5
2414
330
2201
100
AcDbEntity
  8
0
 62
     7
100
AcDbCircle
 10
344.2352617276619
 20
161.0322323189127
 30
0.0
 40
0.8666666536414453
  0
CIRCLE
  5
2415
330
2201
100
AcDbEntity
  8
1
 62
     7
100
AcDbCircle
 10
346.5319283607368
 20
212.7022321060297
 30
0.0
 40
2.25
  0
CIRCLE
  5
2416
330
2201
100
AcDbEntity
  8
1
 62
     7
100
AcDbCircle
 10
346.5319283589921
 20
137.7022321060294
 30
0.0
 40
2.250000000000043
  0
CIRCLE
  5
2417
330
2201
100
AcDbEntity
  8
1
 62
     7
100
AcDbCircle
 10
365.2819283591087
 20
142.7262794636772
 30
0.0
 40
2.250000000000009
  0
CIRCLE
  5
2418
330
2201
100
AcDbEntity
  8
1
 62
     7
100
AcDbCircle
 10
379.0078810013448
 20
156.452232105274
 30
0.0
 40
2.250000000000008
  0
CIRCLE
  5
2419
330
2201
100
AcDbEntity
  8
1
 62
     7
100
AcDbCircle
 10
384.0319283598643
 20
175.2022321051574
 30
0.0
 40
2.25
  0
CIRCLE
  5
241A
330
2201
100
AcDbEntity
  8
1
 62
     7
100
AcDbCircle
 10
379.0078810022171
 20
193.952232105274
 30
0.0
 40
2.250000000000009
  0
CIRCLE
  5
241B
330
2201
100
AcDbEntity
  8
1
 62
     7
100
AcDbCircle
 10
365.2819283606199
 20
207.6781847475099
 30
0.0
 40
2.250000000000008
  0
CIRCLE
  5
241C
330
2201
100
AcDbEntity
  8
1
 62
     3
100
AcDbCircle
 10
336.8262141685207
 20
211.42445059187
 30
0.0
 40
2.0
  0
CIRCLE
  5
241D
330
2201
100
AcDbEntity
  8
1
 62
     7
100
AcDbCircle
 10
336.8262141685207
 20
211.42445059187
 30
0.0
 40
1.600000000000135
  0
CIRCLE
  5
241E
330
2201
100
AcDbEntity
  8
1
 62
     7
100
AcDbCircle
 10
356.2376425512082
 20
138.9800136201893
 30
0.0
 40
1.599999999999994
  0
CIRCLE
  5
241F
330
2201
100
AcDbEntity
  8
1
 62
     3
100
AcDbCircle
 10
356.2376425512082
 20
138.9800136201893
 30
0.0
 40
2.0
  0
CIRCLE
  5
2420
330
2201
100
AcDbEntity
  8
1
 62
     7
100
AcDbCircle
 10
336.8262141685207
 20
211.42445059187
 30
0.0
 40
2.25
  0
CIRCLE
  5
2421
330
2201
100
AcDbEntity
  8
1
 62
     7
100
AcDbCircle
 10
356.2376425512082
 20
138.9800136201893
 30
0.0
 40
2.25
  0
CIRCLE
  5
2422
330
2201
100
AcDbEntity
  8
1
 62
     7
100
AcDbCircle
 10
88.88125406643231
 20
216.7714514876827
 30
0.0
 40
2.250000000000009
  0
CIRCLE
  5
2423
330
2201
100
AcDbEntity
  8
1
 62
     7
100
AcDbCircle
 10
106.4504734480852
 20
199.2022321060295
 30
0.0
 40
2.250000000000009
  0
CIRCLE
  5
2424
330
2201
100
AcDbEntity
  8
1
 62
     7
100
AcDbCircle
 10
112.8812540664323
 20
175.2022321060293
 30
0.0
 40
2.25
  0
CIRCLE
  5
2425
330
2201
100
AcDbEntity
  8
1
 62
     7
100
AcDbCircle
 10
106.4504734480852
 20
151.2022321060294
 30
0.0
 40
2.250000000000009
  0
CIRCLE
  5
2426
330
2201
100
AcDbEntity
  8
1
 62
     7
100
AcDbCircle
 10
88.88125406643215
 20
133.6330127243767
 30
0.0
 40
2.250000000000009
  0
CIRCLE
  5
2427
330
2201
100
AcDbEntity
  8
1
 62
     7
100
AcDbCircle
 10
346.5319283598172
 20
175.2022321060293
 30
0.0
 40
22.60600000000007
  0
CIRCLE
  5
2428
330
2201
100
AcDbEntity
  8
1
 62
     7
100
AcDbCircle
 10
346.5319283598172
 20
175.2022321060293
 30
0.0
 40
24.19250000000007
  0
CIRCLE
  5
2429
330
2201
100
AcDbEntity
  8
1
 62
     7
100
AcDbCircle
 10
346.5319283598172
 20
175.2022321060293
 30
0.0
 40
29.16000000000007
  0
CIRCLE
  5
242A
330
2201
100
AcDbEntity
  8
1
 62
     7
100
AcDbCircle
 10
346.5319283598172
 20
175.2022321060293
 30
0.0
 40
30.67049999999996
  0
ARC
  5
242B
330
2201
100
AcDbEntity
  8
1
 62
     7
100
AcDbCircle
 10
193.5373785319234
 20
142.5462321060297
 30
0.0
 40
1.513825947723292
100
AcDbArc
 50
88.1072394048853
 51
178.1072394048851
  0
ARC
  5
242C
330
2201
100
AcDbEntity
  8
1
 62
     7
100
AcDbCircle
 10
191.2983785319233
 20
131.4522321060294
 30
0.0
 40
0.25
100
AcDbArc
 50
270.0
 51
0.0
  0
ARC
  5
242D
330
2201
100
AcDbEntity
  8
1
 62
     7
100
AcDbCircle
 10
193.4113785319233
 20
142.6722321060298
 30
0.0
 40
1.863670840035871
100
AcDbArc
 50
88.46264013121865
 51
178.4626401312184
  0
ARC
  5
242E
330
2201
100
AcDbEntity
  8
1
 62
     7
100
AcDbCircle
 10
193.5373785319234
 20
207.8582321060296
 30
0.0
 40
1.513825947723224
100
AcDbArc
 50
181.8927605951143
 51
271.8927605951141
  0
ARC
  5
242F
330
2201
100
AcDbEntity
  8
1
 62
     7
100
AcDbCircle
 10
191.2983785319233
 20
218.9522321060297
 30
0.0
 40
0.25
100
AcDbArc
 50
0.0
 51
90.0
  0
ARC
  5
2430
330
2201
100
AcDbEntity
  8
1
 62
     7
100
AcDbCircle
 10
193.4113785319233
 20
207.7322321060297
 30
0.0
 40
1.863670840035899
100
AcDbArc
 50
181.5373598687794
 51
271.5373598687796
  0
ARC
  5
2431
330
2201
100
AcDbEntity
  8
1
 62
     7
100
AcDbCircle
 10
213.421327128514
 20
200.1787321060294
 30
0.0
 40
0.2499999999999579
100
AcDbArc
 50
172.9999999999907
 51
270.0
  0
ARC
  5
2432
330
2201
100
AcDbEntity
  8
1
 62
     7
100
AcDbCircle
 10
213.6387535319236
 20
203.4587321060294
 30
0.0
 40
0.25
100
AcDbArc
 50
90.0
 51
180.0
  0
ARC
  5
2433
330
2201
100
AcDbEntity
  8
1
 62
     7
100
AcDbCircle
 10
213.6387535319236
 20
146.9387321060295
 30
0.0
 40
0.25
100
AcDbArc
 50
180.0
 51
270.0
  0
ARC
  5
2434
330
2201
100
AcDbEntity
  8
1
 62
     7
100
AcDbCircle
 10
213.421327128514
 20
150.2187321060294
 30
0.0
 40
0.25
100
AcDbArc
 50
90.0
 51
187.0000000000011
  0
TEXT
  5
2439
330
2201
100
AcDbEntity
  8
1
 62
     0
100
AcDbText
 10
309.3740392631995
 20
91.48948834016342
 30
0.0
 40
6.063880055198858
  1
SHF-25-XXX-2A-GR.dxf
 41
0.9
100
AcDbText
  0
TEXT
  5
243A
330
2201
100
AcDbEntity
  8
0
 62
     0
100
AcDbText
 10
153.5742696936796
 20
93.61779363361055
 30
0.0
 40
4.080908361241638
  1
REMARKS:  M.H.C = MINIMUM HOUSING CLEARANCE
 41
0.9
 72
     1
 11
206.8393058516958
 21
95.65824781423136
 31
0.0
100
AcDbText
 73
     2
  0
TEXT
  5
243E
330
2201
100
AcDbEntity
  8
1
 62
     3
100
AcDbText
 10
50.88700005325716
 20
55.62549856706858
 30
0.0
 40
2.399999999999999
  1
 
 41
0.9
100
AcDbText
  0
TEXT
  5
2445
330
2201
100
AcDbEntity
  8
1
 62
     0
100
AcDbText
 10
338.0586251022218
 20
72.42410654447247
 30
0.0
 40
6.063880055198858
  1
2002/3
 41
0.9
 72
     1
 11
349.5630938076441
 21
75.45604657207191
 31
0.0
100
AcDbText
 73
     2
  0
INSERT
  5
24BA
330
2201
100
AcDbEntity
  8
AM_0
100
AcDbBlockReference
  2
HD Logo
 10
263.0051233032861
 20
23.13420814119524
 30
0.0
  0
INSERT
  5
24C4
330
2201
100
AcDbEntity
  8
AM_0
100
AcDbBlockReference
  2
Harmonic Drive LLC
 10
-10.94224042111545
 20
346.1362186292546
 30
0.0
 41
1.932419223845169
 42
1.932419223845169
 43
1.932419223845169
  0
INSERT
  5
24D8
330
2201
100
AcDbEntity
  8
AM_0
100
AcDbBlockReference
  2
NTC
 10
17.75404611364324
 20
78.65013401092355
 30
0.0
 41
0.6
 42
0.6
 43
0.6
  0
ENDSEC
  0
SECTION
  2
OBJECTS
  0
DICTIONARY
  5
21EF
330
0
100
AcDbDictionary
281
     1
  3
ACAD_GROUP
350
21F0
  3
ACAD_LAYOUT
350
21FC
  3
ACAD_MLINESTYLE
350
21F9
  3
ACAD_PLOTSETTINGS
350
21FB
  3
ACAD_PLOTSTYLENAME
350
21F1
  3
AcDbVariableDictionary
350
24C5
  0
DICTIONARY
  5
21F0
102
{ACAD_REACTORS
330
21EF
102
}
330
21EF
100
AcDbDictionary
281
     1
  0
DICTIONARY
  5
21FC
102
{ACAD_REACTORS
330
21EF
102
}
330
21EF
100
AcDbDictionary
281
     1
  3
Layout1
350
2200
  3
Model
350
2204
  0
DICTIONARY
  5
21F9
102
{ACAD_REACTORS
330
21EF
102
}
330
21EF
100
AcDbDictionary
281
     1
  3
Standard
350
21FA
  0
DICTIONARY
  5
21FB
102
{ACAD_REACTORS
330
21EF
102
}
330
21EF
100
AcDbDictionary
281
     1
  0
ACDBDICTIONARYWDFLT
  5
21F1
102
{ACAD_REACTORS
330
21EF
102
}
330
21EF
100
AcDbDictionary
281
     1
  3
Normal
350
21F2
100
AcDbDictionaryWithDefault
340
21F2
  0
DICTIONARY
  5
24C5
102
{ACAD_REACTORS
330
21EF
102
}
330
21EF
100
AcDbDictionary
281
     1
  3
DIMASSOC
350
24C6
  0
LAYOUT
  5
2200
102
{ACAD_REACTORS
330
21FC
102
}
330
21FC
100
AcDbPlotSettings
  1

  2
\\SERVER9\HP LaserJet 5100 PCL 5e
  4

  6

 40
0.0
 41
0.0
 42
0.0
 43
0.0
 44
0.0
 45
0.0
 46
0.0
 47
0.0
 48
0.0
 49
0.0
140
0.0
141
0.0
142
1.0
143
1.0
 70
   688
 72
     0
 73
     0
 74
     5
  7

 75
    16
147
1.0
148
0.0
149
0.0
100
AcDbLayout
  1
Layout1
 70
     1
 71
     1
 10
0.0
 20
0.0
 11
420.0
 21
297.0
 12
0.0
 22
0.0
 32
0.0
 14
1.000000000000000E+20
 24
1.000000000000000E+20
 34
1.000000000000000E+20
 15
-1.000000000000000E+20
 25
-1.000000000000000E+20
 35
-1.000000000000000E+20
146
0.0
 13
0.0
 23
0.0
 33
0.0
 16
1.0
 26
0.0
 36
0.0
 17
0.0
 27
1.0
 37
0.0
 76
     0
330
21FD
  0
LAYOUT
  5
2204
102
{ACAD_REACTORS
330
21FC
102
}
330
21FC
100
AcDbPlotSettings
  1

  2
\\SERVER9\HP LaserJet 5100 PCL 5e
  4

  6

 40
0.0
 41
0.0
 42
0.0
 43
0.0
 44
0.0
 45
0.0
 46
0.0
 47
0.0
 48
0.0
 49
0.0
140
0.0
141
0.0
142
1.0
143
1.0
 70
  1712
 72
     0
 73
     0
 74
     0
  7

 75
     0
147
1.0
148
0.0
149
0.0
100
AcDbLayout
  1
Model
 70
     1
 71
     0
 10
0.0
 20
0.0
 11
12.0
 21
9.0
 12
0.0
 22
0.0
 32
0.0
 14
0.0
 24
0.0
 34
0.0
 15
0.0
 25
0.0
 35
0.0
146
0.0
 13
0.0
 23
0.0
 33
0.0
 16
1.0
 26
0.0
 36
0.0
 17
0.0
 27
1.0
 37
0.0
 76
     0
330
2201
  0
MLINESTYLE
  5
21FA
102
{ACAD_REACTORS
330
21F9
102
}
330
21F9
100
AcDbMlineStyle
  2
STANDARD
 70
     0
  3

 62
   256
 51
90.0
 52
90.0
 71
     2
 49
0.5
 62
   256
  6
BYLAYER
 49
-0.5
 62
   256
  6
BYLAYER
  0
ACDBPLACEHOLDER
  5
21F2
102
{ACAD_REACTORS
330
21F1
102
}
330
21F1
  0
DICTIONARYVAR
  5
24C6
102
{ACAD_REACTORS
330
24C5
102
}
330
24C5
100
DictionaryVariables
280
     0
  1
1
  0
ENDSEC
  0
EOF
