  0
SECTION
  2
HEADER
  9
$ACADVER
  1
AC1015
  9
$ACADMAINTVER
 70
    13
  9
$DWGCODEPAGE
  3
ANSI_1252
  9
$INSBASE
 10
0.0
 20
0.0
 30
0.0
  9
$EXTMIN
 10
-37.6592633392116
 20
-121.9518500307465
 30
0.0
  9
$EXTMAX
 10
492.4538566167566
 20
424.5353068199107
 30
0.0
  9
$LIMMIN
 10
0.0
 20
0.0
  9
$LIMMAX
 10
420.0
 20
297.0
  9
$ORTHOMODE
 70
     1
  9
$REGENMODE
 70
     1
  9
$FILLMODE
 70
     1
  9
$QTEXTMODE
 70
     0
  9
$MIRRTEXT
 70
     1
  9
$LTSCALE
 40
1.0
  9
$ATTMODE
 70
     1
  9
$TEXTSIZE
 40
2.5
  9
$TRACEWID
 40
1.0
  9
$TEXTSTYLE
  7
STANDARD
  9
$CLAYER
  8
0
  9
$CELTYPE
  6
ByLayer
  9
$CECOLOR
 62
   256
  9
$CELTSCALE
 40
1.0
  9
$DISPSILH
 70
     0
  9
$DIMSCALE
 40
1.0
  9
$DIMASZ
 40
2.5
  9
$DIMEXO
 40
0.625
  9
$DIMDLI
 40
3.75
  9
$DIMRND
 40
0.0
  9
$DIMDLE
 40
0.0
  9
$DIMEXE
 40
1.25
  9
$DIMTP
 40
0.0
  9
$DIMTM
 40
0.0
  9
$DIMTXT
 40
2.5
  9
$DIMCEN
 40
2.5
  9
$DIMTSZ
 40
0.0
  9
$DIMTOL
 70
     0
  9
$DIMLIM
 70
     0
  9
$DIMTIH
 70
     0
  9
$DIMTOH
 70
     0
  9
$DIMSE1
 70
     0
  9
$DIMSE2
 70
     0
  9
$DIMTAD
 70
     1
  9
$DIMZIN
 70
     8
  9
$DIMBLK
  1

  9
$DIMASO
 70
     1
  9
$DIMSHO
 70
     1
  9
$DIMPOST
  1

  9
$DIMAPOST
  1

  9
$DIMALT
 70
     0
  9
$DIMALTD
 70
     3
  9
$DIMALTF
 40
0.03937007874016
  9
$DIMLFAC
 40
1.0
  9
$DIMTOFL
 70
     1
  9
$DIMTVP
 40
0.0
  9
$DIMTIX
 70
     0
  9
$DIMSOXD
 70
     0
  9
$DIMSAH
 70
     0
  9
$DIMBLK1
  1

  9
$DIMBLK2
  1

  9
$DIMSTYLE
  2
ISO-25
  9
$DIMCLRD
 70
     0
  9
$DIMCLRE
 70
     0
  9
$DIMCLRT
 70
     0
  9
$DIMTFAC
 40
1.0
  9
$DIMGAP
 40
0.625
  9
$DIMJUST
 70
     0
  9
$DIMSD1
 70
     0
  9
$DIMSD2
 70
     0
  9
$DIMTOLJ
 70
     1
  9
$DIMTZIN
 70
     0
  9
$DIMALTZ
 70
     0
  9
$DIMALTTZ
 70
     0
  9
$DIMUPT
 70
     0
  9
$DIMDEC
 70
     4
  9
$DIMTDEC
 70
     4
  9
$DIMALTU
 70
     2
  9
$DIMALTTD
 70
     2
  9
$DIMTXSTY
  7
STANDARD
  9
$DIMAUNIT
 70
     0
  9
$DIMADEC
 70
     0
  9
$DIMALTRND
 40
0.0
  9
$DIMAZIN
 70
     0
  9
$DIMDSEP
 70
    46
  9
$DIMATFIT
 70
     3
  9
$DIMFRAC
 70
     0
  9
$DIMLDRBLK
  1

  9
$DIMLUNIT
 70
     2
  9
$DIMLWD
 70
    -2
  9
$DIMLWE
 70
    -2
  9
$DIMTMOVE
 70
     0
  9
$LUNITS
 70
     2
  9
$LUPREC
 70
     2
  9
$SKETCHINC
 40
1.0
  9
$FILLETRAD
 40
2.5
  9
$AUNITS
 70
     0
  9
$AUPREC
 70
     0
  9
$MENU
  1
.
  9
$ELEVATION
 40
0.0
  9
$PELEVATION
 40
0.0
  9
$THICKNESS
 40
0.0
  9
$LIMCHECK
 70
     0
  9
$CHAMFERA
 40
2.5
  9
$CHAMFERB
 40
2.5
  9
$CHAMFERC
 40
0.0
  9
$CHAMFERD
 40
0.0
  9
$SKPOLY
 70
     0
  9
$TDCREATE
 40
2452801.940400023
  9
$TDUCREATE
 40
2452802.107066690
  9
$TDUPDATE
 40
2453865.642082603
  9
$TDUUPDATE
 40
2453865.808749270
  9
$TDINDWG
 40
0.0341115162
  9
$TDUSRTIMER
 40
0.0341111574
  9
$USRTIMER
 70
     1
  9
$ANGBASE
 50
0.0
  9
$ANGDIR
 70
     0
  9
$PDMODE
 70
     0
  9
$PDSIZE
 40
0.0
  9
$PLINEWID
 40
0.0
  9
$SPLFRAME
 70
     0
  9
$SPLINETYPE
 70
     6
  9
$SPLINESEGS
 70
     8
  9
$HANDSEED
  5
2B7D
  9
$SURFTAB1
 70
     6
  9
$SURFTAB2
 70
     6
  9
$SURFTYPE
 70
     6
  9
$SURFU
 70
     6
  9
$SURFV
 70
     6
  9
$UCSBASE
  2

  9
$UCSNAME
  2

  9
$UCSORG
 10
0.0
 20
0.0
 30
0.0
  9
$UCSXDIR
 10
1.0
 20
0.0
 30
0.0
  9
$UCSYDIR
 10
0.0
 20
1.0
 30
0.0
  9
$UCSORTHOREF
  2

  9
$UCSORTHOVIEW
 70
     0
  9
$UCSORGTOP
 10
0.0
 20
0.0
 30
0.0
  9
$UCSORGBOTTOM
 10
0.0
 20
0.0
 30
0.0
  9
$UCSORGLEFT
 10
0.0
 20
0.0
 30
0.0
  9
$UCSORGRIGHT
 10
0.0
 20
0.0
 30
0.0
  9
$UCSORGFRONT
 10
0.0
 20
0.0
 30
0.0
  9
$UCSORGBACK
 10
0.0
 20
0.0
 30
0.0
  9
$PUCSBASE
  2

  9
$PUCSNAME
  2

  9
$PUCSORG
 10
0.0
 20
0.0
 30
0.0
  9
$PUCSXDIR
 10
1.0
 20
0.0
 30
0.0
  9
$PUCSYDIR
 10
0.0
 20
1.0
 30
0.0
  9
$PUCSORTHOREF
  2

  9
$PUCSORTHOVIEW
 70
     0
  9
$PUCSORGTOP
 10
0.0
 20
0.0
 30
0.0
  9
$PUCSORGBOTTOM
 10
0.0
 20
0.0
 30
0.0
  9
$PUCSORGLEFT
 10
0.0
 20
0.0
 30
0.0
  9
$PUCSORGRIGHT
 10
0.0
 20
0.0
 30
0.0
  9
$PUCSORGFRONT
 10
0.0
 20
0.0
 30
0.0
  9
$PUCSORGBACK
 10
0.0
 20
0.0
 30
0.0
  9
$USERI1
 70
     0
  9
$USERI2
 70
     0
  9
$USERI3
 70
     0
  9
$USERI4
 70
     0
  9
$USERI5
 70
     0
  9
$USERR1
 40
0.0
  9
$USERR2
 40
0.0
  9
$USERR3
 40
0.0
  9
$USERR4
 40
0.0
  9
$USERR5
 40
0.0
  9
$WORLDVIEW
 70
     1
  9
$SHADEDGE
 70
     3
  9
$SHADEDIF
 70
    70
  9
$TILEMODE
 70
     1
  9
$MAXACTVP
 70
    64
  9
$PINSBASE
 10
0.0
 20
0.0
 30
0.0
  9
$PLIMCHECK
 70
     0
  9
$PEXTMIN
 10
1.000000000000000E+20
 20
1.000000000000000E+20
 30
1.000000000000000E+20
  9
$PEXTMAX
 10
-1.000000000000000E+20
 20
-1.000000000000000E+20
 30
-1.000000000000000E+20
  9
$PLIMMIN
 10
0.0
 20
0.0
  9
$PLIMMAX
 10
420.0
 20
297.0
  9
$UNITMODE
 70
     0
  9
$VISRETAIN
 70
     1
  9
$PLINEGEN
 70
     0
  9
$PSLTSCALE
 70
     1
  9
$TREEDEPTH
 70
  3020
  9
$CMLSTYLE
  2
Standard
  9
$CMLJUST
 70
     0
  9
$CMLSCALE
 40
1.0
  9
$PROXYGRAPHICS
 70
     1
  9
$MEASUREMENT
 70
     0
  9
$CELWEIGHT
370
    -1
  9
$ENDCAPS
280
     0
  9
$JOINSTYLE
280
     0
  9
$LWDISPLAY
290
     0
  9
$INSUNITS
 70
     0
  9
$HYPERLINKBASE
  1

  9
$STYLESHEET
  1

  9
$XEDIT
290
     1
  9
$CEPSNTYPE
380
     0
  9
$PSTYLEMODE
290
     1
  9
$FINGERPRINTGUID
  2
{F4E5E2C6-1870-4F70-B690-E6204D13FD16}
  9
$VERSIONGUID
  2
{34775EF6-D00F-4418-BDCD-AC505A5F3939}
  9
$EXTNAMES
290
     1
  9
$PSVPSCALE
 40
0.0
  9
$OLESTARTUP
290
     0
  0
ENDSEC
  0
SECTION
  2
CLASSES
  0
CLASS
  1
ACDBDICTIONARYWDFLT
  2
AcDbDictionaryWithDefault
  3
AutoCAD 2000
 90
        0
280
     0
281
     0
  0
CLASS
  1
ACDBPLACEHOLDER
  2
AcDbPlaceHolder
  3
AutoCAD 2000
 90
        0
280
     0
281
     0
  0
CLASS
  1
LAYOUT
  2
AcDbLayout
  3
AutoCAD 2000
 90
        0
280
     0
281
     0
  0
CLASS
  1
DICTIONARYVAR
  2
AcDbDictionaryVar
  3
AutoCAD 2000
 90
        0
280
     0
281
     0
  0
ENDSEC
  0
SECTION
  2
TABLES
  0
TABLE
  2
VPORT
  5
2527
330
0
100
AcDbSymbolTable
 70
     9
  0
VPORT
  5
2B7C
330
2527
100
AcDbSymbolTableRecord
100
AcDbViewportTableRecord
  2
*Active
 70
     0
 10
0.0
 20
0.0
 11
1.0
 21
1.0
 12
216.568400718392
 22
110.3881848763253
 13
0.0
 23
0.0
 14
2.5
 24
2.5
 15
10.0
 25
10.0
 16
0.0
 26
0.0
 36
1.0
 17
0.0
 27
0.0
 37
0.0
 40
478.7125616852441
 41
1.182835820895522
 42
50.0
 43
0.0
 44
0.0
 50
0.0
 51
0.0
 71
     0
 72
   100
 73
     1
 74
     3
 75
     0
 76
     0
 77
     0
 78
     0
281
     0
 65
     1
110
0.0
120
0.0
130
0.0
111
1.0
121
0.0
131
0.0
112
0.0
122
1.0
132
0.0
 79
     0
146
0.0
  0
ENDTAB
  0
TABLE
  2
LTYPE
  5
2524
330
0
100
AcDbSymbolTable
 70
     4
  0
LTYPE
  5
2532
330
2524
100
AcDbSymbolTableRecord
100
AcDbLinetypeTableRecord
  2
ByBlock
 70
     0
  3

 72
    65
 73
     0
 40
0.0
  0
LTYPE
  5
2533
330
2524
100
AcDbSymbolTableRecord
100
AcDbLinetypeTableRecord
  2
ByLayer
 70
     0
  3

 72
    65
 73
     0
 40
0.0
  0
LTYPE
  5
2534
330
2524
100
AcDbSymbolTableRecord
100
AcDbLinetypeTableRecord
  2
CONTINUOUS
 70
     0
  3
Solid line
 72
    65
 73
     0
 40
0.0
  0
LTYPE
  5
2543
330
2524
100
AcDbSymbolTableRecord
100
AcDbLinetypeTableRecord
  2
CENTER
 70
     0
  3
Center ____ _ ____ _ ____ _ ____ _ ____ _ ____
 72
    65
 73
     4
 40
50.8
 49
31.75
 74
     0
 49
-6.349999999999997
 74
     0
 49
6.349999999999997
 74
     0
 49
-6.349999999999997
 74
     0
  0
LTYPE
  5
2544
330
2524
100
AcDbSymbolTableRecord
100
AcDbLinetypeTableRecord
  2
DIVIDE
 70
     0
  3
__ . . __ . . 
 72
    65
 73
     6
 40
12.66008188960572
 49
5.064032755842288
 74
     0
 49
-2.532016377921144
 74
     0
 49
0.0
 74
     0
 49
-2.532016377921144
 74
     0
 49
0.0
 74
     0
 49
-2.532016377921144
 74
     0
  0
LTYPE
  5
2545
330
2524
100
AcDbSymbolTableRecord
100
AcDbLinetypeTableRecord
  2
PHANTOM
 70
     0
  3
_____ _ _ _____ _ _ 
 72
    65
 73
     6
 40
25.32016377921144
 49
12.66008188960572
 74
     0
 49
-2.532016377921144
 74
     0
 49
2.532016377921144
 74
     0
 49
-2.532016377921144
 74
     0
 49
2.532016377921144
 74
     0
 49
-2.532016377921144
 74
     0
  0
ENDTAB
  0
TABLE
  2
LAYER
  5
2521
330
0
100
AcDbSymbolTable
 70
     5
  0
LAYER
  5
252F
330
2521
100
AcDbSymbolTableRecord
100
AcDbLayerTableRecord
  2
0
 70
     0
 62
     7
  6
CONTINUOUS
370
    -3
390
252E
  0
LAYER
  5
2541
330
2521
100
AcDbSymbolTableRecord
100
AcDbLayerTableRecord
  2
AM_0
 70
     0
 62
     7
  6
CONTINUOUS
370
    -3
390
252E
  0
LAYER
  5
2546
330
2521
100
AcDbSymbolTableRecord
100
AcDbLayerTableRecord
  2
1
 70
     0
 62
     7
  6
CONTINUOUS
370
    -3
390
252E
  0
LAYER
  5
2547
330
2521
100
AcDbSymbolTableRecord
100
AcDbLayerTableRecord
  2
2
 70
     0
 62
     7
  6
CONTINUOUS
370
    -3
390
252E
  0
LAYER
  5
2815
330
2521
100
AcDbSymbolTableRecord
100
AcDbLayerTableRecord
  2
LAYER_1
 70
     0
 62
     5
  6
CONTINUOUS
370
    -3
390
252E
  0
ENDTAB
  0
TABLE
  2
STYLE
  5
2522
330
0
100
AcDbSymbolTable
 70
     1
  0
STYLE
  5
2530
330
2522
100
AcDbSymbolTableRecord
100
AcDbTextStyleTableRecord
  2
STANDARD
 70
     0
 40
0.0
 41
1.0
 50
0.0
 71
     0
 42
2.5
  3
ISOCP.SHX
  4

  0
ENDTAB
  0
TABLE
  2
VIEW
  5
2525
330
0
100
AcDbSymbolTable
 70
     0
  0
ENDTAB
  0
TABLE
  2
UCS
  5
2526
330
0
100
AcDbSymbolTable
 70
     0
  0
ENDTAB
  0
TABLE
  2
APPID
  5
2528
330
0
100
AcDbSymbolTable
 70
    13
  0
APPID
  5
2531
330
2528
100
AcDbSymbolTableRecord
100
AcDbRegAppTableRecord
  2
ACAD
 70
     0
  0
APPID
  5
2548
330
2528
100
AcDbSymbolTableRecord
100
AcDbRegAppTableRecord
  2
GENIUS_GENDIM_13
 70
     0
  0
APPID
  5
2549
330
2528
100
AcDbSymbolTableRecord
100
AcDbRegAppTableRecord
  2
GENIUS_GENDTOL_13
 70
     0
  0
APPID
  5
254A
330
2528
100
AcDbSymbolTableRecord
100
AcDbRegAppTableRecord
  2
GENIUS_GE3DTOL_13
 70
     0
  0
APPID
  5
254B
330
2528
100
AcDbSymbolTableRecord
100
AcDbRegAppTableRecord
  2
MCAD_NO_VIS
 70
     0
  0
APPID
  5
254C
330
2528
100
AcDbSymbolTableRecord
100
AcDbRegAppTableRecord
  2
ACAD_TEMP_GRAPHIC
 70
     0
  0
APPID
  5
254D
330
2528
100
AcDbSymbolTableRecord
100
AcDbRegAppTableRecord
  2
AD_DRAW
 70
     0
  0
APPID
  5
254E
330
2528
100
AcDbSymbolTableRecord
100
AcDbRegAppTableRecord
  2
ACATTRIBSERVICES
 70
     0
  0
APPID
  5
254F
330
2528
100
AcDbSymbolTableRecord
100
AcDbRegAppTableRecord
  2
ASURF_PCURVE_APPNAME
 70
     0
  0
APPID
  5
2550
330
2528
100
AcDbSymbolTableRecord
100
AcDbRegAppTableRecord
  2
DESIGNERASSEMBLIES
 70
     0
  0
APPID
  5
2551
330
2528
100
AcDbSymbolTableRecord
100
AcDbRegAppTableRecord
  2
ACADM_DIM_EDIT
 70
     0
  0
APPID
  5
2552
330
2528
100
AcDbSymbolTableRecord
100
AcDbRegAppTableRecord
  2
G3V_ENTHND
 70
     0
  0
APPID
  5
2553
330
2528
100
AcDbSymbolTableRecord
100
AcDbRegAppTableRecord
  2
GENIUS_GENDIMSH_14
 70
     0
  0
ENDTAB
  0
TABLE
  2
DIMSTYLE
  5
2529
330
0
100
AcDbSymbolTable
 70
     2
100
AcDbDimStyleTable
 71
     0
  0
DIMSTYLE
105
2554
330
2529
100
AcDbSymbolTableRecord
100
AcDbDimStyleTableRecord
  2
ISO-25
 70
     0
 41
2.5
 42
0.625
 43
3.75
 44
1.25
 73
     0
 74
     0
 77
     1
 78
     8
140
2.5
141
2.5
143
0.03937007874016
147
0.625
171
     3
172
     1
271
     2
272
     2
274
     3
279
     2
284
     8
285
     8
286
     8
340
2530
  0
DIMSTYLE
105
2797
330
2529
100
AcDbSymbolTableRecord
100
AcDbDimStyleTableRecord
  2
Standard
 70
     0
340
2530
  0
ENDTAB
  0
TABLE
  2
BLOCK_RECORD
  5
2520
330
0
100
AcDbSymbolTable
 70
    21
  0
BLOCK_RECORD
  5
253D
330
2520
100
AcDbSymbolTableRecord
100
AcDbBlockTableRecord
  2
*Model_Space
340
2540
  0
BLOCK_RECORD
  5
2539
330
2520
100
AcDbSymbolTableRecord
100
AcDbBlockTableRecord
  2
*Paper_Space
340
253C
  0
BLOCK_RECORD
  5
2556
330
2520
100
AcDbSymbolTableRecord
100
AcDbBlockTableRecord
  2
$MODEL_SPACE
340
0
  0
BLOCK_RECORD
  5
2559
330
2520
100
AcDbSymbolTableRecord
100
AcDbBlockTableRecord
  2
$PAPER_SPACE
340
0
  0
BLOCK_RECORD
  5
2793
330
2520
100
AcDbSymbolTableRecord
100
AcDbBlockTableRecord
  2
Harmonic Drive LLC
340
0
310
2800000020000000200000000100080000000000000400000000000000000000000000000000000000000000000080000080000000808000800000008000800080800000C0C0C000C0DCC000F0CAA6000020400000206000002080000020A0000020C0000020E00000400000004020000040400000406000004080000040A0
310
000040C0000040E00000600000006020000060400000606000006080000060A0000060C0000060E00000800000008020000080400000806000008080000080A0000080C0000080E00000A0000000A0200000A0400000A0600000A0800000A0A00000A0C00000A0E00000C0000000C0200000C0400000C0600000C0800000C0
310
A00000C0C00000C0E00000E0000000E0200000E0400000E0600000E0800000E0A00000E0C00000E0E00040000000400020004000400040006000400080004000A0004000C0004000E00040200000402020004020400040206000402080004020A0004020C0004020E000404000004040200040404000404060004040800040
310
40A0004040C0004040E00040600000406020004060400040606000406080004060A0004060C0004060E00040800000408020004080400040806000408080004080A0004080C0004080E00040A0000040A0200040A0400040A0600040A0800040A0A00040A0C00040A0E00040C0000040C0200040C0400040C0600040C08000
310
40C0A00040C0C00040C0E00040E0000040E0200040E0400040E0600040E0800040E0A00040E0C00040E0E00080000000800020008000400080006000800080008000A0008000C0008000E00080200000802020008020400080206000802080008020A0008020C0008020E00080400000804020008040400080406000804080
310
008040A0008040C0008040E00080600000806020008060400080606000806080008060A0008060C0008060E00080800000808020008080400080806000808080008080A0008080C0008080E00080A0000080A0200080A0400080A0600080A0800080A0A00080A0C00080A0E00080C0000080C0200080C0400080C0600080C0
310
800080C0A00080C0C00080C0E00080E0000080E0200080E0400080E0600080E0800080E0A00080E0C00080E0E000C0000000C0002000C0004000C0006000C0008000C000A000C000C000C000E000C0200000C0202000C0204000C0206000C0208000C020A000C020C000C020E000C0400000C0402000C0404000C0406000C0
310
408000C040A000C040C000C040E000C0600000C0602000C0604000C0606000C0608000C060A000C060C000C060E000C0800000C0802000C0804000C0806000C0808000C080A000C080C000C080E000C0A00000C0A02000C0A04000C0A06000C0A08000C0A0A000C0A0C000C0A0E000C0C00000C0C02000C0C04000C0C06000
310
C0C08000C0C0A000F0FBFF00A4A0A000808080000000FF0000FF000000FFFF00FF000000FF00FF00FFFF0000FFFFFF00FFFFFFFFFFFFFFFFFFFFFFFFFFFFFFFFFFFFFFFFFFFFFFFFFFFFFFFFFFFFFFFFFFFFFFFFFFFFFFFFFFFFFFFFFFFFFFFFFFFFFFFFFFFFFFFFFFFFFFFFFFFFFFFFFFFFFFFFFFFFFFFFFFFFFFFFFFFFFF
310
FFFFFFFFFFFFFFFFFFFFFFFFFFFFFFFFFFFFFFFFFFFFFFFFFFFFFFFFFFFFFFFFFFFFFFFFFFFFFFFFFFFFFFFFFFFFFFFFFFFFFFFFFFFFFFFFFFFFFFFFFFFFFFFFFFFFFFFFFFFFFFFFFFFFFFFFFFFFFFFFFFFFFFFFFFFFFFFFFFFFFFFFFFFFFFFFFFFFFFFFFFFFFFFFFFFFFFFFFFFFFFFFFFFFFFFFFFFFFFFFFFFFFFFFFFFFFF
310
FFFFFFFFFFFFFFFFFFFFFFFFFFFFFFFFFFFFFFFFFFFFFFFFFFFFFFFFFFFFFFFFFFFFFFFFFFFFFFFFFFFFFFFFFFFFFFFFFFFFFFFFFFFFFFFFFFFFFFFFFFFFFFFFFFFFFFFFFFFFFFFFFFFFFFFFFFFFFFFFFFFFFFFFFFFFFFFFFFFFFFFFFFFFFFFFFFFFFFFFFFFFFFFFFFFFFFFFFFFFFFFFFFFFFFFFFFFFFFFFFFFFFFFFFFFFFF
310
FFFFFFFFFFFFFFFFFFFFFFFFFFFFFFFFFFFFFFFFFFFFFFFFFFFFFFFFFFFFFFFFFFFFFFFFFFFFFFFFFFFFFFFFFFFFFFFFFFFFFFFFFFFFFFFFFFFFFFFFFFFFFFFFFFFFFFFFFFFFFFFFFFFFFFFFFFFFFFFFFFFFFFFFFFFFFFFFFFFFFFFFFFFFFFFFFFFFFFFFFFFFFFFFFFFFFFFFFFFFFFFFFFFFFFFF0000000000000000000000
310
0000000000FFFFFFFFFFFFFFFFFFFFFFFFFFFFFFFF0000000000000000000000FFFFFFFFFFFFFFFFFFFFFFFFFFFFFFFFFFFFFFFFFF000000FF00000000000000FFFFFFFFFFFFFFFFFFFFFFFFFFFFFFFFFFFFFFFFFF00000000000000000000000000000000FFFFFFFFFFFFFFFFFFFFFFFFFFFFFFFFFFFFFFFFFFFFFFFFFFFF
310
FFFFFFFFFFFFFFFFFFFFFFFFFFFFFFFFFFFFFFFFFFFFFFFFFFFFFFFFFFFFFFFFFFFFFFFFFFFFFFFFFFFFFFFFFFFFFFFFFFFFFFFFFFFFFFFFFFFFFFFFFFFFFFFFFFFFFFFFFFFFFFFFFFFFFFFFFFFFFFFFFFFFFFFFFFFFFFFFFFFFFFFFFFFFFFFFFFFFFFFFFFFFFFFFFFFFFFFFFFFFFFFFFFFFFFFFFFFFFFFFFFFFFFFFFFFFFF
310
FFFFFFFFFFFFFFFFFFFFFFFFFFFFFFFFFFFFFFFFFFFFFFFFFFFFFFFFFFFFFFFFFFFFFFFFFFFFFFFFFFFFFFFFFFFFFFFFFFFFFFFFFFFFFFFFFFFFFFFFFFFFFFFFFFFFFFFFFFFFFFFFFFFFFFFFFFFFFFFFFFFFFFFFFFFFFFFFFFFFFFFFFFFFFFFFFFFFFFFFFFFFFFFFFFFFFFFFFFFFFFFFFFFFFFFFFFFFFFFFFFFFFFFFFFFFFF
310
FFFFFFFFFFFFFFFFFFFFFFFFFFFFFFFFFFFFFFFFFFFFFFFFFFFFFFFFFFFFFFFFFFFFFFFFFFFFFFFFFFFFFFFFFFFFFFFFFFFFFFFFFFFFFFFFFFFFFFFFFFFFFFFFFFFFFFFFFFFFFFFFFFFFFFFFFFFFFFFFFFFFFFFFFFFFFFFFFFFFFFFFFFFFFFFFFFFFFFFFFFFFFFFFFFFFFFFFFFFFFFFFFFFFFFFFFFFFFFFFFFFFFFFFFFFFFF
310
FFFFFFFFFFFFFFFFFFFFFFFFFFFFFFFFFFFFFFFFFFFFFFFFFFFFFFFFFFFFFFFFFFFFFFFFFFFFFFFFFFFFFFFFFFFFFFFFFFFFFFFFFFFFFFFF
102
{BLKREFS
331
279D
102
}
  0
BLOCK_RECORD
  5
27A9
330
2520
100
AcDbSymbolTableRecord
100
AcDbBlockTableRecord
  2
AI9-BLK14
340
0
310
2800000020000000200000000100080000000000000400000000000000000000000000000000000000000000000080000080000000808000800000008000800080800000C0C0C000C0DCC000F0CAA6000020400000206000002080000020A0000020C0000020E00000400000004020000040400000406000004080000040A0
310
000040C0000040E00000600000006020000060400000606000006080000060A0000060C0000060E00000800000008020000080400000806000008080000080A0000080C0000080E00000A0000000A0200000A0400000A0600000A0800000A0A00000A0C00000A0E00000C0000000C0200000C0400000C0600000C0800000C0
310
A00000C0C00000C0E00000E0000000E0200000E0400000E0600000E0800000E0A00000E0C00000E0E00040000000400020004000400040006000400080004000A0004000C0004000E00040200000402020004020400040206000402080004020A0004020C0004020E000404000004040200040404000404060004040800040
310
40A0004040C0004040E00040600000406020004060400040606000406080004060A0004060C0004060E00040800000408020004080400040806000408080004080A0004080C0004080E00040A0000040A0200040A0400040A0600040A0800040A0A00040A0C00040A0E00040C0000040C0200040C0400040C0600040C08000
310
40C0A00040C0C00040C0E00040E0000040E0200040E0400040E0600040E0800040E0A00040E0C00040E0E00080000000800020008000400080006000800080008000A0008000C0008000E00080200000802020008020400080206000802080008020A0008020C0008020E00080400000804020008040400080406000804080
310
008040A0008040C0008040E00080600000806020008060400080606000806080008060A0008060C0008060E00080800000808020008080400080806000808080008080A0008080C0008080E00080A0000080A0200080A0400080A0600080A0800080A0A00080A0C00080A0E00080C0000080C0200080C0400080C0600080C0
310
800080C0A00080C0C00080C0E00080E0000080E0200080E0400080E0600080E0800080E0A00080E0C00080E0E000C0000000C0002000C0004000C0006000C0008000C000A000C000C000C000E000C0200000C0202000C0204000C0206000C0208000C020A000C020C000C020E000C0400000C0402000C0404000C0406000C0
310
408000C040A000C040C000C040E000C0600000C0602000C0604000C0606000C0608000C060A000C060C000C060E000C0800000C0802000C0804000C0806000C0808000C080A000C080C000C080E000C0A00000C0A02000C0A04000C0A06000C0A08000C0A0A000C0A0C000C0A0E000C0C00000C0C02000C0C04000C0C06000
310
C0C08000C0C0A000F0FBFF00A4A0A000808080000000FF0000FF000000FFFF00FF000000FF00FF00FFFF0000FFFFFF00FF00FFFFFFFF00FFFFFFFFFFFFFFFFFFFFFFFFFFFFFFFFFFFFFFFFFFFFFFFFFFFF00FFFFFFFF00FFFFFFFFFFFFFFFFFFFFFFFFFFFFFFFFFFFFFFFFFFFFFFFFFFFF00FFFFFFFF00FFFFFFFFFFFFFFFF
310
FFFFFFFFFFFFFFFFFFFFFFFFFFFFFFFFFFFF00FFFFFFFF00FFFFFFFFFFFFFFFFFFFFFFFFFFFFFFFFFFFFFFFFFFFFFFFFFFFF00FFFFFFFF00FFFFFFFFFFFFFFFFFFFFFFFFFFFFFFFFFFFFFFFFFFFFFFFFFFFF00FFFFFFFF00FFFFFFFFFFFFFFFFFFFFFFFFFFFFFFFFFFFFFFFFFFFFFFFFFFFF00FFFFFFFF00FFFFFFFFFFFFFF
310
FFFFFFFFFFFFFFFFFFFFFFFFFFFFFFFFFFFFFF00FFFFFFFF00FFFFFFFFFFFFFFFFFFFFFFFFFFFFFFFFFFFFFFFFFFFFFFFFFFFF00FFFFFFFF00FFFFFFFFFFFFFFFFFFFFFFFFFFFFFFFFFFFFFFFFFFFFFFFFFFFF00FFFFFFFF00FFFFFFFFFFFFFFFFFFFFFFFFFFFFFFFFFFFFFFFFFFFFFFFFFFFF00FFFFFFFF00FFFFFFFFFFFF
310
FFFFFFFFFFFFFFFFFFFFFFFFFFFFFFFFFFFFFFFF00FFFFFFFF00FFFFFFFFFFFFFFFFFFFFFFFFFFFFFFFFFFFFFFFFFFFFFFFFFFFF00FFFFFFFF00FFFFFFFFFFFFFFFFFFFFFFFFFFFFFFFFFFFFFFFFFFFFFFFFFFFF00FFFFFFFF0000000000000000000000000000000000000000000000000000FF00FFFFFFFFFFFFFFFFFFFF
310
FFFFFFFFFFFFFFFFFFFFFFFFFFFFFFFFFFFFFFFFFF00FFFFFFFFFFFFFFFFFFFFFFFFFFFFFFFFFFFFFFFFFFFFFFFFFFFFFFFFFFFFFF00FFFFFFFFFFFFFFFFFFFFFFFFFFFFFFFFFFFFFFFFFFFFFFFFFFFFFFFFFFFFFF00FFFFFFFFFFFFFFFFFFFFFFFFFFFFFFFFFFFFFFFFFFFFFFFFFFFFFFFFFF00FF00000000000000000000
310
0000000000000000000000000000000000000000FFFFFFFFFFFFFFFFFFFFFFFFFFFFFFFFFFFFFFFFFFFFFFFFFFFFFFFFFFFFFFFFFFFFFFFFFFFFFFFFFFFFFFFFFFFFFFFFFFFFFFFFFFFFFFFFFFFFFFFFFFFFFFFFFFFFFFFFFFFFFFFFFFFFFFFFFFFFFFFFFFFFFFFFFFFFFFFFFFFFFFFFFFFFFFFFFFFFFFFFFFFFFFFFFFFFFF
310
FFFFFFFFFFFFFFFFFFFFFFFFFFFFFFFFFFFFFFFFFFFFFFFFFFFFFFFFFFFFFFFFFFFFFFFFFFFFFFFFFFFFFFFFFFFFFFFFFFFFFFFFFFFFFFFFFFFFFFFFFFFFFFFFFFFFFFFFFFFFFFFFFFFFFFFFFFFFFFFFFFFFFFFFFFFFFFFFFFFFFFFFFFFFFFFFFFFFFFFFFFFFFFFFFFFFFFFFFFFFFFFFFFFFFFFFFFFFFFFFFFFFFFFFFFFFFF
310
FFFFFFFFFFFFFFFFFFFFFFFFFFFFFFFFFFFFFFFFFFFFFFFFFFFFFFFFFFFFFFFFFFFFFFFFFFFFFFFFFFFFFFFFFFFFFFFFFFFFFFFFFFFFFFFFFFFFFFFFFFFFFFFFFFFFFFFFFFFFFFFFFFFFFFFFFFFFFFFFFFFFFFFFFFFFFFFFFFFFFFFFFFFFFFFFFFFFFFFFFFFFFFFFFFFFFFFFFFFFFFFFFFFFFFFFFFFFFFFFFFFFFFFFFFFFFF
310
FFFFFFFFFFFFFFFFFFFFFFFFFFFFFFFFFFFFFFFFFFFFFFFFFFFFFFFFFFFFFFFFFFFFFFFFFFFFFFFFFFFFFFFFFFFFFFFFFFFFFFFFFFFFFFFF
102
{BLKREFS
331
27EA
102
}
  0
BLOCK_RECORD
  5
27AE
330
2520
100
AcDbSymbolTableRecord
100
AcDbBlockTableRecord
  2
AI9-BLK13
340
0
310
2800000020000000200000000100080000000000000400000000000000000000000000000000000000000000000080000080000000808000800000008000800080800000C0C0C000C0DCC000F0CAA6000020400000206000002080000020A0000020C0000020E00000400000004020000040400000406000004080000040A0
310
000040C0000040E00000600000006020000060400000606000006080000060A0000060C0000060E00000800000008020000080400000806000008080000080A0000080C0000080E00000A0000000A0200000A0400000A0600000A0800000A0A00000A0C00000A0E00000C0000000C0200000C0400000C0600000C0800000C0
310
A00000C0C00000C0E00000E0000000E0200000E0400000E0600000E0800000E0A00000E0C00000E0E00040000000400020004000400040006000400080004000A0004000C0004000E00040200000402020004020400040206000402080004020A0004020C0004020E000404000004040200040404000404060004040800040
310
40A0004040C0004040E00040600000406020004060400040606000406080004060A0004060C0004060E00040800000408020004080400040806000408080004080A0004080C0004080E00040A0000040A0200040A0400040A0600040A0800040A0A00040A0C00040A0E00040C0000040C0200040C0400040C0600040C08000
310
40C0A00040C0C00040C0E00040E0000040E0200040E0400040E0600040E0800040E0A00040E0C00040E0E00080000000800020008000400080006000800080008000A0008000C0008000E00080200000802020008020400080206000802080008020A0008020C0008020E00080400000804020008040400080406000804080
310
008040A0008040C0008040E00080600000806020008060400080606000806080008060A0008060C0008060E00080800000808020008080400080806000808080008080A0008080C0008080E00080A0000080A0200080A0400080A0600080A0800080A0A00080A0C00080A0E00080C0000080C0200080C0400080C0600080C0
310
800080C0A00080C0C00080C0E00080E0000080E0200080E0400080E0600080E0800080E0A00080E0C00080E0E000C0000000C0002000C0004000C0006000C0008000C000A000C000C000C000E000C0200000C0202000C0204000C0206000C0208000C020A000C020C000C020E000C0400000C0402000C0404000C0406000C0
310
408000C040A000C040C000C040E000C0600000C0602000C0604000C0606000C0608000C060A000C060C000C060E000C0800000C0802000C0804000C0806000C0808000C080A000C080C000C080E000C0A00000C0A02000C0A04000C0A06000C0A08000C0A0A000C0A0C000C0A0E000C0C00000C0C02000C0C04000C0C06000
310
C0C08000C0C0A000F0FBFF00A4A0A000808080000000FF0000FF000000FFFF00FF000000FF00FF00FFFF0000FFFFFF00FFFFFFFFFFFFFFFFFFFFFFFFFFFFFFFFFFFFFFFFFFFFFFFFFFFFFFFFFFFFFFFFFFFFFFFFFFFFFFFFFFFFFF0000FFFFFFFFFFFF0000FFFFFFFFFFFFFFFFFFFFFFFFFFFFFFFFFFFFFFFFFFFF0000FFFF
310
FFFFFFFF0000FFFFFFFFFFFFFFFFFFFFFFFFFFFFFFFFFFFFFFFFFFFF0000FFFFFFFFFFFF0000FFFFFFFFFFFFFFFFFFFFFFFFFFFFFFFFFFFFFFFFFFFF0000FFFFFFFFFFFF0000FFFFFFFFFFFFFFFFFFFFFFFFFFFFFFFFFFFFFFFFFFFF0000FFFFFFFFFFFF0000FFFFFFFFFFFFFFFFFFFFFFFFFFFFFFFFFFFFFFFFFFFF0000FF
310
FFFFFFFFFF0000FFFFFFFFFFFFFFFFFFFFFFFFFFFFFFFFFFFFFFFFFFFF0000FFFFFFFFFFFF0000FFFFFFFFFFFFFFFFFFFFFFFFFFFFFFFFFFFFFFFFFFFF0000FFFFFFFFFFFF0000FFFFFFFFFFFFFFFFFFFFFFFFFFFFFFFFFFFFFFFFFFFF0000FFFFFFFFFFFF0000FFFFFFFFFFFFFFFFFFFFFFFFFFFFFFFFFFFFFFFFFFFF0000
310
FFFFFFFFFFFF0000FFFFFFFFFFFFFFFFFFFFFFFFFFFFFFFFFFFFFFFFFFFF0000FFFFFFFFFFFF0000FFFFFFFFFFFFFFFFFFFFFFFFFFFFFFFFFFFFFFFFFFFF0000FFFFFFFFFFFF0000FFFFFFFFFFFFFFFFFFFFFFFFFFFFFFFFFFFFFFFFFFFF0000FFFFFFFFFFFF0000FFFFFFFFFFFFFFFFFFFFFFFFFFFFFFFFFFFFFFFFFFFF00
310
00FFFFFFFFFFFF0000FFFFFFFFFFFFFFFFFFFFFFFFFFFFFFFFFFFFFFFFFFFF00000000000000000000FFFFFFFFFFFFFFFFFFFFFFFFFFFFFFFFFFFFFFFFFFFF00FFFFFFFFFFFFFFFF00FFFFFFFFFFFFFFFFFFFFFFFFFFFFFFFFFFFFFFFFFFFF00FFFFFFFFFFFFFFFF00FFFFFFFFFFFFFFFFFFFFFFFFFFFFFFFFFFFFFFFFFFFF
310
00000000000000000000FFFFFFFFFFFFFFFFFFFFFFFFFFFFFFFFFFFFFFFFFFFF0000FFFFFFFFFFFF0000FFFFFFFFFFFFFFFFFFFFFFFFFFFFFFFFFFFFFFFFFFFF0000FFFFFFFFFFFF0000FFFFFFFFFFFFFFFFFFFFFFFFFFFFFFFFFFFFFFFFFFFF0000FFFFFFFFFFFF0000FFFFFFFFFFFFFFFFFFFFFFFFFFFFFFFFFFFFFFFFFF
310
FF0000FFFFFFFFFFFF0000FFFFFFFFFFFFFFFFFFFFFFFFFFFFFFFFFFFFFFFFFFFF0000FFFFFFFFFFFF0000FFFFFFFFFFFFFFFFFFFFFFFFFFFFFFFFFFFFFFFFFFFF0000FFFFFFFFFFFF0000FFFFFFFFFFFFFFFFFFFFFFFFFFFFFFFFFFFFFFFFFFFF0000FFFFFFFFFFFF0000FFFFFFFFFFFFFFFFFFFFFFFFFFFFFFFFFFFFFFFF
310
FFFF0000FFFFFFFFFFFF0000FFFFFFFFFFFFFFFFFFFFFFFFFFFFFFFFFFFFFFFFFFFF0000FFFFFFFFFFFF0000FFFFFFFFFFFFFFFFFFFFFFFFFFFFFFFFFFFFFFFFFFFF0000FFFFFFFFFFFF0000FFFFFFFFFFFFFFFFFFFFFFFFFFFFFFFFFFFFFFFFFFFF0000FFFFFFFFFFFF0000FFFFFFFFFFFFFFFFFFFFFFFFFFFFFFFFFFFFFF
310
FFFFFF0000FFFFFFFFFFFF0000FFFFFFFFFFFFFFFFFFFFFFFFFFFFFFFFFFFFFFFFFFFFFFFFFFFFFFFFFFFFFFFFFFFFFFFFFFFFFFFFFFFFFF
102
{BLKREFS
331
27EB
102
}
  0
BLOCK_RECORD
  5
27B3
330
2520
100
AcDbSymbolTableRecord
100
AcDbBlockTableRecord
  2
AI9-BLK11
340
0
310
2800000020000000200000000100080000000000000400000000000000000000000000000000000000000000000080000080000000808000800000008000800080800000C0C0C000C0DCC000F0CAA6000020400000206000002080000020A0000020C0000020E00000400000004020000040400000406000004080000040A0
310
000040C0000040E00000600000006020000060400000606000006080000060A0000060C0000060E00000800000008020000080400000806000008080000080A0000080C0000080E00000A0000000A0200000A0400000A0600000A0800000A0A00000A0C00000A0E00000C0000000C0200000C0400000C0600000C0800000C0
310
A00000C0C00000C0E00000E0000000E0200000E0400000E0600000E0800000E0A00000E0C00000E0E00040000000400020004000400040006000400080004000A0004000C0004000E00040200000402020004020400040206000402080004020A0004020C0004020E000404000004040200040404000404060004040800040
310
40A0004040C0004040E00040600000406020004060400040606000406080004060A0004060C0004060E00040800000408020004080400040806000408080004080A0004080C0004080E00040A0000040A0200040A0400040A0600040A0800040A0A00040A0C00040A0E00040C0000040C0200040C0400040C0600040C08000
310
40C0A00040C0C00040C0E00040E0000040E0200040E0400040E0600040E0800040E0A00040E0C00040E0E00080000000800020008000400080006000800080008000A0008000C0008000E00080200000802020008020400080206000802080008020A0008020C0008020E00080400000804020008040400080406000804080
310
008040A0008040C0008040E00080600000806020008060400080606000806080008060A0008060C0008060E00080800000808020008080400080806000808080008080A0008080C0008080E00080A0000080A0200080A0400080A0600080A0800080A0A00080A0C00080A0E00080C0000080C0200080C0400080C0600080C0
310
800080C0A00080C0C00080C0E00080E0000080E0200080E0400080E0600080E0800080E0A00080E0C00080E0E000C0000000C0002000C0004000C0006000C0008000C000A000C000C000C000E000C0200000C0202000C0204000C0206000C0208000C020A000C020C000C020E000C0400000C0402000C0404000C0406000C0
310
408000C040A000C040C000C040E000C0600000C0602000C0604000C0606000C0608000C060A000C060C000C060E000C0800000C0802000C0804000C0806000C0808000C080A000C080C000C080E000C0A00000C0A02000C0A04000C0A06000C0A08000C0A0A000C0A0C000C0A0E000C0C00000C0C02000C0C04000C0C06000
310
C0C08000C0C0A000F0FBFF00A4A0A000808080000000FF0000FF000000FFFF00FF000000FF00FF00FFFF0000FFFFFF00FFFFFFFFFFFFFFFFFFFFFFFFFFFFFFFFFFFFFFFFFFFFFFFFFFFFFFFFFFFFFFFFFFFFFFFFFFFFFFFFFFFFFFFFFFFF00000000FFFFFFFFFFFFFFFFFFFFFF000000FFFFFFFFFFFFFFFFFFFFFFFFFFFF00
310
FFFF00FFFFFFFFFFFFFFFFFFFFFF00FFFFFFFFFFFFFFFFFFFFFFFFFFFFFFFF00FFFF00FFFFFFFFFFFFFFFFFFFFFF00FFFFFFFFFFFFFFFFFFFFFFFFFFFFFFFF00FFFF00FFFFFFFFFFFFFFFFFFFFFF00FFFFFFFFFFFFFFFFFFFFFFFFFFFFFFFF00FFFF00FFFFFFFFFFFFFFFFFFFFFF00FFFFFFFFFFFFFFFFFFFFFFFFFFFFFFFF
310
00FFFF00FFFFFFFFFFFFFFFFFFFFFF00FFFFFFFFFFFFFFFFFFFFFFFFFFFFFFFF00FFFF00FFFFFFFFFFFFFFFFFFFFFF00FFFFFFFFFFFFFFFFFFFFFFFFFFFFFFFF00FFFF00FFFFFFFFFFFFFFFFFFFFFF00FFFFFFFFFFFFFFFFFFFFFFFFFFFFFFFF00FFFF00FFFFFFFFFFFFFFFFFFFFFF00FFFFFFFFFFFFFFFFFFFFFFFFFFFFFF
310
FF00FFFF00FFFFFFFFFFFFFFFFFFFFFF00FFFFFFFFFFFFFFFFFFFFFFFFFFFFFFFF00FFFF00FFFFFFFFFFFFFFFFFFFFFF00FFFFFFFFFFFFFFFFFFFFFFFFFFFFFFFF00FFFF00FFFFFFFFFFFFFFFFFFFFFF00FFFFFFFFFFFFFFFFFFFFFFFFFFFFFFFF00FFFF00FFFFFFFFFFFFFFFFFFFFFF00FFFFFFFFFFFFFFFFFFFFFFFFFFFF
310
FFFF00FFFF00FFFFFFFFFFFFFFFFFFFFFF00FFFFFFFFFFFFFFFFFFFFFFFFFFFFFFFF00FFFF00FFFFFFFFFFFFFFFFFFFFFF00FFFFFFFFFFFFFFFFFFFFFFFFFFFFFFFF00FFFF00FFFFFFFFFFFFFFFFFFFFFF00FFFFFFFFFFFFFFFFFFFFFFFFFFFFFFFF00FFFF00FFFFFFFFFFFFFFFFFFFF00FFFFFFFFFFFFFFFFFFFFFFFFFFFF
310
FFFFFF00FFFF00FFFFFFFFFFFFFFFFFFFF00FFFFFFFFFFFFFFFFFFFFFFFFFFFFFFFFFF00FFFF00FFFFFFFFFFFFFFFFFFFF00FFFFFFFFFFFFFFFFFFFFFFFFFFFFFFFFFF00FFFF00FFFFFFFFFFFFFFFFFFFF00FFFFFFFFFFFFFFFFFFFFFFFFFFFFFFFFFF00FFFF00FFFFFFFFFFFFFFFFFFFF00FFFFFFFFFFFFFFFFFFFFFFFFFF
310
FFFFFFFF00FFFF00FFFFFFFFFFFFFFFFFF0000FFFF00FFFFFFFFFFFFFFFFFFFFFFFFFFFF00FFFF00FFFFFFFFFFFFFFFF0000FFFFFF00FFFFFFFFFFFFFFFFFFFFFFFFFFFF00FFFF00000000000000000000FFFFFFFF00FFFFFFFFFFFFFFFFFFFFFFFFFFFF00FFFFFFFFFFFFFFFFFFFFFFFFFFFFFF00FFFFFFFFFFFFFFFFFFFF
310
FFFFFFFFFF00FFFFFFFFFFFFFFFFFFFFFFFFFFFF00FFFFFFFFFFFFFFFFFFFFFFFFFFFFFFFF00FFFFFFFFFFFFFFFFFFFFFFFFFFFF00FFFFFFFFFFFFFFFFFFFFFFFFFFFFFFFF00FFFFFFFFFFFFFFFFFFFFFFFFFFFFFF00FFFFFFFFFFFFFFFFFFFFFFFFFFFFFF00FFFFFFFFFFFFFFFFFFFFFFFFFFFFFF00FFFFFFFFFFFFFFFFFF
310
FFFFFFFFFFFF00FFFF00000000000000000000FFFFFFFF00FFFFFFFFFFFFFFFFFFFFFFFFFFFF00FFFF00FFFFFFFFFFFFFFFFFF0000FFFF00
102
{BLKREFS
331
27EC
102
}
  0
BLOCK_RECORD
  5
27B8
330
2520
100
AcDbSymbolTableRecord
100
AcDbBlockTableRecord
  2
AI9-BLK10
340
0
310
2800000020000000200000000100080000000000000400000000000000000000000000000000000000000000000080000080000000808000800000008000800080800000C0C0C000C0DCC000F0CAA6000020400000206000002080000020A0000020C0000020E00000400000004020000040400000406000004080000040A0
310
000040C0000040E00000600000006020000060400000606000006080000060A0000060C0000060E00000800000008020000080400000806000008080000080A0000080C0000080E00000A0000000A0200000A0400000A0600000A0800000A0A00000A0C00000A0E00000C0000000C0200000C0400000C0600000C0800000C0
310
A00000C0C00000C0E00000E0000000E0200000E0400000E0600000E0800000E0A00000E0C00000E0E00040000000400020004000400040006000400080004000A0004000C0004000E00040200000402020004020400040206000402080004020A0004020C0004020E000404000004040200040404000404060004040800040
310
40A0004040C0004040E00040600000406020004060400040606000406080004060A0004060C0004060E00040800000408020004080400040806000408080004080A0004080C0004080E00040A0000040A0200040A0400040A0600040A0800040A0A00040A0C00040A0E00040C0000040C0200040C0400040C0600040C08000
310
40C0A00040C0C00040C0E00040E0000040E0200040E0400040E0600040E0800040E0A00040E0C00040E0E00080000000800020008000400080006000800080008000A0008000C0008000E00080200000802020008020400080206000802080008020A0008020C0008020E00080400000804020008040400080406000804080
310
008040A0008040C0008040E00080600000806020008060400080606000806080008060A0008060C0008060E00080800000808020008080400080806000808080008080A0008080C0008080E00080A0000080A0200080A0400080A0600080A0800080A0A00080A0C00080A0E00080C0000080C0200080C0400080C0600080C0
310
800080C0A00080C0C00080C0E00080E0000080E0200080E0400080E0600080E0800080E0A00080E0C00080E0E000C0000000C0002000C0004000C0006000C0008000C000A000C000C000C000E000C0200000C0202000C0204000C0206000C0208000C020A000C020C000C020E000C0400000C0402000C0404000C0406000C0
310
408000C040A000C040C000C040E000C0600000C0602000C0604000C0606000C0608000C060A000C060C000C060E000C0800000C0802000C0804000C0806000C0808000C080A000C080C000C080E000C0A00000C0A02000C0A04000C0A06000C0A08000C0A0A000C0A0C000C0A0E000C0C00000C0C02000C0C04000C0C06000
310
C0C08000C0C0A000F0FBFF00A4A0A000808080000000FF0000FF000000FFFF00FF000000FF00FF00FFFF0000FFFFFF00FFFFFFFFFFFFFFFFFFFFFFFFFFFFFFFF00FFFFFFFFFFFFFFFFFFFFFFFF00FFFFFFFFFFFFFFFFFFFFFFFFFFFFFFFFFFFF00FFFFFFFFFFFFFFFFFFFFFF00FFFFFFFFFFFFFFFFFFFFFFFFFFFFFFFFFFFF
310
FF00FFFFFFFFFFFFFFFFFFFFFF00FFFFFFFFFFFFFFFFFFFFFFFFFFFFFFFFFFFFFF00FFFFFFFFFFFFFFFFFFFFFF00FFFFFFFFFFFFFFFFFFFFFFFFFFFFFFFFFFFFFF00FFFFFFFFFFFFFFFFFFFFFF00FFFFFFFFFFFFFFFFFFFFFFFFFFFFFFFFFFFFFF00FFFFFFFFFFFFFFFFFFFFFF00FFFFFFFFFFFFFFFFFFFFFFFFFFFFFFFFFF
310
FFFF00FFFFFFFFFFFFFFFFFFFFFF00FFFFFFFFFFFFFFFFFFFFFFFFFFFFFFFFFFFFFF00FFFFFFFFFFFFFFFFFFFF00FFFFFFFFFFFFFFFFFFFFFFFFFFFFFFFFFFFFFFFF00FFFFFFFFFFFFFFFFFFFF00FFFFFFFFFFFFFFFFFFFFFFFFFFFFFFFFFFFFFFFF00FFFFFFFFFFFFFFFFFFFF00FFFFFFFFFFFFFFFFFFFFFFFFFFFFFFFFFF
310
FFFFFF00FFFFFFFFFFFFFFFFFFFF00FFFFFFFFFFFFFFFFFFFFFFFFFFFFFFFFFFFFFFFF00FFFFFFFFFFFFFFFFFFFF00FFFFFFFFFFFFFFFFFFFFFFFFFFFFFFFFFFFFFFFF00FFFFFFFFFFFFFFFFFFFF00FFFFFFFFFFFFFFFFFFFFFFFFFFFFFFFFFFFFFFFF00FFFFFFFFFFFFFFFFFF00FFFFFFFFFFFFFFFFFFFFFFFFFFFFFFFFFF
310
FFFFFFFF00FFFFFFFFFFFFFFFFFF00FFFFFFFFFFFFFFFFFFFFFFFFFFFFFFFFFFFFFFFFFF00FFFFFFFFFFFFFFFFFF00FFFFFFFFFFFFFFFFFFFFFFFFFFFFFFFFFFFFFFFFFF0000000000000000000000FFFFFFFFFFFFFFFFFFFFFFFFFFFFFFFFFFFFFFFFFFFFFFFFFFFFFFFFFFFFFFFFFFFFFFFFFFFFFFFFFFFFFFFFFFFFFFFF
310
FFFFFFFFFFFFFFFFFFFFFFFFFFFFFFFFFFFFFFFFFFFFFFFFFFFFFFFFFFFFFFFFFFFFFFFFFFFFFFFFFFFFFFFFFFFFFFFFFFFFFFFFFFFFFFFFFFFFFFFFFFFFFFFFFFFFFFFFFFFFFFFFFFFFFFFFFFFFFFFFFFFFFFFFFFFFFFFFFFFFFFFFFFFFFFFFFFFFFFFFFFFFFFFFFFFFFFFFFFFFFFFFFFFFFFFFFFFFFFFFFFFFFFFFFFFFFF
310
FFFFFFFFFFFFFFFFFFFFFFFFFFFFFFFFFFFFFFFFFFFFFFFFFFFFFFFFFFFFFFFFFFFFFFFFFFFFFFFFFFFFFFFFFFFFFFFFFFFFFFFFFFFFFFFFFFFFFFFFFFFFFFFFFFFFFFFFFFFFFFFFFFFFFFFFFFFFFFFFFFFFFFFFFFFFFFFFFFFFFFFFFFFFFFFFFFFFFFFFFFFFFFFFFFFFFFFFFFFFFFFFFFFFFFFFFFFFFFFFFFFFFFFFFFFFFF
310
FFFFFFFFFFFFFFFFFFFFFFFFFFFFFFFFFFFFFFFFFFFFFFFFFFFFFFFFFFFFFFFFFFFFFFFFFFFFFFFFFFFFFFFFFFFFFFFFFFFFFFFFFFFFFFFFFFFFFFFFFFFFFFFFFFFFFFFFFFFFFFFFFFFFFFFFFFFFFFFFFFFFFFFFFFFFFFFFFFFFFFFFFFFFFFFFFFFFFFFFFFFFFFFFFFFFFFFFFFFFFFFFFFFFFFFFFFFFFFFFFFFFFFFFFFFFFF
310
FFFFFFFFFFFFFFFFFFFFFFFFFFFFFFFFFFFFFFFFFFFFFFFFFFFFFFFFFFFFFFFFFFFFFFFFFFFFFFFFFFFFFFFFFFFFFFFFFFFFFFFFFFFFFFFF
102
{BLKREFS
331
27ED
102
}
  0
BLOCK_RECORD
  5
27BC
330
2520
100
AcDbSymbolTableRecord
100
AcDbBlockTableRecord
  2
AI9-BLK9
340
0
310
2800000020000000200000000100080000000000000400000000000000000000000000000000000000000000000080000080000000808000800000008000800080800000C0C0C000C0DCC000F0CAA6000020400000206000002080000020A0000020C0000020E00000400000004020000040400000406000004080000040A0
310
000040C0000040E00000600000006020000060400000606000006080000060A0000060C0000060E00000800000008020000080400000806000008080000080A0000080C0000080E00000A0000000A0200000A0400000A0600000A0800000A0A00000A0C00000A0E00000C0000000C0200000C0400000C0600000C0800000C0
310
A00000C0C00000C0E00000E0000000E0200000E0400000E0600000E0800000E0A00000E0C00000E0E00040000000400020004000400040006000400080004000A0004000C0004000E00040200000402020004020400040206000402080004020A0004020C0004020E000404000004040200040404000404060004040800040
310
40A0004040C0004040E00040600000406020004060400040606000406080004060A0004060C0004060E00040800000408020004080400040806000408080004080A0004080C0004080E00040A0000040A0200040A0400040A0600040A0800040A0A00040A0C00040A0E00040C0000040C0200040C0400040C0600040C08000
310
40C0A00040C0C00040C0E00040E0000040E0200040E0400040E0600040E0800040E0A00040E0C00040E0E00080000000800020008000400080006000800080008000A0008000C0008000E00080200000802020008020400080206000802080008020A0008020C0008020E00080400000804020008040400080406000804080
310
008040A0008040C0008040E00080600000806020008060400080606000806080008060A0008060C0008060E00080800000808020008080400080806000808080008080A0008080C0008080E00080A0000080A0200080A0400080A0600080A0800080A0A00080A0C00080A0E00080C0000080C0200080C0400080C0600080C0
310
800080C0A00080C0C00080C0E00080E0000080E0200080E0400080E0600080E0800080E0A00080E0C00080E0E000C0000000C0002000C0004000C0006000C0008000C000A000C000C000C000E000C0200000C0202000C0204000C0206000C0208000C020A000C020C000C020E000C0400000C0402000C0404000C0406000C0
310
408000C040A000C040C000C040E000C0600000C0602000C0604000C0606000C0608000C060A000C060C000C060E000C0800000C0802000C0804000C0806000C0808000C080A000C080C000C080E000C0A00000C0A02000C0A04000C0A06000C0A08000C0A0A000C0A0C000C0A0E000C0C00000C0C02000C0C04000C0C06000
310
C0C08000C0C0A000F0FBFF00A4A0A000808080000000FF0000FF000000FFFF00FF000000FF00FF00FFFF0000FFFFFF00FFFFFFFFFFFFFFFFFFFFFFFFFFFFFFFFFFFFFFFFFFFFFFFFFFFFFFFFFFFFFFFFFFFFFFFFFFFFFFFFFFFFFFFFFFFFFF0000FFFFFFFFFFFFFFFFFFFFFFFFFFFFFFFFFFFFFFFFFFFFFFFFFFFFFFFF0000
310
FF0000FFFFFFFFFFFFFFFFFFFFFFFFFFFFFFFFFFFFFFFFFFFFFFFFFFFFFF00FFFFFF0000FFFFFFFFFFFFFFFFFFFFFFFFFFFFFFFFFFFFFFFFFFFFFFFFFFFF00FFFFFFFF0000FFFFFFFFFFFFFFFFFFFFFFFFFFFFFFFFFFFFFFFFFFFFFFFF00FF00000000FF00FFFFFFFFFFFFFFFFFFFFFFFFFFFFFFFFFFFFFFFFFFFFFFFF0000
310
00FFFF00FF00FFFFFFFFFFFFFFFFFFFFFFFFFFFFFFFFFFFFFFFFFFFFFFFF0000FFFFFFFF0000FFFFFFFFFFFFFFFFFFFFFFFFFFFFFFFFFFFFFFFFFFFFFFFF0000FFFFFFFF0000FFFFFFFFFFFFFFFFFFFFFFFFFFFFFFFFFFFFFFFFFFFFFF00FF00FFFFFFFF00FF00FFFFFFFFFFFFFFFFFFFFFFFFFFFFFFFFFFFFFFFFFFFF0000
310
FFFFFFFFFF00FF00FFFFFFFFFFFFFFFFFFFFFFFFFFFFFFFFFFFFFFFFFFFF0000FFFFFFFFFFFF0000FFFFFFFFFFFFFFFFFFFFFFFFFFFFFFFFFFFFFFFFFFFF0000FFFFFFFFFFFF0000FFFFFFFFFFFFFFFFFFFFFFFFFFFFFFFFFFFFFFFFFFFF0000FFFFFFFFFFFF0000FFFFFFFFFFFFFFFFFFFFFFFFFFFFFFFFFFFFFFFFFFFF00
310
00FFFFFFFFFFFF0000FFFFFFFFFFFFFFFFFFFFFFFFFFFFFFFFFFFFFFFFFFFF0000FFFFFFFFFFFF0000FFFFFFFFFFFFFFFFFFFFFFFFFFFFFFFFFFFFFFFFFFFF0000FFFFFFFFFFFF0000FFFFFFFFFFFFFFFFFFFFFFFFFFFFFFFFFFFFFFFFFFFF0000FFFFFFFFFFFF0000FFFFFFFFFFFFFFFFFFFFFFFFFFFFFFFFFFFFFFFFFFFF
310
0000FFFFFFFFFFFF0000FFFFFFFFFFFFFFFFFFFFFFFFFFFFFFFFFFFFFFFFFFFF0000FFFFFFFFFFFF0000FFFFFFFFFFFFFFFFFFFFFFFFFFFFFFFFFFFFFFFFFFFF0000FFFFFFFFFFFF0000FFFFFFFFFFFFFFFFFFFFFFFFFFFFFFFFFFFFFFFFFFFF00FF00FFFFFFFF00FF00FFFFFFFFFFFFFFFFFFFFFFFFFFFFFFFFFFFFFFFFFF
310
FF00FF00FFFFFFFF00FF00FFFFFFFFFFFFFFFFFFFFFFFFFFFFFFFFFFFFFFFFFFFF00FF00FFFFFFFF00FF00FFFFFFFFFFFFFFFFFFFFFFFFFFFFFFFFFFFFFFFFFFFFFF0000FFFFFFFF0000FFFFFFFFFFFFFFFFFFFFFFFFFFFFFFFFFFFFFFFFFFFFFFFF00FF00FFFF00FF00FFFFFFFFFFFFFFFFFFFFFFFFFFFFFFFFFFFFFFFFFF
310
FFFFFF00FF00000000FF00FFFFFFFFFFFFFFFFFFFFFFFFFFFFFFFFFFFFFFFFFFFFFFFFFF00FFFFFFFF0000FFFFFFFFFFFFFFFFFFFFFFFFFFFFFFFFFFFFFFFFFFFFFFFFFF00FFFFFFFF00FFFFFFFFFFFFFFFFFFFFFFFFFFFFFFFFFFFFFFFFFFFFFFFFFFFFFF00000000FFFFFFFFFFFFFFFFFFFFFFFFFFFFFFFFFFFFFFFFFFFF
310
FFFFFFFFFFFFFF0000FFFFFFFFFFFFFFFFFFFFFFFFFFFFFFFFFFFFFFFFFFFFFFFFFFFFFFFFFFFFFFFFFFFFFFFFFFFFFFFFFFFFFFFFFFFFFF
102
{BLKREFS
331
27EE
102
}
  0
BLOCK_RECORD
  5
27C1
330
2520
100
AcDbSymbolTableRecord
100
AcDbBlockTableRecord
  2
AI9-BLK8
340
0
310
2800000020000000200000000100080000000000000400000000000000000000000000000000000000000000000080000080000000808000800000008000800080800000C0C0C000C0DCC000F0CAA6000020400000206000002080000020A0000020C0000020E00000400000004020000040400000406000004080000040A0
310
000040C0000040E00000600000006020000060400000606000006080000060A0000060C0000060E00000800000008020000080400000806000008080000080A0000080C0000080E00000A0000000A0200000A0400000A0600000A0800000A0A00000A0C00000A0E00000C0000000C0200000C0400000C0600000C0800000C0
310
A00000C0C00000C0E00000E0000000E0200000E0400000E0600000E0800000E0A00000E0C00000E0E00040000000400020004000400040006000400080004000A0004000C0004000E00040200000402020004020400040206000402080004020A0004020C0004020E000404000004040200040404000404060004040800040
310
40A0004040C0004040E00040600000406020004060400040606000406080004060A0004060C0004060E00040800000408020004080400040806000408080004080A0004080C0004080E00040A0000040A0200040A0400040A0600040A0800040A0A00040A0C00040A0E00040C0000040C0200040C0400040C0600040C08000
310
40C0A00040C0C00040C0E00040E0000040E0200040E0400040E0600040E0800040E0A00040E0C00040E0E00080000000800020008000400080006000800080008000A0008000C0008000E00080200000802020008020400080206000802080008020A0008020C0008020E00080400000804020008040400080406000804080
310
008040A0008040C0008040E00080600000806020008060400080606000806080008060A0008060C0008060E00080800000808020008080400080806000808080008080A0008080C0008080E00080A0000080A0200080A0400080A0600080A0800080A0A00080A0C00080A0E00080C0000080C0200080C0400080C0600080C0
310
800080C0A00080C0C00080C0E00080E0000080E0200080E0400080E0600080E0800080E0A00080E0C00080E0E000C0000000C0002000C0004000C0006000C0008000C000A000C000C000C000E000C0200000C0202000C0204000C0206000C0208000C020A000C020C000C020E000C0400000C0402000C0404000C0406000C0
310
408000C040A000C040C000C040E000C0600000C0602000C0604000C0606000C0608000C060A000C060C000C060E000C0800000C0802000C0804000C0806000C0808000C080A000C080C000C080E000C0A00000C0A02000C0A04000C0A06000C0A08000C0A0A000C0A0C000C0A0E000C0C00000C0C02000C0C04000C0C06000
310
C0C08000C0C0A000F0FBFF00A4A0A000808080000000FF0000FF000000FFFF00FF000000FF00FF00FFFF0000FFFFFF00FFFFFFFFFFFFFFFFFFFFFFFFFFFFFFFFFFFFFFFFFFFFFFFFFFFFFFFFFFFFFFFFFFFFFFFFFFFFFFFFFFFFFF0000FFFFFFFFFFFF0000FFFFFFFFFFFFFFFFFFFFFFFFFFFFFFFFFFFFFFFFFFFF0000FFFF
310
FFFFFFFF0000FFFFFFFFFFFFFFFFFFFFFFFFFFFFFFFFFFFFFFFFFFFF0000FFFFFFFFFF00FF00FFFFFFFFFFFFFFFFFFFFFFFFFFFFFFFFFFFFFFFFFFFF0000FFFFFFFFFF00FF00FFFFFFFFFFFFFFFFFFFFFFFFFFFFFFFFFFFFFFFFFFFF0000FFFFFFFFFF00FF00FFFFFFFFFFFFFFFFFFFFFFFFFFFFFFFFFFFFFFFFFFFF0000FF
310
FFFFFF00FFFF00FFFFFFFFFFFFFFFFFFFFFFFFFFFFFFFFFFFFFFFFFFFF0000FFFFFFFF00FF0000FFFFFFFFFFFFFFFFFFFFFFFFFFFFFFFFFFFFFFFFFFFF0000FFFFFFFF00FF0000FFFFFFFFFFFFFFFFFFFFFFFFFFFFFFFFFFFFFFFFFFFF0000FFFFFFFF00000000FFFFFFFFFFFFFFFFFFFFFFFFFFFFFFFFFFFFFFFFFFFF0000
310
FFFFFF00FF000000FFFFFFFFFFFFFFFFFFFFFFFFFFFFFFFFFFFFFFFFFFFF0000FFFFFF00FF000000FFFFFFFFFFFFFFFFFFFFFFFFFFFFFFFFFFFFFFFFFFFF0000FFFFFF00FF000000FFFFFFFFFFFFFFFFFFFFFFFFFFFFFFFFFFFFFFFFFFFF0000FFFF00FF00FF0000FFFFFFFFFFFFFFFFFFFFFFFFFFFFFFFFFFFFFFFFFFFF00
310
00FFFF00FF00FF0000FFFFFFFFFFFFFFFFFFFFFFFFFFFFFFFFFFFFFFFFFFFF0000FFFF00FF00FF0000FFFFFFFFFFFFFFFFFFFFFFFFFFFFFFFFFFFFFFFFFFFF0000FF00FFFF00FF0000FFFFFFFFFFFFFFFFFFFFFFFFFFFFFFFFFFFFFFFFFFFF0000FF00FF00FFFF0000FFFFFFFFFFFFFFFFFFFFFFFFFFFFFFFFFFFFFFFFFFFF
310
0000FF00FF00FFFF0000FFFFFFFFFFFFFFFFFFFFFFFFFFFFFFFFFFFFFFFFFFFF0000FF00FF00FFFF0000FFFFFFFFFFFFFFFFFFFFFFFFFFFFFFFFFFFFFFFFFFFF000000FFFF00FFFF0000FFFFFFFFFFFFFFFFFFFFFFFFFFFFFFFFFFFFFFFFFFFF000000FF00FFFFFF0000FFFFFFFFFFFFFFFFFFFFFFFFFFFFFFFFFFFFFFFFFF
310
FF000000FF00FFFFFF0000FFFFFFFFFFFFFFFFFFFFFFFFFFFFFFFFFFFFFFFFFFFF0000FFFF00FFFFFF0000FFFFFFFFFFFFFFFFFFFFFFFFFFFFFFFFFFFFFFFFFFFF0000FFFF00FFFFFF0000FFFFFFFFFFFFFFFFFFFFFFFFFFFFFFFFFFFFFFFFFFFF00FFFF00FFFFFFFF0000FFFFFFFFFFFFFFFFFFFFFFFFFFFFFFFFFFFFFFFF
310
FFFF00FFFF00FFFFFFFF0000FFFFFFFFFFFFFFFFFFFFFFFFFFFFFFFFFFFFFFFFFFFF00FFFF00FFFFFFFF0000FFFFFFFFFFFFFFFFFFFFFFFFFFFFFFFFFFFFFFFFFFFF00FFFF00FFFFFFFF0000FFFFFFFFFFFFFFFFFFFFFFFFFFFFFFFFFFFFFFFFFFFF00FF00FFFFFFFFFF0000FFFFFFFFFFFFFFFFFFFFFFFFFFFFFFFFFFFFFF
310
FFFFFF000000FFFFFFFFFF0000FFFFFFFFFFFFFFFFFFFFFFFFFFFFFFFFFFFFFFFFFFFFFFFFFFFFFFFFFFFFFFFFFFFFFFFFFFFFFFFFFFFFFF
102
{BLKREFS
331
27EF
102
}
  0
BLOCK_RECORD
  5
27C6
330
2520
100
AcDbSymbolTableRecord
100
AcDbBlockTableRecord
  2
AI9-BLK7
340
0
310
2800000020000000200000000100080000000000000400000000000000000000000000000000000000000000000080000080000000808000800000008000800080800000C0C0C000C0DCC000F0CAA6000020400000206000002080000020A0000020C0000020E00000400000004020000040400000406000004080000040A0
310
000040C0000040E00000600000006020000060400000606000006080000060A0000060C0000060E00000800000008020000080400000806000008080000080A0000080C0000080E00000A0000000A0200000A0400000A0600000A0800000A0A00000A0C00000A0E00000C0000000C0200000C0400000C0600000C0800000C0
310
A00000C0C00000C0E00000E0000000E0200000E0400000E0600000E0800000E0A00000E0C00000E0E00040000000400020004000400040006000400080004000A0004000C0004000E00040200000402020004020400040206000402080004020A0004020C0004020E000404000004040200040404000404060004040800040
310
40A0004040C0004040E00040600000406020004060400040606000406080004060A0004060C0004060E00040800000408020004080400040806000408080004080A0004080C0004080E00040A0000040A0200040A0400040A0600040A0800040A0A00040A0C00040A0E00040C0000040C0200040C0400040C0600040C08000
310
40C0A00040C0C00040C0E00040E0000040E0200040E0400040E0600040E0800040E0A00040E0C00040E0E00080000000800020008000400080006000800080008000A0008000C0008000E00080200000802020008020400080206000802080008020A0008020C0008020E00080400000804020008040400080406000804080
310
008040A0008040C0008040E00080600000806020008060400080606000806080008060A0008060C0008060E00080800000808020008080400080806000808080008080A0008080C0008080E00080A0000080A0200080A0400080A0600080A0800080A0A00080A0C00080A0E00080C0000080C0200080C0400080C0600080C0
310
800080C0A00080C0C00080C0E00080E0000080E0200080E0400080E0600080E0800080E0A00080E0C00080E0E000C0000000C0002000C0004000C0006000C0008000C000A000C000C000C000E000C0200000C0202000C0204000C0206000C0208000C020A000C020C000C020E000C0400000C0402000C0404000C0406000C0
310
408000C040A000C040C000C040E000C0600000C0602000C0604000C0606000C0608000C060A000C060C000C060E000C0800000C0802000C0804000C0806000C0808000C080A000C080C000C080E000C0A00000C0A02000C0A04000C0A06000C0A08000C0A0A000C0A0C000C0A0E000C0C00000C0C02000C0C04000C0C06000
310
C0C08000C0C0A000F0FBFF00A4A0A000808080000000FF0000FF000000FFFF00FF000000FF00FF00FFFF0000FFFFFF00FFFFFFFFFFFFFFFFFFFFFFFFFFFFFFFFFFFFFFFFFFFFFFFFFFFFFFFFFFFFFFFFFFFFFFFFFFFFFFFFFFFFFFFFFFFFFF0000FFFFFFFFFFFFFFFFFFFFFFFFFFFFFFFFFFFFFFFFFFFFFFFFFFFFFFFFFFFF
310
0000FFFFFFFFFFFFFFFFFFFFFFFFFFFFFFFFFFFFFFFFFFFFFFFFFFFFFFFFFFFF0000FFFFFFFFFFFFFFFFFFFFFFFFFFFFFFFFFFFFFFFFFFFFFFFFFFFFFFFFFFFF0000FFFFFFFFFFFFFFFFFFFFFFFFFFFFFFFFFFFFFFFFFFFFFFFFFFFFFFFFFFFF0000FFFFFFFFFFFFFFFFFFFFFFFFFFFFFFFFFFFFFFFFFFFFFFFFFFFFFFFFFF
310
FF0000FFFFFFFFFFFFFFFFFFFFFFFFFFFFFFFFFFFFFFFFFFFFFFFFFFFFFFFFFFFF0000FFFFFFFFFFFFFFFFFFFFFFFFFFFFFFFFFFFFFFFFFFFFFFFFFFFFFFFFFFFF0000FFFFFFFFFFFFFFFFFFFFFFFFFFFFFFFFFFFFFFFFFFFFFFFFFFFFFFFFFFFF0000FFFFFFFFFFFFFFFFFFFFFFFFFFFFFFFFFFFFFFFFFFFFFFFFFFFFFFFF
310
FFFF0000FFFFFFFFFFFFFFFFFFFFFFFFFFFFFFFFFFFFFFFFFFFFFFFFFFFFFFFFFFFF0000FFFFFFFFFFFFFFFFFFFFFFFFFFFFFFFFFFFFFFFFFFFFFFFFFFFFFFFFFFFF0000FFFFFFFFFFFFFFFFFFFFFFFFFFFFFFFFFFFFFFFFFFFFFFFFFFFFFFFFFFFF0000FFFFFFFFFFFFFFFFFFFFFFFFFFFFFFFFFFFFFFFFFFFFFFFFFFFFFF
310
FFFFFF0000FFFFFFFFFFFFFFFFFFFFFFFFFFFFFFFFFFFFFFFFFFFFFFFFFFFFFFFFFFFF0000FFFFFFFFFFFFFFFFFFFFFFFFFFFFFFFFFFFFFFFFFFFFFFFFFFFFFFFFFFFF0000FFFFFFFFFFFFFFFFFFFFFFFFFFFFFFFFFFFFFFFFFFFFFFFFFFFFFFFFFFFF0000FFFFFFFFFFFFFFFFFFFFFFFFFFFFFFFFFFFFFFFFFFFFFFFFFFFF
310
FFFFFFFF0000FFFFFFFFFFFFFFFFFFFFFFFFFFFFFFFFFFFFFFFFFFFFFFFFFFFFFFFFFFFF0000FFFFFFFFFFFFFFFFFFFFFFFFFFFFFFFFFFFFFFFFFFFFFFFFFFFFFFFFFFFF0000FFFFFFFFFFFFFFFFFFFFFFFFFFFFFFFFFFFFFFFFFFFFFFFFFFFFFFFFFFFF0000FFFFFFFFFFFFFFFFFFFFFFFFFFFFFFFFFFFFFFFFFFFFFFFFFF
310
FFFFFFFFFF0000FFFFFFFFFFFFFFFFFFFFFFFFFFFFFFFFFFFFFFFFFFFFFFFFFFFFFFFFFFFF0000FFFFFFFFFFFFFFFFFFFFFFFFFFFFFFFFFFFFFFFFFFFFFFFFFFFFFFFFFFFF0000FFFFFFFFFFFFFFFFFFFFFFFFFFFFFFFFFFFFFFFFFFFFFFFFFFFFFFFFFFFF0000FFFFFFFFFFFFFFFFFFFFFFFFFFFFFFFFFFFFFFFFFFFFFFFF
310
FFFFFFFFFFFF0000FFFFFFFFFFFFFFFFFFFFFFFFFFFFFFFFFFFFFFFFFFFFFFFFFFFFFFFFFFFF0000FFFFFFFFFFFFFFFFFFFFFFFFFFFFFFFFFFFFFFFFFFFFFFFFFFFFFFFFFFFF0000FFFFFFFFFFFFFFFFFFFFFFFFFFFFFFFFFFFFFFFFFFFFFFFFFFFFFFFFFFFF0000FFFFFFFFFFFFFFFFFFFFFFFFFFFFFFFFFFFFFFFFFFFFFF
310
FFFFFFFFFFFFFF0000FFFFFFFFFFFFFFFFFFFFFFFFFFFFFFFFFFFFFFFFFFFFFFFFFFFFFFFFFFFFFFFFFFFFFFFFFFFFFFFFFFFFFFFFFFFFFF
102
{BLKREFS
331
27F0
102
}
  0
BLOCK_RECORD
  5
27CB
330
2520
100
AcDbSymbolTableRecord
100
AcDbBlockTableRecord
  2
AI9-BLK6
340
0
310
2800000020000000200000000100080000000000000400000000000000000000000000000000000000000000000080000080000000808000800000008000800080800000C0C0C000C0DCC000F0CAA6000020400000206000002080000020A0000020C0000020E00000400000004020000040400000406000004080000040A0
310
000040C0000040E00000600000006020000060400000606000006080000060A0000060C0000060E00000800000008020000080400000806000008080000080A0000080C0000080E00000A0000000A0200000A0400000A0600000A0800000A0A00000A0C00000A0E00000C0000000C0200000C0400000C0600000C0800000C0
310
A00000C0C00000C0E00000E0000000E0200000E0400000E0600000E0800000E0A00000E0C00000E0E00040000000400020004000400040006000400080004000A0004000C0004000E00040200000402020004020400040206000402080004020A0004020C0004020E000404000004040200040404000404060004040800040
310
40A0004040C0004040E00040600000406020004060400040606000406080004060A0004060C0004060E00040800000408020004080400040806000408080004080A0004080C0004080E00040A0000040A0200040A0400040A0600040A0800040A0A00040A0C00040A0E00040C0000040C0200040C0400040C0600040C08000
310
40C0A00040C0C00040C0E00040E0000040E0200040E0400040E0600040E0800040E0A00040E0C00040E0E00080000000800020008000400080006000800080008000A0008000C0008000E00080200000802020008020400080206000802080008020A0008020C0008020E00080400000804020008040400080406000804080
310
008040A0008040C0008040E00080600000806020008060400080606000806080008060A0008060C0008060E00080800000808020008080400080806000808080008080A0008080C0008080E00080A0000080A0200080A0400080A0600080A0800080A0A00080A0C00080A0E00080C0000080C0200080C0400080C0600080C0
310
800080C0A00080C0C00080C0E00080E0000080E0200080E0400080E0600080E0800080E0A00080E0C00080E0E000C0000000C0002000C0004000C0006000C0008000C000A000C000C000C000E000C0200000C0202000C0204000C0206000C0208000C020A000C020C000C020E000C0400000C0402000C0404000C0406000C0
310
408000C040A000C040C000C040E000C0600000C0602000C0604000C0606000C0608000C060A000C060C000C060E000C0800000C0802000C0804000C0806000C0808000C080A000C080C000C080E000C0A00000C0A02000C0A04000C0A06000C0A08000C0A0A000C0A0C000C0A0E000C0C00000C0C02000C0C04000C0C06000
310
C0C08000C0C0A000F0FBFF00A4A0A000808080000000FF0000FF000000FFFF00FF000000FF00FF00FFFF0000FFFFFF00FFFFFFFFFFFFFFFFFFFFFFFF00FFFFFFFFFFFFFF00FFFFFFFFFFFFFFFFFFFFFFFFFFFFFFFFFFFFFFFFFFFFFF00FFFFFFFFFFFFFF00FFFFFFFFFFFFFFFFFFFFFFFFFFFFFFFFFFFFFFFFFFFFFF00FFFF
310
FFFFFFFFFF00FFFFFFFFFFFFFFFFFFFFFFFFFFFFFFFFFFFFFFFFFFFF00FFFFFFFFFFFFFFFF00FFFFFFFFFFFFFFFFFFFFFFFFFFFFFFFFFFFFFFFFFFFF00FFFFFFFFFFFFFF00FFFFFFFFFFFFFFFFFFFFFFFFFFFFFFFFFFFFFFFFFFFFFF00FFFFFFFFFFFFFF00FFFFFFFFFFFFFFFFFFFFFFFFFFFFFFFFFFFFFFFFFFFF00FFFFFF
310
FFFFFFFFFF00FFFFFFFFFFFFFFFFFFFFFFFFFFFFFFFFFFFFFFFFFFFF00FFFFFFFFFFFFFF00FFFFFFFFFFFFFFFFFFFFFFFFFFFFFFFFFFFFFFFFFFFF00FFFFFFFFFFFFFFFF00FFFFFFFFFFFFFFFFFFFFFFFFFFFFFFFFFFFFFFFFFF00FFFFFFFFFFFFFFFFFF00FFFFFFFFFFFFFFFFFFFFFFFFFFFFFFFFFFFFFFFF00FFFFFFFFFF
310
FFFFFFFFFF00FFFFFFFFFFFFFFFFFFFFFFFFFFFFFFFFFFFFFF00FFFFFFFFFFFFFFFFFFFF00FFFFFFFFFFFFFFFFFFFFFFFFFFFFFFFFFFFF0000FFFFFFFFFFFFFFFFFFFFFF00FFFFFFFFFFFFFFFFFFFFFFFFFFFF00000000FFFFFFFFFFFFFFFFFFFFFFFFFF00FFFFFFFFFFFFFFFFFFFFFFFFFFFFFFFFFFFFFFFFFFFFFFFFFFFF
310
FFFFFFFF00FFFFFFFFFFFFFFFFFFFFFFFFFFFFFFFFFFFFFFFFFFFFFFFFFFFFFFFFFFFFFF00FFFFFFFFFFFFFFFFFFFFFFFFFFFFFFFFFFFFFFFFFFFFFFFFFFFFFFFFFFFFFF00FFFFFFFFFFFFFFFFFFFFFFFFFFFFFFFFFFFFFFFFFFFFFFFFFFFFFFFFFFFF00FFFFFFFFFFFFFFFFFFFFFFFFFFFFFFFFFFFFFFFFFFFFFFFFFFFFFF
310
FFFFFFFF00FFFFFFFFFFFFFFFFFFFFFFFFFFFFFFFFFFFFFFFFFFFFFFFFFFFFFFFFFFFF00FFFFFFFFFFFFFFFFFFFFFFFFFFFFFFFFFFFFFFFFFFFFFFFFFFFFFFFFFFFF00FFFFFFFFFFFFFFFFFFFFFFFFFFFFFFFFFFFFFFFFFFFFFFFFFFFFFFFFFFFF00FFFFFFFFFFFFFFFFFFFFFFFFFFFFFFFFFFFFFFFFFFFFFFFFFFFFFFFFFF
310
FF00FFFFFFFFFFFFFFFFFFFFFFFFFFFFFFFFFFFFFFFFFFFFFFFFFFFFFFFFFFFFFF00FFFFFFFFFFFFFFFFFFFFFFFFFFFFFFFFFFFFFFFFFFFFFFFFFFFFFFFFFFFF00FFFFFFFFFFFFFFFFFFFFFFFFFFFFFFFFFFFFFFFFFFFFFFFFFFFFFFFFFF0000FFFFFFFFFFFFFFFFFFFFFFFFFFFFFFFFFFFFFFFFFFFFFFFFFFFFFFFF0000FF
310
FFFFFFFFFFFFFFFFFFFFFFFFFFFFFFFFFFFFFFFFFFFFFFFFFF00000000FFFFFFFFFFFFFFFFFFFFFFFFFFFFFFFFFFFFFFFFFFFFFFFFFFFF0000FFFFFFFFFFFFFFFFFFFFFFFFFFFFFFFFFFFFFFFFFFFFFFFFFFFFFFFFFFFFFFFFFFFFFFFFFFFFFFFFFFFFFFFFFFFFFFFFFFFFFFFFFFFFFFFFFFFFFFFFFFFFFFFFFFFFFFFFFFFF
310
FFFFFFFFFFFFFFFFFFFFFFFFFFFFFFFFFFFFFFFFFFFFFFFFFFFFFFFFFFFFFFFFFFFFFFFFFFFFFFFFFFFFFFFFFFFFFFFFFFFFFFFFFFFFFFFF
102
{BLKREFS
331
27F1
102
}
  0
BLOCK_RECORD
  5
27CF
330
2520
100
AcDbSymbolTableRecord
100
AcDbBlockTableRecord
  2
AI9-BLK5
340
0
310
2800000020000000200000000100080000000000000400000000000000000000000000000000000000000000000080000080000000808000800000008000800080800000C0C0C000C0DCC000F0CAA6000020400000206000002080000020A0000020C0000020E00000400000004020000040400000406000004080000040A0
310
000040C0000040E00000600000006020000060400000606000006080000060A0000060C0000060E00000800000008020000080400000806000008080000080A0000080C0000080E00000A0000000A0200000A0400000A0600000A0800000A0A00000A0C00000A0E00000C0000000C0200000C0400000C0600000C0800000C0
310
A00000C0C00000C0E00000E0000000E0200000E0400000E0600000E0800000E0A00000E0C00000E0E00040000000400020004000400040006000400080004000A0004000C0004000E00040200000402020004020400040206000402080004020A0004020C0004020E000404000004040200040404000404060004040800040
310
40A0004040C0004040E00040600000406020004060400040606000406080004060A0004060C0004060E00040800000408020004080400040806000408080004080A0004080C0004080E00040A0000040A0200040A0400040A0600040A0800040A0A00040A0C00040A0E00040C0000040C0200040C0400040C0600040C08000
310
40C0A00040C0C00040C0E00040E0000040E0200040E0400040E0600040E0800040E0A00040E0C00040E0E00080000000800020008000400080006000800080008000A0008000C0008000E00080200000802020008020400080206000802080008020A0008020C0008020E00080400000804020008040400080406000804080
310
008040A0008040C0008040E00080600000806020008060400080606000806080008060A0008060C0008060E00080800000808020008080400080806000808080008080A0008080C0008080E00080A0000080A0200080A0400080A0600080A0800080A0A00080A0C00080A0E00080C0000080C0200080C0400080C0600080C0
310
800080C0A00080C0C00080C0E00080E0000080E0200080E0400080E0600080E0800080E0A00080E0C00080E0E000C0000000C0002000C0004000C0006000C0008000C000A000C000C000C000E000C0200000C0202000C0204000C0206000C0208000C020A000C020C000C020E000C0400000C0402000C0404000C0406000C0
310
408000C040A000C040C000C040E000C0600000C0602000C0604000C0606000C0608000C060A000C060C000C060E000C0800000C0802000C0804000C0806000C0808000C080A000C080C000C080E000C0A00000C0A02000C0A04000C0A06000C0A08000C0A0A000C0A0C000C0A0E000C0C00000C0C02000C0C04000C0C06000
310
C0C08000C0C0A000F0FBFF00A4A0A000808080000000FF0000FF000000FFFF00FF000000FF00FF00FFFF0000FFFFFF00FFFFFFFFFFFFFFFFFFFFFFFFFFFFFFFFFFFFFFFFFFFFFFFFFFFFFFFFFFFFFFFFFFFFFFFFFFFFFFFF000000000000000000000000000000000000000000000000FFFFFFFFFFFFFFFF00FFFFFFFFFFFF
310
FFFFFFFFFFFFFFFFFFFFFFFFFFFFFFFFFFFFFFFFFFFFFFFFFF00FFFFFFFFFFFFFFFFFFFFFFFFFFFFFFFFFFFFFFFFFFFFFFFFFFFFFFFFFFFFFF00FFFFFFFFFFFFFFFFFFFFFFFFFFFFFFFFFFFFFFFFFFFFFFFFFFFFFFFFFFFFFF00FFFFFFFFFFFFFFFFFFFFFFFFFFFFFFFFFFFFFFFFFFFFFFFFFFFFFFFFFFFFFF00FFFFFFFFFF
310
FFFFFFFFFFFFFFFFFFFFFFFFFFFFFFFFFFFFFFFFFFFFFFFFFFFF00FFFFFFFFFFFFFFFFFFFFFFFFFFFFFFFFFFFFFFFFFFFFFFFFFFFFFFFFFFFFFF00FFFFFFFFFFFFFFFFFFFFFFFFFFFFFFFFFFFFFFFFFFFFFFFFFFFFFFFFFFFFFF00FFFFFFFFFFFFFFFFFFFFFFFFFFFFFFFFFFFFFFFFFFFFFFFFFFFFFFFFFFFFFF00FFFFFFFF
310
FFFFFFFFFFFFFFFFFFFFFFFFFFFFFFFFFFFFFFFFFFFFFFFFFFFFFF00FFFFFFFFFFFFFFFFFFFFFFFFFFFFFFFFFFFFFFFFFFFFFFFFFFFFFFFFFFFFFF00FFFFFFFFFFFFFFFFFFFFFFFFFFFFFFFFFFFFFFFFFFFFFFFFFFFFFFFFFFFFFF00FFFFFFFFFFFFFFFFFFFFFFFFFFFFFFFFFFFFFFFFFFFFFFFFFFFFFFFFFFFFFF00FFFFFF
310
FFFFFFFFFFFFFFFFFFFFFFFFFFFFFFFFFFFFFFFFFFFFFFFFFFFFFFFF00FFFFFFFFFFFFFFFFFFFFFFFFFFFFFFFFFFFFFFFFFFFFFFFFFFFFFFFFFFFFFF00FFFFFFFFFFFFFFFFFFFFFFFFFFFFFFFFFFFFFFFFFFFFFFFFFFFFFFFFFFFFFF00FFFFFFFFFFFFFFFFFFFFFFFFFFFFFFFFFFFFFFFFFFFFFFFFFFFFFFFFFFFFFF00FFFF
310
FFFFFFFFFFFFFFFFFFFFFFFFFFFFFFFFFFFFFFFFFFFFFFFFFFFFFFFFFF00FFFFFFFFFFFFFFFFFFFFFFFFFFFFFFFFFFFFFFFFFFFFFFFFFFFFFFFFFFFFFF00FFFFFFFFFFFFFFFFFFFFFFFFFFFFFFFFFFFFFFFFFFFFFFFFFFFFFFFFFFFFFF00FFFFFFFFFFFFFFFFFFFFFFFFFFFFFFFFFFFFFFFFFFFFFFFFFFFFFFFFFFFFFF00FF
310
FFFFFFFFFFFFFFFFFFFFFFFFFFFFFFFFFFFFFFFFFFFFFFFFFFFFFFFFFFFF00FFFFFFFFFFFFFFFFFFFFFFFFFFFFFFFFFFFFFFFFFFFFFFFFFFFFFFFFFFFFFF00FFFFFFFFFFFFFFFFFFFFFFFFFFFFFFFFFFFFFFFFFFFFFFFFFFFFFFFFFFFFFF00FFFFFFFFFFFFFFFFFFFFFFFFFFFFFFFFFFFFFFFFFFFFFFFFFFFFFFFFFFFFFF00
310
FFFFFFFFFFFFFFFFFFFFFFFFFFFFFFFFFFFFFFFFFFFFFFFFFFFFFFFFFFFFFF00FFFFFFFFFFFFFFFFFFFFFFFFFFFFFFFFFFFFFFFFFFFFFFFFFFFFFFFFFFFFFF00FFFFFFFFFFFFFFFFFFFFFFFFFFFFFFFFFFFFFFFFFFFFFFFFFFFFFFFFFFFFFF00FFFFFFFFFFFFFFFFFFFFFFFFFFFFFFFFFFFFFFFFFFFFFFFFFFFFFFFFFFFFFF
310
00FFFFFFFFFFFFFFFFFFFFFFFFFFFF000000000000000000FFFFFFFFFFFFFFFF00FFFFFFFFFFFFFFFFFFFFFFFFFFFF00FFFFFFFFFFFFFFFF
102
{BLKREFS
331
27F2
102
}
  0
BLOCK_RECORD
  5
27D4
330
2520
100
AcDbSymbolTableRecord
100
AcDbBlockTableRecord
  2
AI9-BLK4
340
0
310
2800000020000000200000000100080000000000000400000000000000000000000000000000000000000000000080000080000000808000800000008000800080800000C0C0C000C0DCC000F0CAA6000020400000206000002080000020A0000020C0000020E00000400000004020000040400000406000004080000040A0
310
000040C0000040E00000600000006020000060400000606000006080000060A0000060C0000060E00000800000008020000080400000806000008080000080A0000080C0000080E00000A0000000A0200000A0400000A0600000A0800000A0A00000A0C00000A0E00000C0000000C0200000C0400000C0600000C0800000C0
310
A00000C0C00000C0E00000E0000000E0200000E0400000E0600000E0800000E0A00000E0C00000E0E00040000000400020004000400040006000400080004000A0004000C0004000E00040200000402020004020400040206000402080004020A0004020C0004020E000404000004040200040404000404060004040800040
310
40A0004040C0004040E00040600000406020004060400040606000406080004060A0004060C0004060E00040800000408020004080400040806000408080004080A0004080C0004080E00040A0000040A0200040A0400040A0600040A0800040A0A00040A0C00040A0E00040C0000040C0200040C0400040C0600040C08000
310
40C0A00040C0C00040C0E00040E0000040E0200040E0400040E0600040E0800040E0A00040E0C00040E0E00080000000800020008000400080006000800080008000A0008000C0008000E00080200000802020008020400080206000802080008020A0008020C0008020E00080400000804020008040400080406000804080
310
008040A0008040C0008040E00080600000806020008060400080606000806080008060A0008060C0008060E00080800000808020008080400080806000808080008080A0008080C0008080E00080A0000080A0200080A0400080A0600080A0800080A0A00080A0C00080A0E00080C0000080C0200080C0400080C0600080C0
310
800080C0A00080C0C00080C0E00080E0000080E0200080E0400080E0600080E0800080E0A00080E0C00080E0E000C0000000C0002000C0004000C0006000C0008000C000A000C000C000C000E000C0200000C0202000C0204000C0206000C0208000C020A000C020C000C020E000C0400000C0402000C0404000C0406000C0
310
408000C040A000C040C000C040E000C0600000C0602000C0604000C0606000C0608000C060A000C060C000C060E000C0800000C0802000C0804000C0806000C0808000C080A000C080C000C080E000C0A00000C0A02000C0A04000C0A06000C0A08000C0A0A000C0A0C000C0A0E000C0C00000C0C02000C0C04000C0C06000
310
C0C08000C0C0A000F0FBFF00A4A0A000808080000000FF0000FF000000FFFF00FF000000FF00FF00FFFF0000FFFFFF00FFFFFFFFFFFFFFFFFFFFFFFFFFFFFFFFFFFFFFFFFFFFFFFFFFFFFFFFFFFFFFFFFFFFFFFFFFFFFFFFFFFFFFFFFFFF00000000FFFFFFFFFFFFFFFFFFFFFF000000FFFFFFFFFFFFFFFFFFFFFFFFFFFF00
310
FFFF00FFFFFFFFFFFFFFFFFFFFFF00FFFFFFFFFFFFFFFFFFFFFFFFFFFFFFFF00FFFF00FFFFFFFFFFFFFFFFFFFFFF00FFFFFFFFFFFFFFFFFFFFFFFFFFFFFFFF00FFFF00FFFFFFFFFFFFFFFFFFFFFF00FFFFFFFFFFFFFFFFFFFFFFFFFFFFFFFF00FFFF00FFFFFFFFFFFFFFFFFFFFFF00FFFFFFFFFFFFFFFFFFFFFFFFFFFFFFFF
310
00FFFF00FFFFFFFFFFFFFFFFFFFFFF00FFFFFFFFFFFFFFFFFFFFFFFFFFFFFFFF00FFFF00FFFFFFFFFFFFFFFFFFFFFF00FFFFFFFFFFFFFFFFFFFFFFFFFFFFFFFF00FFFF00FFFFFFFFFFFFFFFFFFFFFF00FFFFFFFFFFFFFFFFFFFFFFFFFFFFFFFF00FFFF00FFFFFFFFFFFFFFFFFFFFFF00FFFFFFFFFFFFFFFFFFFFFFFFFFFFFF
310
FF00FFFF00FFFFFFFFFFFFFFFFFFFFFF00FFFFFFFFFFFFFFFFFFFFFFFFFFFFFFFF00FFFF00FFFFFFFFFFFFFFFFFFFFFF00FFFFFFFFFFFFFFFFFFFFFFFFFFFFFFFF00FFFF00FFFFFFFFFFFFFFFFFFFFFF00FFFFFFFFFFFFFFFFFFFFFFFFFFFFFFFF00FFFF00FFFFFFFFFFFFFFFFFFFFFF00FFFFFFFFFFFFFFFFFFFFFFFFFFFF
310
FFFF00FFFF00FFFFFFFFFFFFFFFFFFFFFF00FFFFFFFFFFFFFFFFFFFFFFFFFFFFFFFF00FFFF00FFFFFFFFFFFFFFFFFFFFFF00FFFFFFFFFFFFFFFFFFFFFFFFFFFFFFFF00FFFF00FFFFFFFFFFFFFFFFFFFFFF00FFFFFFFFFFFFFFFFFFFFFFFFFFFFFFFF00FFFF00FFFFFFFFFFFFFFFFFFFF00FFFFFFFFFFFFFFFFFFFFFFFFFFFF
310
FFFFFF00FFFF00FFFFFFFFFFFFFFFFFFFF00FFFFFFFFFFFFFFFFFFFFFFFFFFFFFFFFFF00FFFF00FFFFFFFFFFFFFFFFFFFF00FFFFFFFFFFFFFFFFFFFFFFFFFFFFFFFFFF00FFFF00FFFFFFFFFFFFFFFFFFFF00FFFFFFFFFFFFFFFFFFFFFFFFFFFFFFFFFF00FFFF00FFFFFFFFFFFFFFFFFFFF00FFFFFFFFFFFFFFFFFFFFFFFFFF
310
FFFFFFFF00FFFF00FFFFFFFFFFFFFFFFFF0000FFFF00FFFFFFFFFFFFFFFFFFFFFFFFFFFF00FFFF00FFFFFFFFFFFFFFFF0000FFFFFF00FFFFFFFFFFFFFFFFFFFFFFFFFFFF00FFFF00000000000000000000FFFFFFFF00FFFFFFFFFFFFFFFFFFFFFFFFFFFF00FFFFFFFFFFFFFFFFFFFFFFFFFFFFFF00FFFFFFFFFFFFFFFFFFFF
310
FFFFFFFFFF00FFFFFFFFFFFFFFFFFFFFFFFFFFFF00FFFFFFFFFFFFFFFFFFFFFFFFFFFFFFFF00FFFFFFFFFFFFFFFFFFFFFFFFFFFF00FFFFFFFFFFFFFFFFFFFFFFFFFFFFFFFF00FFFFFFFFFFFFFFFFFFFFFFFFFFFFFF00FFFFFFFFFFFFFFFFFFFFFFFFFFFFFF00FFFFFFFFFFFFFFFFFFFFFFFFFFFFFF00FFFFFFFFFFFFFFFFFF
310
FFFFFFFFFFFF00FFFF00000000000000000000FFFFFFFF00FFFFFFFFFFFFFFFFFFFFFFFFFFFF00FFFF00FFFFFFFFFFFFFFFFFF0000FFFF00
102
{BLKREFS
331
27F3
102
}
  0
BLOCK_RECORD
  5
27D9
330
2520
100
AcDbSymbolTableRecord
100
AcDbBlockTableRecord
  2
AI9-BLK3
340
0
310
2800000020000000200000000100080000000000000400000000000000000000000000000000000000000000000080000080000000808000800000008000800080800000C0C0C000C0DCC000F0CAA6000020400000206000002080000020A0000020C0000020E00000400000004020000040400000406000004080000040A0
310
000040C0000040E00000600000006020000060400000606000006080000060A0000060C0000060E00000800000008020000080400000806000008080000080A0000080C0000080E00000A0000000A0200000A0400000A0600000A0800000A0A00000A0C00000A0E00000C0000000C0200000C0400000C0600000C0800000C0
310
A00000C0C00000C0E00000E0000000E0200000E0400000E0600000E0800000E0A00000E0C00000E0E00040000000400020004000400040006000400080004000A0004000C0004000E00040200000402020004020400040206000402080004020A0004020C0004020E000404000004040200040404000404060004040800040
310
40A0004040C0004040E00040600000406020004060400040606000406080004060A0004060C0004060E00040800000408020004080400040806000408080004080A0004080C0004080E00040A0000040A0200040A0400040A0600040A0800040A0A00040A0C00040A0E00040C0000040C0200040C0400040C0600040C08000
310
40C0A00040C0C00040C0E00040E0000040E0200040E0400040E0600040E0800040E0A00040E0C00040E0E00080000000800020008000400080006000800080008000A0008000C0008000E00080200000802020008020400080206000802080008020A0008020C0008020E00080400000804020008040400080406000804080
310
008040A0008040C0008040E00080600000806020008060400080606000806080008060A0008060C0008060E00080800000808020008080400080806000808080008080A0008080C0008080E00080A0000080A0200080A0400080A0600080A0800080A0A00080A0C00080A0E00080C0000080C0200080C0400080C0600080C0
310
800080C0A00080C0C00080C0E00080E0000080E0200080E0400080E0600080E0800080E0A00080E0C00080E0E000C0000000C0002000C0004000C0006000C0008000C000A000C000C000C000E000C0200000C0202000C0204000C0206000C0208000C020A000C020C000C020E000C0400000C0402000C0404000C0406000C0
310
408000C040A000C040C000C040E000C0600000C0602000C0604000C0606000C0608000C060A000C060C000C060E000C0800000C0802000C0804000C0806000C0808000C080A000C080C000C080E000C0A00000C0A02000C0A04000C0A06000C0A08000C0A0A000C0A0C000C0A0E000C0C00000C0C02000C0C04000C0C06000
310
C0C08000C0C0A000F0FBFF00A4A0A000808080000000FF0000FF000000FFFF00FF000000FF00FF00FFFF0000FFFFFF00FFFFFFFFFFFFFFFFFFFFFFFFFFFFFFFFFFFFFFFFFFFFFFFFFFFFFFFFFFFFFFFFFFFFFFFFFFFFFFFFFFFFFFFFFFFFFF0000FFFFFFFFFFFFFFFFFFFFFFFFFFFFFFFFFFFFFFFFFFFFFFFFFFFFFFFFFFFF
310
0000FFFFFFFFFFFFFFFFFFFFFFFFFFFFFFFFFFFFFFFFFFFFFFFFFFFFFFFFFFFF0000FFFFFFFFFFFFFFFFFFFFFFFFFFFFFFFFFFFFFFFFFFFFFFFFFFFFFFFFFFFF0000FFFFFFFFFFFFFFFFFFFFFFFFFFFFFFFFFFFFFFFFFFFFFFFFFFFFFFFFFFFF0000FFFFFFFFFFFFFFFFFFFFFFFFFFFFFFFFFFFFFFFFFFFFFFFFFFFFFFFFFF
310
FF0000FFFFFFFFFFFFFFFFFFFFFFFFFFFFFFFFFFFFFFFFFFFFFFFFFFFFFFFFFFFF0000FFFFFFFFFFFFFFFFFFFFFFFFFFFFFFFFFFFFFFFFFFFFFFFFFFFFFFFFFFFF0000FFFFFFFFFFFFFFFFFFFFFFFFFFFFFFFFFFFFFFFFFFFFFFFFFFFFFFFFFFFF0000FFFFFFFFFFFFFFFFFFFFFFFFFFFFFFFFFFFFFFFFFFFFFFFFFFFFFFFF
310
FFFF0000FFFFFFFFFFFFFFFFFFFFFFFFFFFFFFFFFFFFFFFFFFFFFFFFFFFFFFFFFFFF0000FFFFFFFFFFFFFFFFFFFFFFFFFFFFFFFFFFFFFFFFFFFFFFFFFFFFFFFFFFFF0000FFFFFFFFFFFFFFFFFFFFFFFFFFFFFFFFFFFFFFFFFFFFFFFFFFFFFFFFFFFF0000FFFFFFFFFFFFFFFFFFFFFFFFFFFFFFFFFFFFFFFFFFFFFFFFFFFFFF
310
FFFFFF0000FFFFFFFFFFFFFFFFFFFFFFFFFFFFFFFFFFFFFFFFFFFFFFFFFFFFFFFFFFFF0000FFFFFFFFFFFFFFFFFFFFFFFFFFFFFFFFFFFFFFFFFFFFFFFFFFFFFFFFFFFF0000FFFFFFFFFFFFFFFFFFFFFFFFFFFFFFFFFFFFFFFFFFFFFFFFFFFFFFFFFFFF0000FFFFFFFFFFFFFFFFFFFFFFFFFFFFFFFFFFFFFFFFFFFFFFFFFFFF
310
FFFFFFFF0000FFFFFFFFFFFFFFFFFFFFFFFFFFFFFFFFFFFFFFFFFFFFFFFFFFFFFFFFFFFF0000FFFFFFFFFFFFFFFFFFFFFFFFFFFFFFFFFFFFFFFFFFFFFFFFFFFFFFFFFFFF0000FFFFFFFFFFFFFFFFFFFFFFFFFFFFFFFFFFFFFFFFFFFFFFFFFFFFFFFFFFFF0000FFFFFFFFFFFFFFFFFFFFFFFFFFFFFFFFFFFFFFFFFFFFFFFFFF
310
FFFFFFFFFF0000FFFFFFFFFFFFFFFFFFFFFFFFFFFFFFFFFFFFFFFFFFFFFFFFFFFFFFFFFFFF0000FFFFFFFFFFFFFFFFFFFFFFFFFFFFFFFFFFFFFFFFFFFFFFFFFFFFFFFFFFFF0000FFFFFFFFFFFFFFFFFFFFFFFFFFFFFFFFFFFFFFFFFFFFFFFFFFFFFFFFFFFF0000FFFFFFFFFFFFFFFFFFFFFFFFFFFFFFFFFFFFFFFFFFFFFFFF
310
FFFFFFFFFFFF0000FFFFFFFFFFFFFFFFFFFFFFFFFFFFFFFFFFFFFFFFFFFFFFFFFFFFFFFFFFFF0000FFFFFFFFFFFFFFFFFFFFFFFFFFFFFFFFFFFFFFFFFFFFFFFFFFFFFFFFFFFF0000FFFFFFFFFFFFFFFFFFFFFFFFFFFFFFFFFFFFFFFFFFFFFFFFFFFFFFFFFFFF0000FFFFFFFFFFFFFFFFFFFFFFFFFFFFFFFFFFFFFFFFFFFFFF
310
FFFFFFFFFFFFFF0000FFFFFFFFFFFFFFFFFFFFFFFFFFFFFFFFFFFFFFFFFFFFFFFFFFFFFFFFFFFFFFFFFFFFFFFFFFFFFFFFFFFFFFFFFFFFFF
102
{BLKREFS
331
27F4
102
}
  0
BLOCK_RECORD
  5
27DE
330
2520
100
AcDbSymbolTableRecord
100
AcDbBlockTableRecord
  2
AI9-BLK2
340
0
310
2800000020000000200000000100080000000000000400000000000000000000000000000000000000000000000080000080000000808000800000008000800080800000C0C0C000C0DCC000F0CAA6000020400000206000002080000020A0000020C0000020E00000400000004020000040400000406000004080000040A0
310
000040C0000040E00000600000006020000060400000606000006080000060A0000060C0000060E00000800000008020000080400000806000008080000080A0000080C0000080E00000A0000000A0200000A0400000A0600000A0800000A0A00000A0C00000A0E00000C0000000C0200000C0400000C0600000C0800000C0
310
A00000C0C00000C0E00000E0000000E0200000E0400000E0600000E0800000E0A00000E0C00000E0E00040000000400020004000400040006000400080004000A0004000C0004000E00040200000402020004020400040206000402080004020A0004020C0004020E000404000004040200040404000404060004040800040
310
40A0004040C0004040E00040600000406020004060400040606000406080004060A0004060C0004060E00040800000408020004080400040806000408080004080A0004080C0004080E00040A0000040A0200040A0400040A0600040A0800040A0A00040A0C00040A0E00040C0000040C0200040C0400040C0600040C08000
310
40C0A00040C0C00040C0E00040E0000040E0200040E0400040E0600040E0800040E0A00040E0C00040E0E00080000000800020008000400080006000800080008000A0008000C0008000E00080200000802020008020400080206000802080008020A0008020C0008020E00080400000804020008040400080406000804080
310
008040A0008040C0008040E00080600000806020008060400080606000806080008060A0008060C0008060E00080800000808020008080400080806000808080008080A0008080C0008080E00080A0000080A0200080A0400080A0600080A0800080A0A00080A0C00080A0E00080C0000080C0200080C0400080C0600080C0
310
800080C0A00080C0C00080C0E00080E0000080E0200080E0400080E0600080E0800080E0A00080E0C00080E0E000C0000000C0002000C0004000C0006000C0008000C000A000C000C000C000E000C0200000C0202000C0204000C0206000C0208000C020A000C020C000C020E000C0400000C0402000C0404000C0406000C0
310
408000C040A000C040C000C040E000C0600000C0602000C0604000C0606000C0608000C060A000C060C000C060E000C0800000C0802000C0804000C0806000C0808000C080A000C080C000C080E000C0A00000C0A02000C0A04000C0A06000C0A08000C0A0A000C0A0C000C0A0E000C0C00000C0C02000C0C04000C0C06000
310
C0C08000C0C0A000F0FBFF00A4A0A000808080000000FF0000FF000000FFFF00FF000000FF00FF00FFFF0000FFFFFF00FFFFFFFFFFFFFFFFFFFFFFFFFFFFFFFFFFFFFFFFFFFFFFFFFFFFFFFFFFFFFFFFFFFFFFFFFFFFFFFFFFFFFFFFFFFFFF0000FFFFFFFFFFFFFFFFFFFFFFFFFFFFFFFFFFFFFFFFFFFFFFFFFFFFFFFFFFFF
310
0000FFFFFFFFFFFFFFFFFFFFFFFFFFFFFFFFFFFFFFFFFFFFFFFFFFFFFFFFFFFF0000FFFFFFFFFFFFFFFFFFFFFFFFFFFFFFFFFFFFFFFFFFFFFFFFFFFFFFFFFF00FFFF00FFFFFFFFFFFFFFFFFFFFFFFFFFFFFFFFFFFFFFFFFFFFFFFFFFFFFFFF00FFFF00FFFFFFFFFFFFFFFFFFFFFFFFFFFFFFFFFFFFFFFFFFFFFFFFFFFFFFFF
310
00FF0000FFFFFFFFFFFFFFFFFFFFFFFFFFFFFFFFFFFFFFFFFFFFFFFFFFFFFFFF00FF0000FFFFFFFFFFFFFFFFFFFFFFFFFFFFFFFFFFFFFFFFFFFFFFFFFFFFFFFF00FF0000FFFFFFFFFFFFFFFFFFFFFFFFFFFFFFFFFFFFFFFFFFFFFFFFFFFFFFFF00000000FFFFFFFFFFFFFFFFFFFFFFFFFFFFFFFFFFFFFFFFFFFFFFFFFFFFFF
310
00FF00FF0000FFFFFFFFFFFFFFFFFFFFFFFFFFFFFFFFFFFFFFFFFFFFFFFFFFFF00FF00FF0000FFFFFFFFFFFFFFFFFFFFFFFFFFFFFFFFFFFFFFFFFFFFFFFFFFFF00FF00FF0000FFFFFFFFFFFFFFFFFFFFFFFFFFFFFFFFFFFFFFFFFFFFFFFFFFFF00FF00FF0000FFFFFFFFFFFFFFFFFFFFFFFFFFFFFFFFFFFFFFFFFFFFFFFFFF
310
FF00FF00FF0000FFFFFFFFFFFFFFFFFFFFFFFFFFFFFFFFFFFFFFFFFFFFFFFFFFFF0000FFFF0000FFFFFFFFFFFFFFFFFFFFFFFFFFFFFFFFFFFFFFFFFFFFFFFFFF00FF00FFFF00FF00FFFFFFFFFFFFFFFFFFFFFFFFFFFFFFFFFFFFFFFFFFFFFFFF00FF00FFFF00FF00FFFFFFFFFFFFFFFFFFFFFFFFFFFFFFFFFFFFFFFFFFFFFF
310
FF00FF00FFFFFF0000FFFFFFFFFFFFFFFFFFFFFFFFFFFFFFFFFFFFFFFFFFFFFFFF00FF00FFFFFF0000FFFFFFFFFFFFFFFFFFFFFFFFFFFFFFFFFFFFFFFFFFFFFFFF00FF00FFFFFF0000FFFFFFFFFFFFFFFFFFFFFFFFFFFFFFFFFFFFFFFFFFFFFFFF0000FFFFFFFF0000FFFFFFFFFFFFFFFFFFFFFFFFFFFFFFFFFFFFFFFFFFFF
310
FF00FF00FFFFFFFF00FF00FFFFFFFFFFFFFFFFFFFFFFFFFFFFFFFFFFFFFFFFFFFF00FF00FFFFFFFF00FF00FFFFFFFFFFFFFFFFFFFFFFFFFFFFFFFFFFFFFFFFFFFF00FF00FFFFFFFF00FF00FFFFFFFFFFFFFFFFFFFFFFFFFFFFFFFFFFFFFFFFFFFF00FF00FFFFFFFF00FF00FFFFFFFFFFFFFFFFFFFFFFFFFFFFFFFFFFFFFFFF
310
FFFF00FF00FFFFFFFFFF0000FFFFFFFFFFFFFFFFFFFFFFFFFFFFFFFFFFFFFFFFFFFF0000FFFFFFFFFFFF0000FFFFFFFFFFFFFFFFFFFFFFFFFFFFFFFFFFFFFFFFFF00FF00FFFFFFFFFFFF00FF00FFFFFFFFFFFFFFFFFFFFFFFFFFFFFFFFFFFFFFFF00FF00FFFFFFFFFFFF00FF00FFFFFFFFFFFFFFFFFFFFFFFFFFFFFFFFFFFF
310
FFFF000000FFFFFFFFFFFF000000FFFFFFFFFFFFFFFFFFFFFFFFFFFFFFFFFFFFFFFFFFFFFFFFFFFFFFFFFFFFFFFFFFFFFFFFFFFFFFFFFFFF
102
{BLKREFS
331
27F5
102
}
  0
BLOCK_RECORD
  5
27E3
330
2520
100
AcDbSymbolTableRecord
100
AcDbBlockTableRecord
  2
AI9-BLK1
340
0
310
2800000020000000200000000100080000000000000400000000000000000000000000000000000000000000000080000080000000808000800000008000800080800000C0C0C000C0DCC000F0CAA6000020400000206000002080000020A0000020C0000020E00000400000004020000040400000406000004080000040A0
310
000040C0000040E00000600000006020000060400000606000006080000060A0000060C0000060E00000800000008020000080400000806000008080000080A0000080C0000080E00000A0000000A0200000A0400000A0600000A0800000A0A00000A0C00000A0E00000C0000000C0200000C0400000C0600000C0800000C0
310
A00000C0C00000C0E00000E0000000E0200000E0400000E0600000E0800000E0A00000E0C00000E0E00040000000400020004000400040006000400080004000A0004000C0004000E00040200000402020004020400040206000402080004020A0004020C0004020E000404000004040200040404000404060004040800040
310
40A0004040C0004040E00040600000406020004060400040606000406080004060A0004060C0004060E00040800000408020004080400040806000408080004080A0004080C0004080E00040A0000040A0200040A0400040A0600040A0800040A0A00040A0C00040A0E00040C0000040C0200040C0400040C0600040C08000
310
40C0A00040C0C00040C0E00040E0000040E0200040E0400040E0600040E0800040E0A00040E0C00040E0E00080000000800020008000400080006000800080008000A0008000C0008000E00080200000802020008020400080206000802080008020A0008020C0008020E00080400000804020008040400080406000804080
310
008040A0008040C0008040E00080600000806020008060400080606000806080008060A0008060C0008060E00080800000808020008080400080806000808080008080A0008080C0008080E00080A0000080A0200080A0400080A0600080A0800080A0A00080A0C00080A0E00080C0000080C0200080C0400080C0600080C0
310
800080C0A00080C0C00080C0E00080E0000080E0200080E0400080E0600080E0800080E0A00080E0C00080E0E000C0000000C0002000C0004000C0006000C0008000C000A000C000C000C000E000C0200000C0202000C0204000C0206000C0208000C020A000C020C000C020E000C0400000C0402000C0404000C0406000C0
310
408000C040A000C040C000C040E000C0600000C0602000C0604000C0606000C0608000C060A000C060C000C060E000C0800000C0802000C0804000C0806000C0808000C080A000C080C000C080E000C0A00000C0A02000C0A04000C0A06000C0A08000C0A0A000C0A0C000C0A0E000C0C00000C0C02000C0C04000C0C06000
310
C0C08000C0C0A000F0FBFF00A4A0A000808080000000FF0000FF000000FFFF00FF000000FF00FF00FFFF0000FFFFFF00FFFFFFFFFFFFFFFFFFFFFFFFFFFFFFFFFFFFFFFFFFFFFFFFFFFFFFFFFFFFFFFFFFFFFFFFFFFFFFFFFFFFFF00000000000000000000FFFFFFFFFFFFFFFFFFFFFFFFFFFFFFFFFFFFFFFFFFFF00FFFFFF
310
FFFFFFFFFF00FFFFFFFFFFFFFFFFFFFFFFFFFFFFFFFFFFFFFFFFFFFF00FFFFFFFFFFFFFFFF00FFFFFFFFFFFFFFFFFFFFFFFFFFFFFFFFFFFFFFFFFFFF00FFFFFFFFFFFFFFFF00FFFFFFFFFFFFFFFFFFFFFFFFFFFFFFFFFFFFFFFFFFFF00FF0000000000000000FFFFFFFFFFFFFFFFFFFFFFFFFFFFFFFFFFFFFFFFFFFF00FF00
310
FFFFFFFFFFFFFFFFFFFFFFFFFFFFFFFFFFFFFFFFFFFFFFFFFFFFFFFFFF00FF00FFFFFFFFFFFFFFFFFFFFFFFFFFFFFFFFFFFFFFFFFFFFFFFFFFFFFFFFFF00FF00FFFFFFFFFFFFFFFFFFFFFFFFFFFFFFFFFFFFFFFFFFFFFFFFFFFFFFFFFF00FF00FFFFFFFFFFFFFFFFFFFFFFFFFFFFFFFFFFFFFFFFFFFFFFFFFFFFFFFFFF00FF
310
00FFFFFFFFFFFFFFFFFFFFFFFFFFFFFFFFFFFFFFFFFFFFFFFFFFFFFFFFFF00FF00FFFFFFFFFFFFFFFFFFFFFFFFFFFFFFFFFFFFFFFFFFFFFFFFFFFFFFFFFF00FF00FFFFFFFFFFFFFFFFFFFFFFFFFFFFFFFFFFFFFFFFFFFFFFFFFFFFFFFFFF00FF00FFFFFFFFFFFFFFFFFFFFFFFFFFFFFFFFFFFFFFFFFFFFFFFFFFFFFFFFFF00
310
FF00000000000000FFFFFFFFFFFFFFFFFFFFFFFFFFFFFFFFFFFFFFFFFFFFFF00FFFFFFFFFFFFFF00FFFFFFFFFFFFFFFFFFFFFFFFFFFFFFFFFFFFFFFFFFFFFF00FFFFFFFFFFFFFF00FFFFFFFFFFFFFFFFFFFFFFFFFFFFFFFFFFFFFFFFFFFFFF00FFFFFFFFFFFFFF00FFFFFFFFFFFFFFFFFFFFFFFFFFFFFFFFFFFFFFFFFFFFFF
310
00FF00000000000000FFFFFFFFFFFFFFFFFFFFFFFFFFFFFFFFFFFFFFFFFFFFFF00FF00FFFFFFFFFFFFFFFFFFFFFFFFFFFFFFFFFFFFFFFFFFFFFFFFFFFFFFFFFF00FF00FFFFFFFFFFFFFFFFFFFFFFFFFFFFFFFFFFFFFFFFFFFFFFFFFFFFFFFFFF00FF00FFFFFFFFFFFFFFFFFFFFFFFFFFFFFFFFFFFFFFFFFFFFFFFFFFFFFFFF
310
FF00FF00FFFFFFFFFFFFFFFFFFFFFFFFFFFFFFFFFFFFFFFFFFFFFFFFFFFFFFFFFF00FF00FFFFFFFFFFFFFFFFFFFFFFFFFFFFFFFFFFFFFFFFFFFFFFFFFFFFFFFFFF00FF00FFFFFFFFFFFFFFFFFFFFFFFFFFFFFFFFFFFFFFFFFFFFFFFFFFFFFFFFFF00FF00FFFFFFFFFFFFFFFFFFFFFFFFFFFFFFFFFFFFFFFFFFFFFFFFFFFFFF
310
FFFF00FF0000000000000000FFFFFFFFFFFFFFFFFFFFFFFFFFFFFFFFFFFFFFFFFFFF00FFFFFFFFFFFFFFFF00FFFFFFFFFFFFFFFFFFFFFFFFFFFFFFFFFFFFFFFFFFFF00FFFFFFFFFFFFFFFF00FFFFFFFFFFFFFFFFFFFFFFFFFFFFFFFFFFFFFFFFFFFF00FFFFFFFFFFFFFFFF00FFFFFFFFFFFFFFFFFFFFFFFFFFFFFFFFFFFFFF
310
FFFFFF00000000000000000000FFFFFFFFFFFFFFFFFFFFFFFFFFFFFFFFFFFFFFFFFFFFFFFFFFFFFFFFFFFFFFFFFFFFFFFFFFFFFFFFFFFFFF
102
{BLKREFS
331
27F6
102
}
  0
BLOCK_RECORD
  5
27E8
330
2520
100
AcDbSymbolTableRecord
100
AcDbBlockTableRecord
  2
HD_LLC_logo_OT5
340
0
310
2800000020000000200000000100080000000000000400000000000000000000000000000000000000000000000080000080000000808000800000008000800080800000C0C0C000C0DCC000F0CAA6000020400000206000002080000020A0000020C0000020E00000400000004020000040400000406000004080000040A0
310
000040C0000040E00000600000006020000060400000606000006080000060A0000060C0000060E00000800000008020000080400000806000008080000080A0000080C0000080E00000A0000000A0200000A0400000A0600000A0800000A0A00000A0C00000A0E00000C0000000C0200000C0400000C0600000C0800000C0
310
A00000C0C00000C0E00000E0000000E0200000E0400000E0600000E0800000E0A00000E0C00000E0E00040000000400020004000400040006000400080004000A0004000C0004000E00040200000402020004020400040206000402080004020A0004020C0004020E000404000004040200040404000404060004040800040
310
40A0004040C0004040E00040600000406020004060400040606000406080004060A0004060C0004060E00040800000408020004080400040806000408080004080A0004080C0004080E00040A0000040A0200040A0400040A0600040A0800040A0A00040A0C00040A0E00040C0000040C0200040C0400040C0600040C08000
310
40C0A00040C0C00040C0E00040E0000040E0200040E0400040E0600040E0800040E0A00040E0C00040E0E00080000000800020008000400080006000800080008000A0008000C0008000E00080200000802020008020400080206000802080008020A0008020C0008020E00080400000804020008040400080406000804080
310
008040A0008040C0008040E00080600000806020008060400080606000806080008060A0008060C0008060E00080800000808020008080400080806000808080008080A0008080C0008080E00080A0000080A0200080A0400080A0600080A0800080A0A00080A0C00080A0E00080C0000080C0200080C0400080C0600080C0
310
800080C0A00080C0C00080C0E00080E0000080E0200080E0400080E0600080E0800080E0A00080E0C00080E0E000C0000000C0002000C0004000C0006000C0008000C000A000C000C000C000E000C0200000C0202000C0204000C0206000C0208000C020A000C020C000C020E000C0400000C0402000C0404000C0406000C0
310
408000C040A000C040C000C040E000C0600000C0602000C0604000C0606000C0608000C060A000C060C000C060E000C0800000C0802000C0804000C0806000C0808000C080A000C080C000C080E000C0A00000C0A02000C0A04000C0A06000C0A08000C0A0A000C0A0C000C0A0E000C0C00000C0C02000C0C04000C0C06000
310
C0C08000C0C0A000F0FBFF00A4A0A000808080000000FF0000FF000000FFFF00FF000000FF00FF00FFFF0000FFFFFF00FFFFFFFFFFFFFFFFFFFFFFFFFFFFFFFFFFFFFFFFFFFFFFFFFFFFFFFFFFFFFFFFFFFFFFFFFFFFFFFFFFFFFFFFFFFFFFFFFFFFFFFFFFFFFFFFFFFFFFFFFFFFFFFFFFFFFFFFFFFFFFFFFFFFFFFFFFFFFF
310
FFFFFFFFFFFFFFFFFFFFFFFFFFFFFFFFFFFFFFFFFFFFFFFFFFFFFFFFFFFFFFFFFFFFFFFFFFFFFFFFFFFFFFFFFFFFFFFFFFFFFFFFFFFFFFFFFFFFFFFFFFFFFFFFFFFFFFFFFFFFFFFFFFFFFFFFFFFFFFFFFFFFFFFFFFFFFFFFFFFFFFFFFFFFFFFFFFFFFFFFFFFFFFFFFFFFFFFFFFFFFFFFFFFFFFFFFFFFFFFFFFFFFFFFFFFFFF
310
FFFFFFFFFFFFFFFFFFFFFFFFFFFFFFFFFFFFFFFFFFFFFFFFFFFFFFFFFFFFFFFFFFFFFFFFFFFFFFFFFFFFFFFFFFFFFFFFFFFFFFFFFFFFFFFFFFFFFFFFFFFFFFFFFFFFFFFFFFFFFFFFFFFFFFFFFFFFFFFFFFFFFFFFFFFFFFFFFFFFFFFFFFFFFFFFFFFFFFFFFFFFFFFFFFFFFFFFFFFFFFFFFFFFFFFFFFFFFFFFFFFFFFFFFFFFFF
310
FFFFFFFFFFFFFFFFFFFFFFFFFFFFFFFFFFFFFFFFFFFFFFFFFFFFFFFFFFFFFFFFFFFFFFFFFFFFFFFFFFFFFFFFFFFFFFFFFFFFFFFF0000000000000000000000000000000000000000000000000000000000FFFFFF0000000000000000000000000000000000FFFFFFFFFFFFFFFFFFFF0000FFFFFF0000000000000000000000
310
00000000000000FFFFFFFFFFFFFFFFFFFF0000FFFF000000000000000000000000000000000000FFFFFF00000000FFFFFF0000FFFF00FFFFFFFFFFFF00FFFFFF00FFFFFFFFFF00FFFFFF0000000000FFFF0000FFFF00FFFFFFFFFFFF00FFFFFF00FFFFFFFFFF00FFFFFF00FFFF0000FFFF0000FFFF00FFFFFFFFFFFF00FFFF
310
00FFFFFFFFFFFF00FFFFFF00FFFF0000FFFF0000FFFF0000000000FFFF00000000FFFFFF00000000FFFFFF00000000FFFFFF0000FFFFFFFFFFFF00FFFFFFFFFFFFFFFFFF00FFFFFFFFFFFFFFFFFFFFFFFFFF0000FFFFFFFFFFFF00FFFFFFFFFFFFFFFFFF00FFFFFFFFFFFFFFFFFFFFFFFFFF0000FFFFFFFFFFFF00FFFFFFFF
310
FFFFFFFFFF00FFFFFFFFFFFFFFFFFFFFFFFF0000FFFFFF0000000000FFFF00000000FFFFFF0000000000000000000000000000FFFFFFFF00FFFFFFFFFFFF00FFFF00FFFFFFFFFFFF00FFFFFFFFFFFFFFFFFFFFFFFFFFFF00FFFFFFFFFFFF00FFFFFF00FFFFFFFFFF00FFFFFFFFFFFFFFFFFFFFFFFFFFFF0000000000000000
310
FFFFFF00000000000000FFFFFFFFFFFFFFFFFFFFFFFFFFFFFFFFFFFFFFFFFFFFFFFFFFFFFFFFFFFFFFFFFFFFFFFFFFFFFFFFFFFFFFFFFFFFFFFFFFFFFFFFFFFFFFFFFFFFFFFFFFFFFFFFFFFFFFFFFFFFFFFFFFFFFFFFFFFFFFFFFFFFFFFFFFFFFFFFFFFFFFFFFFFFFFFFFFFFFFFFFFFFFFFFFFFFFFFFFFFFFFFFFFFFFFFFFF
310
FFFFFFFFFFFFFFFFFFFFFFFFFFFFFFFFFFFFFFFFFFFFFFFFFFFFFFFFFFFFFFFFFFFFFFFFFFFFFFFFFFFFFFFFFFFFFFFFFFFFFFFFFFFFFFFF
102
{BLKREFS
331
280E
102
}
  0
BLOCK_RECORD
  5
280D
330
2520
100
AcDbSymbolTableRecord
100
AcDbBlockTableRecord
  2
HD logo-new
340
0
310
2800000020000000200000000100080000000000000400000000000000000000000000000000000000000000000080000080000000808000800000008000800080800000C0C0C000C0DCC000F0CAA6000020400000206000002080000020A0000020C0000020E00000400000004020000040400000406000004080000040A0
310
000040C0000040E00000600000006020000060400000606000006080000060A0000060C0000060E00000800000008020000080400000806000008080000080A0000080C0000080E00000A0000000A0200000A0400000A0600000A0800000A0A00000A0C00000A0E00000C0000000C0200000C0400000C0600000C0800000C0
310
A00000C0C00000C0E00000E0000000E0200000E0400000E0600000E0800000E0A00000E0C00000E0E00040000000400020004000400040006000400080004000A0004000C0004000E00040200000402020004020400040206000402080004020A0004020C0004020E000404000004040200040404000404060004040800040
310
40A0004040C0004040E00040600000406020004060400040606000406080004060A0004060C0004060E00040800000408020004080400040806000408080004080A0004080C0004080E00040A0000040A0200040A0400040A0600040A0800040A0A00040A0C00040A0E00040C0000040C0200040C0400040C0600040C08000
310
40C0A00040C0C00040C0E00040E0000040E0200040E0400040E0600040E0800040E0A00040E0C00040E0E00080000000800020008000400080006000800080008000A0008000C0008000E00080200000802020008020400080206000802080008020A0008020C0008020E00080400000804020008040400080406000804080
310
008040A0008040C0008040E00080600000806020008060400080606000806080008060A0008060C0008060E00080800000808020008080400080806000808080008080A0008080C0008080E00080A0000080A0200080A0400080A0600080A0800080A0A00080A0C00080A0E00080C0000080C0200080C0400080C0600080C0
310
800080C0A00080C0C00080C0E00080E0000080E0200080E0400080E0600080E0800080E0A00080E0C00080E0E000C0000000C0002000C0004000C0006000C0008000C000A000C000C000C000E000C0200000C0202000C0204000C0206000C0208000C020A000C020C000C020E000C0400000C0402000C0404000C0406000C0
310
408000C040A000C040C000C040E000C0600000C0602000C0604000C0606000C0608000C060A000C060C000C060E000C0800000C0802000C0804000C0806000C0808000C080A000C080C000C080E000C0A00000C0A02000C0A04000C0A06000C0A08000C0A0A000C0A0C000C0A0E000C0C00000C0C02000C0C04000C0C06000
310
C0C08000C0C0A000F0FBFF00A4A0A000808080000000FF0000FF000000FFFF00FF000000FF00FF00FFFF0000FFFFFF00FFFFFFFFFFFFFFFFFFFFFFFFFFFFFFFFFFFFFFFFFFFFFFFFFFFFFFFFFFFFFFFFFFFFFFFFFFFFFFFFFFFFFFFFFFFFFFFFFFFFFFFFFFFFFFFFFFFFFFFFFFFFFFFFFFFFFFFFFFFFFFFFFFFFFFFFFFFFFF
310
FFFFFFFFFFFFFFFFFFFFFFFFFFFFFFFFFFFFFFFFFFFFFFFFFFFFFFFFFFFFFFFFFFFFFFFFFFFFFFFFFFFFFFFFFFFFFFFFFFFFFFFFFFFFFFFFFFFFFFFFFFFFFFFFFFFFFFFFFFFFFFFFFFFFFFFFFFFFFFFFFFFFFFFFFFFFFFFFFFFFFFFFFFFFFFFFFFFFFFFFFFFFFFFFFFFFFFFFFFFFFFFFFFFFFFFFFFFFFFFFFFFFFFFFFFFFFF
310
FFFFFFFFFFFFFFFFFFFFFFFFFFFFFFFFFFFFFFFFFFFFFFFFFFFFFFFFFFFFFFFFFFFFFFFFFFFFFFFFFFFFFFFFFFFFFFFFFFFFFFFFFFFFFFFFFFFFFFFFFFFFFFFFFFFFFFFFFFFFFFFFFFFFFFFFFFFFFFFFFFFFFFFFFFFFFFFFFFFFFFFFFFFFFFFFFFFFFFFFFFFFFFFFFFFFFFFFFFFFFFFFFFFFFFFFFFFFFFFFFFFFFFFFFFFFFF
310
FFFFFFFFFFFFFFFFFFFFFFFFFFFFFFFFFFFFFFFFFFFFFFFFFFFFFFFFFFFFFFFFFFFFFFFFFFFFFFFFFFFFFFFFFFFFFFFFFFFFFFFF0000000000000000000000000000000000000000000000000000000000FFFFFF0000000000000000000000000000000000FFFFFFFFFFFFFFFFFFFF0000FFFFFF0000000000000000000000
310
00000000000000FFFFFFFFFFFFFFFFFFFF0000FFFF000000000000000000000000000000000000FFFFFF00000000FFFFFF0000FFFF00FFFFFFFFFFFF00FFFFFF00FFFFFFFFFF00FFFFFF0000000000FFFF0000FFFF00FFFFFFFFFFFF00FFFFFF00FFFFFFFFFF00FFFFFF00FFFF0000FFFF0000FFFF00FFFFFFFFFFFF00FFFF
310
00FFFFFFFFFFFF00FFFFFF00FFFF0000FFFF0000FFFF0000000000FFFF00000000FFFFFF00000000FFFFFF00000000FFFFFF0000FFFFFFFFFFFF00FFFFFFFFFFFFFFFFFF00FFFFFFFFFFFFFFFFFFFFFFFFFF0000FFFFFFFFFFFF00FFFFFFFFFFFFFFFFFF00FFFFFFFFFFFFFFFFFFFFFFFFFF0000FFFFFFFFFFFF00FFFFFFFF
310
FFFFFFFFFF00FFFFFFFFFFFFFFFFFFFFFFFF0000FFFFFF0000000000FFFF00000000FFFFFF0000000000000000000000000000FFFFFFFF00FFFFFFFFFFFF00FFFF00FFFFFFFFFFFF00FFFFFFFFFFFFFFFFFFFFFFFFFFFF00FFFFFFFFFFFF00FFFFFF00FFFFFFFFFF00FFFFFFFFFFFFFFFFFFFFFFFFFFFF0000000000000000
310
FFFFFF00000000000000FFFFFFFFFFFFFFFFFFFFFFFFFFFFFFFFFFFFFFFFFFFFFFFFFFFFFFFFFFFFFFFFFFFFFFFFFFFFFFFFFFFFFFFFFFFFFFFFFFFFFFFFFFFFFFFFFFFFFFFFFFFFFFFFFFFFFFFFFFFFFFFFFFFFFFFFFFFFFFFFFFFFFFFFFFFFFFFFFFFFFFFFFFFFFFFFFFFFFFFFFFFFFFFFFFFFFFFFFFFFFFFFFFFFFFFFFF
310
FFFFFFFFFFFFFFFFFFFFFFFFFFFFFFFFFFFFFFFFFFFFFFFFFFFFFFFFFFFFFFFFFFFFFFFFFFFFFFFFFFFFFFFFFFFFFFFFFFFFFFFFFFFFFFFF
102
{BLKREFS
331
2812
102
}
  0
BLOCK_RECORD
  5
2811
330
2520
100
AcDbSymbolTableRecord
100
AcDbBlockTableRecord
  2
HD Logo
340
0
310
2800000020000000200000000100080000000000000400000000000000000000000000000000000000000000000080000080000000808000800000008000800080800000C0C0C000C0DCC000F0CAA6000020400000206000002080000020A0000020C0000020E00000400000004020000040400000406000004080000040A0
310
000040C0000040E00000600000006020000060400000606000006080000060A0000060C0000060E00000800000008020000080400000806000008080000080A0000080C0000080E00000A0000000A0200000A0400000A0600000A0800000A0A00000A0C00000A0E00000C0000000C0200000C0400000C0600000C0800000C0
310
A00000C0C00000C0E00000E0000000E0200000E0400000E0600000E0800000E0A00000E0C00000E0E00040000000400020004000400040006000400080004000A0004000C0004000E00040200000402020004020400040206000402080004020A0004020C0004020E000404000004040200040404000404060004040800040
310
40A0004040C0004040E00040600000406020004060400040606000406080004060A0004060C0004060E00040800000408020004080400040806000408080004080A0004080C0004080E00040A0000040A0200040A0400040A0600040A0800040A0A00040A0C00040A0E00040C0000040C0200040C0400040C0600040C08000
310
40C0A00040C0C00040C0E00040E0000040E0200040E0400040E0600040E0800040E0A00040E0C00040E0E00080000000800020008000400080006000800080008000A0008000C0008000E00080200000802020008020400080206000802080008020A0008020C0008020E00080400000804020008040400080406000804080
310
008040A0008040C0008040E00080600000806020008060400080606000806080008060A0008060C0008060E00080800000808020008080400080806000808080008080A0008080C0008080E00080A0000080A0200080A0400080A0600080A0800080A0A00080A0C00080A0E00080C0000080C0200080C0400080C0600080C0
310
800080C0A00080C0C00080C0E00080E0000080E0200080E0400080E0600080E0800080E0A00080E0C00080E0E000C0000000C0002000C0004000C0006000C0008000C000A000C000C000C000E000C0200000C0202000C0204000C0206000C0208000C020A000C020C000C020E000C0400000C0402000C0404000C0406000C0
310
408000C040A000C040C000C040E000C0600000C0602000C0604000C0606000C0608000C060A000C060C000C060E000C0800000C0802000C0804000C0806000C0808000C080A000C080C000C080E000C0A00000C0A02000C0A04000C0A06000C0A08000C0A0A000C0A0C000C0A0E000C0C00000C0C02000C0C04000C0C06000
310
C0C08000C0C0A000F0FBFF00A4A0A000808080000000FF0000FF000000FFFF00FF000000FF00FF00FFFF0000FFFFFF00FFFFFFFFFFFFFFFFFFFFFFFFFFFFFFFFFFFFFFFFFFFFFFFFFFFFFFFFFFFFFFFFFFFFFFFFFFFFFFFFFFFFFFFFFFFFFFFFFFFFFFFFFFFFFFFFFFFFFFFFFFFFFFFFFFFFFFFFFFFFFFFFFFFFFFFFFFFFFF
310
FFFFFFFFFFFFFFFFFFFFFFFFFFFFFFFFFFFFFFFFFFFFFFFFFFFFFFFFFFFFFFFFFFFFFFFFFFFFFFFFFFFFFFFFFFFFFFFFFFFFFFFFFFFFFFFFFFFFFFFFFFFFFFFFFFFFFFFFFFFFFFFFFFFFFFFFFFFFFFFFFFFFFFFFFFFFFFFFFFFFFFFFFFFFFFFFFFFFFFFFFFFFFFFFFFFFFFFFFFFFFFFFFFFFFFFFFFFFFFFFFFFFFFFFFFFFFF
310
FFFFFFFFFFFFFFFFFFFFFFFFFFFFFFFFFFFFFFFFFFFFFFFFFFFFFFFFFFFFFFFFFFFFFFFFFFFFFFFFFFFFFFFFFFFFFFFFFFFFFFFFFFFFFFFFFFFFFFFFFFFFFFFFFFFFFFFFFFFFFFFFFFFFFFFFFFFFFFFFFFFFFFFFFFFFFFFFFFFFFFFFFFFFFFFFFFFFFFFFFFFFFFFFFFFFFFFFFFFFFFFFFFFFFFFFFFFFFFFFFFFFFFFFFFFFFF
310
FFFFFFFFFFFFFFFFFFFFFFFFFFFFFFFFFFFFFFFFFFFFFFFFFFFFFFFFFFFFFFFFFFFFFFFFFFFFFFFFFFFFFFFFFFFFFFFFFFFFFFFF0000000000000000000000000000000000000000000000000000000000FFFFFF0000000000000000000000000000000000FFFFFFFFFFFFFFFFFFFF0000FFFFFF0000000000000000000000
310
00000000000000FFFFFFFFFFFFFFFFFFFF0000FFFF000000000000000000000000000000000000FFFFFF00000000FFFFFF0000FFFF00FFFFFFFFFFFF00FFFFFF00FFFFFFFFFF00FFFFFF0000000000FFFF0000FFFF00FFFFFFFFFFFF00FFFFFF00FFFFFFFFFF00FFFFFF00FFFF0000FFFF0000FFFF00FFFFFFFFFFFF00FFFF
310
00FFFFFFFFFFFF00FFFFFF00FFFF0000FFFF0000FFFF0000000000FFFF00000000FFFFFF00000000FFFFFF00000000FFFFFF0000FFFFFFFFFFFF00FFFFFFFFFFFFFFFFFF00FFFFFFFFFFFFFFFFFFFFFFFFFF0000FFFFFFFFFFFF00FFFFFFFFFFFFFFFFFF00FFFFFFFFFFFFFFFFFFFFFFFFFF0000FFFFFFFFFFFF00FFFFFFFF
310
FFFFFFFFFF00FFFFFFFFFFFFFFFFFFFFFFFF0000FFFFFF0000000000FFFF00000000FFFFFF0000000000000000000000000000FFFFFFFF00FFFFFFFFFFFF00FFFF00FFFFFFFFFFFF00FFFFFFFFFFFFFFFFFFFFFFFFFFFF00FFFFFFFFFFFF00FFFFFF00FFFFFFFFFF00FFFFFFFFFFFFFFFFFFFFFFFFFFFF0000000000000000
310
FFFFFF00000000000000FFFFFFFFFFFFFFFFFFFFFFFFFFFFFFFFFFFFFFFFFFFFFFFFFFFFFFFFFFFFFFFFFFFFFFFFFFFFFFFFFFFFFFFFFFFFFFFFFFFFFFFFFFFFFFFFFFFFFFFFFFFFFFFFFFFFFFFFFFFFFFFFFFFFFFFFFFFFFFFFFFFFFFFFFFFFFFFFFFFFFFFFFFFFFFFFFFFFFFFFFFFFFFFFFFFFFFFFFFFFFFFFFFFFFFFFFF
310
FFFFFFFFFFFFFFFFFFFFFFFFFFFFFFFFFFFFFFFFFFFFFFFFFFFFFFFFFFFFFFFFFFFFFFFFFFFFFFFFFFFFFFFFFFFFFFFFFFFFFFFFFFFFFFFF
102
{BLKREFS
331
2817
331
281B
102
}
  0
BLOCK_RECORD
  5
2B6C
330
2520
100
AcDbSymbolTableRecord
100
AcDbBlockTableRecord
  2
NTC
340
0
310
2800000020000000200000000100080000000000000400000000000000000000000000000000000000000000000080000080000000808000800000008000800080800000C0C0C000C0DCC000F0CAA6000020400000206000002080000020A0000020C0000020E00000400000004020000040400000406000004080000040A0
310
000040C0000040E00000600000006020000060400000606000006080000060A0000060C0000060E00000800000008020000080400000806000008080000080A0000080C0000080E00000A0000000A0200000A0400000A0600000A0800000A0A00000A0C00000A0E00000C0000000C0200000C0400000C0600000C0800000C0
310
A00000C0C00000C0E00000E0000000E0200000E0400000E0600000E0800000E0A00000E0C00000E0E00040000000400020004000400040006000400080004000A0004000C0004000E00040200000402020004020400040206000402080004020A0004020C0004020E000404000004040200040404000404060004040800040
310
40A0004040C0004040E00040600000406020004060400040606000406080004060A0004060C0004060E00040800000408020004080400040806000408080004080A0004080C0004080E00040A0000040A0200040A0400040A0600040A0800040A0A00040A0C00040A0E00040C0000040C0200040C0400040C0600040C08000
310
40C0A00040C0C00040C0E00040E0000040E0200040E0400040E0600040E0800040E0A00040E0C00040E0E00080000000800020008000400080006000800080008000A0008000C0008000E00080200000802020008020400080206000802080008020A0008020C0008020E00080400000804020008040400080406000804080
310
008040A0008040C0008040E00080600000806020008060400080606000806080008060A0008060C0008060E00080800000808020008080400080806000808080008080A0008080C0008080E00080A0000080A0200080A0400080A0600080A0800080A0A00080A0C00080A0E00080C0000080C0200080C0400080C0600080C0
310
800080C0A00080C0C00080C0E00080E0000080E0200080E0400080E0600080E0800080E0A00080E0C00080E0E000C0000000C0002000C0004000C0006000C0008000C000A000C000C000C000E000C0200000C0202000C0204000C0206000C0208000C020A000C020C000C020E000C0400000C0402000C0404000C0406000C0
310
408000C040A000C040C000C040E000C0600000C0602000C0604000C0606000C0608000C060A000C060C000C060E000C0800000C0802000C0804000C0806000C0808000C080A000C080C000C080E000C0A00000C0A02000C0A04000C0A06000C0A08000C0A0A000C0A0C000C0A0E000C0C00000C0C02000C0C04000C0C06000
310
C0C08000C0C0A000F0FBFF00A4A0A000808080000000FF0000FF000000FFFF00FF000000FF00FF00FFFF0000FFFFFF00FFFFFFFFFFFFFFFFFFFFFFFFFFFFFFFFFFFFFFFFFFFFFFFFFFFFFFFFFFFFFFFFFFFFFFFFFFFFFFFFFFFFFFFFFFFFFFFFFFFFFFFFFFFFFFFFFFFFFFFFFFFFFFFFFFFFFFFFFFFFFFFFFFFFFFFFFFFFFF
310
FFFFFFFFFFFFFFFFFFFFFFFFFFFFFFFFFFFFFFFFFFFFFFFFFFFFFFFFFFFFFFFFFFFFFFFFFFFFFFFFFFFFFFFFFFFFFFFFFFFFFFFFFFFFFFFFFFFFFFFFFFFFFFFFFFFFFFFFFFFFFFFFFFFFFFFFFFFFFFFFFFFFFFFFFFFFFFFFFFFFFFFFFFFFFFFFFFFFFFFFFFFFFFFFFFFFFFFFFFFFFFFFFFFFFFFFFFFFFFFFFFFFFFFFFFFFFF
310
FFFFFFFFFFFFFFFFFFFFFFFFFFFFFFFFFFFFFFFFFFFFFFFFFFFFFFFFFFFFFFFFFFFFFFFFFFFFFFFFFFFFFFFFFFFFFFFFFFFFFFFFFFFFFFFFFFFFFFFFFFFFFFFFFFFFFFFFFFFFFFFFFFFFFFFFFFFFFFFFFFFFFFFFFFFFFFFFFFFFFFFFFFFFFFFFFFFFFFFFFFFFFFFFFFFFFFFFFFFFFFFFFFFFFFFFFFFFFFFFFFFFFFFFFFFFFF
310
FFFFFFFFFFFFFFFFFFFFFFFFFFFFFFFFFFFFFFFF000000000000000000000000000000000000000000000000000000000000FFFF00FF0000000000000000FFFFFFFFFFFFFFFFFFFFFFFFFFFFFFFFFFFFFF00FFFF00FF0000000000000000FFFFFFFFFFFFFFFFFFFFFFFFFFFFFFFFFFFFFF00FFFF00FF000000000000000000
310
00000000000000000000000000FFFFFFFFFF00FFFF00FF0000000000000000000000000000000000000000000000000000FF00FFFF00FF0000000000000000000000000000000000000000000000000000FF00FFFF00FF0000000000000000000000000000000000000000000000000000FF00FFFF00FF0000000000000000
310
00000000000000000000000000000000FFFFFF00FFFF00FF0000000000FFFFFFFFFFFFFFFFFFFFFFFFFFFFFFFFFFFFFFFFFFFF00FFFF000000000000000000000000000000000000000000000000000000000000FFFFFFFFFFFFFFFFFFFFFFFFFFFFFFFFFFFFFFFFFFFFFFFFFFFFFFFFFFFFFFFFFFFFFFFFFFFFFFFFFFFFFF
310
FFFFFFFFFFFFFFFFFFFFFFFFFFFFFFFFFFFFFFFFFFFFFFFFFFFFFFFFFFFFFFFFFFFFFFFFFFFFFFFFFFFFFFFFFFFFFFFFFFFFFFFFFFFFFFFFFFFFFFFFFFFFFFFFFFFFFFFFFFFFFFFFFFFFFFFFFFFFFFFFFFFFFFFFFFFFFFFFFFFFFFFFFFFFFFFFFFFFFFFFFFFFFFFFFFFFFFFFFFFFFFFFFFFFFFFFFFFFFFFFFFFFFFFFFFFFFF
310
FFFFFFFFFFFFFFFFFFFFFFFFFFFFFFFFFFFFFFFFFFFFFFFFFFFFFFFFFFFFFFFFFFFFFFFFFFFFFFFFFFFFFFFFFFFFFFFFFFFFFFFFFFFFFFFFFFFFFFFFFFFFFFFFFFFFFFFFFFFFFFFFFFFFFFFFFFFFFFFFFFFFFFFFFFFFFFFFFFFFFFFFFFFFFFFFFFFFFFFFFFFFFFFFFFFFFFFFFFFFFFFFFFFFFFFFFFFFFFFFFFFFFFFFFFFFFF
310
FFFFFFFFFFFFFFFFFFFFFFFFFFFFFFFFFFFFFFFFFFFFFFFFFFFFFFFFFFFFFFFFFFFFFFFFFFFFFFFFFFFFFFFFFFFFFFFFFFFFFFFFFFFFFFFF
102
{BLKREFS
331
2B72
331
2B78
102
}
  0
ENDTAB
  0
ENDSEC
  0
SECTION
  2
BLOCKS
  0
BLOCK
  5
253E
330
253D
100
AcDbEntity
  8
0
100
AcDbBlockBegin
  2
*Model_Space
 70
     0
 10
0.0
 20
0.0
 30
0.0
  3
*Model_Space
  1

  0
ENDBLK
  5
253F
330
253D
100
AcDbEntity
  8
0
100
AcDbBlockEnd
  0
BLOCK
  5
253A
330
2539
100
AcDbEntity
 67
     1
  8
0
100
AcDbBlockBegin
  2
*Paper_Space
 70
     0
 10
0.0
 20
0.0
 30
0.0
  3
*Paper_Space
  1

  0
ENDBLK
  5
253B
330
2539
100
AcDbEntity
 67
     1
  8
0
100
AcDbBlockEnd
  0
BLOCK
  5
2557
330
2556
100
AcDbEntity
  8
0
100
AcDbBlockBegin
  2
$MODEL_SPACE
 70
     0
 10
0.0
 20
0.0
 30
0.0
  3
$MODEL_SPACE
  1

  0
ENDBLK
  5
2558
330
2556
100
AcDbEntity
  8
0
100
AcDbBlockEnd
  0
BLOCK
  5
255A
330
2559
100
AcDbEntity
  8
0
100
AcDbBlockBegin
  2
$PAPER_SPACE
 70
     0
 10
0.0
 20
0.0
 30
0.0
  3
$PAPER_SPACE
  1

  0
ENDBLK
  5
255B
330
2559
100
AcDbEntity
  8
0
100
AcDbBlockEnd
  0
BLOCK
  5
2795
330
2793
100
AcDbEntity
  8
0
 62
     0
100
AcDbBlockBegin
  2
Harmonic Drive LLC
 70
     0
 10
0.0
 20
0.0
 30
0.0
  3
Harmonic Drive LLC
  1

  0
MTEXT
  5
2794
330
2793
100
AcDbEntity
  8
0
 62
     0
100
AcDbMText
 10
-23.89251808597145
 20
6.456139750676811
 30
0.0
 40
3.5
 41
107.857
 71
     1
 72
     5
  1
Harmonic Drive LLC\P631-231-6630\P{\H0.8571x;www.harmonicdrive.com}
 73
     1
 44
1.0
  0
ENDBLK
  5
2796
330
2793
100
AcDbEntity
  8
0
 62
     0
100
AcDbBlockEnd
  0
BLOCK
  5
27AC
330
27A9
100
AcDbEntity
  8
0
 62
     7
100
AcDbBlockBegin
  2
AI9-BLK14
 70
     0
 10
0.0
 20
0.0
 30
0.0
  3
AI9-BLK14
  1

  0
SPLINE
  5
27AA
330
27A9
100
AcDbEntity
  8
LAYER_1
 62
     7
100
AcDbSpline
210
0.0
220
0.0
230
1.0
 70
    11
 71
     3
 72
    23
 73
    19
 74
     0
 42
0.0000000001
 43
0.0000000001
 40
0.0
 40
0.0
 40
0.0
 40
0.0
 40
1.0
 40
1.0
 40
1.0
 40
2.0
 40
2.0
 40
2.0
 40
3.0
 40
3.0
 40
3.0
 40
4.0
 40
4.0
 40
4.0
 40
5.0
 40
5.0
 40
5.0
 40
6.0
 40
6.0
 40
6.0
 40
6.0
 10
-10.90321044921874
 20
10.88107571072048
 30
0.0
 10
-10.90321044921874
 20
10.88107571072048
 30
0.0
 10
-10.90321044921874
 20
-10.88107571072048
 30
0.0
 10
-10.90321044921874
 20
-10.88107571072048
 30
0.0
 10
-10.90321044921874
 20
-10.88107571072048
 30
0.0
 10
1.752692328559025
 20
-10.88107571072048
 30
0.0
 10
1.752692328559025
 20
-10.88107571072048
 30
0.0
 10
3.280592176649305
 20
-10.88107571072048
 30
0.0
 10
10.90321044921874
 20
-10.32383151584201
 30
0.0
 10
10.90321044921874
 20
0.6792867024739583
 30
0.0
 10
10.90321044921874
 20
10.61700914171006
 30
0.0
 10
2.773129611545138
 20
10.87952541775172
 30
0.0
 10
2.691136338975693
 20
10.88090345594618
 30
0.0
 10
2.691136338975693
 20
10.88090345594618
 30
0.0
 10
-9.903099229600693
 20
10.88107571072048
 30
0.0
 10
-9.903099229600693
 20
10.88107571072048
 30
0.0
 10
-9.903099229600693
 20
10.88107571072048
 30
0.0
 10
-10.90321044921874
 20
10.88107571072048
 30
0.0
 10
-10.90321044921874
 20
10.88107571072048
 30
0.0
  0
SPLINE
  5
27AB
330
27A9
100
AcDbEntity
  8
LAYER_1
 62
     7
100
AcDbSpline
210
0.0
220
0.0
230
1.0
 70
    11
 71
     3
 72
    20
 73
    16
 74
     0
 42
0.0000000001
 43
0.0000000001
 40
0.0
 40
0.0
 40
0.0
 40
0.0
 40
1.0
 40
1.0
 40
1.0
 40
2.0
 40
2.0
 40
2.0
 40
3.0
 40
3.0
 40
3.0
 40
4.0
 40
4.0
 40
4.0
 40
5.0
 40
5.0
 40
5.0
 40
5.0
 10
2.672877332899305
 20
8.881197781032986
 30
0.0
 10
2.905421278211805
 20
8.874307590060762
 30
0.0
 10
8.902988009982637
 20
8.616442192925347
 30
0.0
 10
8.902988009982637
 20
0.6792867024739583
 30
0.0
 10
8.902988009982637
 20
-8.191661919487842
 30
0.0
 10
3.430109320746526
 20
-8.881197781032986
 30
0.0
 10
1.752692328559025
 20
-8.881197781032986
 30
0.0
 10
1.752692328559025
 20
-8.881197781032986
 30
0.0
 10
-7.231427680121528
 20
-8.881197781032986
 30
0.0
 10
-8.902988009982637
 20
-8.881197781032986
 30
0.0
 10
-8.902988009982637
 20
-7.174497477213541
 30
0.0
 10
-8.902988009982637
 20
7.174497477213541
 30
0.0
 10
-8.902988009982637
 20
8.881197781032986
 30
0.0
 10
-7.208690049913191
 20
8.881197781032986
 30
0.0
 10
2.672877332899305
 20
8.881197781032986
 30
0.0
 10
2.672877332899305
 20
8.881197781032986
 30
0.0
  0
ENDBLK
  5
27AD
330
27A9
100
AcDbEntity
  8
0
100
AcDbBlockEnd
  0
BLOCK
  5
27B1
330
27AE
100
AcDbEntity
  8
0
 62
     7
100
AcDbBlockBegin
  2
AI9-BLK13
 70
     0
 10
0.0
 20
0.0
 30
0.0
  3
AI9-BLK13
  1

  0
LWPOLYLINE
  5
27AF
330
27AE
100
AcDbEntity
  8
LAYER_1
 62
     7
100
AcDbPolyline
 90
       12
 70
     1
 43
0.0
 10
-3.792361111111107
 20
10.7376736111111
 10
-2.469444444444443
 20
10.7376736111111
 10
-2.469444444444443
 20
1.874131944444444
 10
2.469444444444443
 20
1.874131944444444
 10
2.469444444444443
 20
10.7376736111111
 10
3.792361111111107
 20
10.7376736111111
 10
3.792361111111107
 20
-10.7376736111111
 10
2.469444444444443
 20
-10.7376736111111
 10
2.469444444444443
 20
-0.6835069444444444
 10
-2.469444444444443
 20
-0.6835069444444444
 10
-2.469444444444443
 20
-10.7376736111111
 10
-3.792361111111107
 20
-10.7376736111111
  0
HATCH
  5
27B0
330
27AE
100
AcDbEntity
  8
LAYER_1
 62
     7
100
AcDbHatch
 10
0.0
 20
0.0
 30
0.0
210
0.0
220
0.0
230
1.0
  2
SOLID
 70
     1
 71
     0
 91
        1
 92
        3
 72
     0
 73
     1
 93
       12
 10
-3.792361111111107
 20
10.7376736111111
 10
-2.469444444444443
 20
10.7376736111111
 10
-2.469444444444443
 20
1.874131944444444
 10
2.469444444444443
 20
1.874131944444444
 10
2.469444444444443
 20
10.7376736111111
 10
3.792361111111107
 20
10.7376736111111
 10
3.792361111111107
 20
-10.7376736111111
 10
2.469444444444443
 20
-10.7376736111111
 10
2.469444444444443
 20
-0.6835069444444444
 10
-2.469444444444443
 20
-0.6835069444444444
 10
-2.469444444444443
 20
-10.7376736111111
 10
-3.792361111111107
 20
-10.7376736111111
 97
        0
 75
     2
 76
     1
 98
        1
 10
0.0
 20
0.0
  0
ENDBLK
  5
27B2
330
27AE
100
AcDbEntity
  8
0
100
AcDbBlockEnd
  0
BLOCK
  5
27B6
330
27B3
100
AcDbEntity
  8
0
 62
     7
100
AcDbBlockBegin
  2
AI9-BLK11
 70
     0
 10
0.0
 20
0.0
 30
0.0
  3
AI9-BLK11
  1

  0
SPLINE
  5
27B4
330
27B3
100
AcDbEntity
  8
LAYER_1
 62
     7
100
AcDbSpline
210
0.0
220
0.0
230
1.0
 70
    11
 71
     3
 72
    26
 73
    22
 74
     0
 42
0.0000000001
 43
0.0000000001
 40
0.0
 40
0.0
 40
0.0
 40
0.0
 40
1.0
 40
1.0
 40
1.0
 40
2.0
 40
2.0
 40
2.0
 40
3.0
 40
3.0
 40
3.0
 40
4.0
 40
4.0
 40
4.0
 40
5.0
 40
5.0
 40
5.0
 40
6.0
 40
6.0
 40
6.0
 40
7.0
 40
7.0
 40
7.0
 40
7.0
 10
-2.645833333333333
 20
0.9039930555555551
 30
0.0
 10
-2.645833333333333
 20
0.9039930555555551
 30
0.0
 10
-2.645833333333333
 20
8.180034722222217
 30
0.0
 10
-2.645833333333333
 20
8.180034722222217
 30
0.0
 10
-2.645833333333333
 20
8.180034722222217
 30
0.0
 10
0.465087890625
 20
8.180034722222217
 30
0.0
 10
0.465087890625
 20
8.180034722222217
 30
0.0
 10
0.9026150173611108
 20
8.180034722222217
 30
0.0
 10
1.24988064236111
 20
8.034651692708331
 30
0.0
 10
1.506884765625
 20
7.745263671874997
 30
0.0
 10
2.001600477430554
 20
7.194048394097221
 30
0.0
 10
2.248958333333332
 20
6.160519748263887
 30
0.0
 10
2.248958333333332
 20
4.643299696180553
 30
0.0
 10
2.248958333333332
 20
3.232188585069443
 30
0.0
 10
2.072569444444444
 20
2.256537543402775
 30
0.0
 10
1.720480685763888
 20
1.715657552083333
 30
0.0
 10
1.368391927083333
 20
1.174088541666665
 30
0.0
 10
0.8929687499999998
 20
0.9039930555555551
 30
0.0
 10
0.2942111545138888
 20
0.9039930555555551
 30
0.0
 10
0.2942111545138888
 20
0.9039930555555551
 30
0.0
 10
-2.645833333333333
 20
0.9039930555555551
 30
0.0
 10
-2.645833333333333
 20
0.9039930555555551
 30
0.0
  0
SPLINE
  5
27B5
330
27B3
100
AcDbEntity
  8
LAYER_1
 62
     7
100
AcDbSpline
210
0.0
220
0.0
230
1.0
 70
    11
 71
     3
 72
    68
 73
    64
 74
     0
 42
0.0000000001
 43
0.0000000001
 40
0.0
 40
0.0
 40
0.0
 40
0.0
 40
1.0
 40
1.0
 40
1.0
 40
2.0
 40
2.0
 40
2.0
 40
3.0
 40
3.0
 40
3.0
 40
4.0
 40
4.0
 40
4.0
 40
5.0
 40
5.0
 40
5.0
 40
6.0
 40
6.0
 40
6.0
 40
7.0
 40
7.0
 40
7.0
 40
8.0
 40
8.0
 40
8.0
 40
9.0
 40
9.0
 40
9.0
 40
10.0
 40
10.0
 40
10.0
 40
11.0
 40
11.0
 40
11.0
 40
12.0
 40
12.0
 40
12.0
 40
13.0
 40
13.0
 40
13.0
 40
14.0
 40
14.0
 40
14.0
 40
15.0
 40
15.0
 40
15.0
 40
16.0
 40
16.0
 40
16.0
 40
17.0
 40
17.0
 40
17.0
 40
18.0
 40
18.0
 40
18.0
 40
19.0
 40
19.0
 40
19.0
 40
20.0
 40
20.0
 40
20.0
 40
21.0
 40
21.0
 40
21.0
 40
21.0
 10
-3.968749999999998
 20
-10.7376736111111
 30
0.0
 10
-3.968749999999998
 20
-10.7376736111111
 30
0.0
 10
-2.645833333333333
 20
-10.7376736111111
 30
0.0
 10
-2.645833333333333
 20
-10.7376736111111
 30
0.0
 10
-2.645833333333333
 20
-10.7376736111111
 30
0.0
 10
-2.645833333333333
 20
-1.521354166666665
 30
0.0
 10
-2.645833333333333
 20
-1.521354166666665
 30
0.0
 10
-2.645833333333333
 20
-1.521354166666665
 30
0.0
 10
0.2390896267361111
 20
-1.521354166666665
 30
0.0
 10
0.2390896267361111
 20
-1.521354166666665
 30
0.0
 10
0.7599880642361111
 20
-1.521354166666665
 30
0.0
 10
1.143771701388887
 20
-1.65295681423611
 30
0.0
 10
1.390440538194444
 20
-1.916162109374999
 30
0.0
 10
1.816254340277773
 20
-2.39434136284722
 30
0.0
 10
2.04363064236111
 20
-3.335541449652775
 30
0.0
 10
2.072569444444444
 20
-4.739762369791666
 30
0.0
 10
2.072569444444444
 20
-4.739762369791666
 30
0.0
 10
2.160763888888888
 20
-8.324039713541665
 30
0.0
 10
2.160763888888888
 20
-8.324039713541665
 30
0.0
 10
2.18005642361111
 20
-9.163264973958332
 30
0.0
 10
2.202794053819443
 20
-9.728949652777775
 30
0.0
 10
2.227598741319444
 20
-10.02109374999998
 30
0.0
 10
2.252403428819443
 20
-10.31392686631944
 30
0.0
 10
2.28892144097222
 20
-10.55301649305555
 30
0.0
 10
2.33853081597222
 20
-10.7376736111111
 30
0.0
 10
2.33853081597222
 20
-10.7376736111111
 30
0.0
 10
3.968749999999998
 20
-10.7376736111111
 30
0.0
 10
3.968749999999998
 20
-10.7376736111111
 30
0.0
 10
3.968749999999998
 20
-10.7376736111111
 30
0.0
 10
3.968749999999998
 20
-10.25260416666666
 30
0.0
 10
3.968749999999998
 20
-10.25260416666666
 30
0.0
 10
3.766867404513888
 20
-10.05830078125
 30
0.0
 10
3.625618489583333
 20
-9.621462673611112
 30
0.0
 10
3.545692274305555
 20
-8.942089843749997
 30
0.0
 10
3.49470486111111
 20
-8.543836805555555
 30
0.0
 10
3.459564887152775
 20
-7.937499999999999
 30
0.0
 10
3.439583333333333
 20
-7.121701388888887
 30
0.0
 10
3.439583333333333
 20
-7.121701388888887
 30
0.0
 10
3.395486111111106
 20
-4.232644314236106
 30
0.0
 10
3.395486111111106
 20
-4.232644314236106
 30
0.0
 10
3.375504557291666
 20
-2.981385633680555
 30
0.0
 10
3.26870659722222
 20
-2.077392578125
 30
0.0
 10
3.075781249999999
 20
-1.522043185763888
 30
0.0
 10
2.882166883680555
 20
-0.9666937934027776
 30
0.0
 10
2.592089843749999
 20
-0.5188313802083333
 30
0.0
 10
2.204861111111104
 20
-0.1770779079861111
 30
0.0
 10
2.63618706597222
 20
0.3197048611111111
 30
0.0
 10
2.971739366319443
 20
0.9770290798611107
 30
0.0
 10
3.211518012152775
 20
1.79558376736111
 30
0.0
 10
3.451296657986107
 20
2.613449435763888
 30
0.0
 10
3.571874999999999
 20
3.66558159722222
 30
0.0
 10
3.571874999999999
 20
4.951291232638888
 30
0.0
 10
3.571874999999999
 20
7.415912543402777
 30
0.0
 10
3.124701605902775
 20
9.106076388888887
 30
0.0
 10
2.231043836805555
 20
10.02178276909722
 30
0.0
 10
1.759754774305553
 20
10.498583984375
 30
0.0
 10
1.163753255208332
 20
10.7376736111111
 30
0.0
 10
0.443039279513889
 20
10.7376736111111
 30
0.0
 10
0.443039279513889
 20
10.7376736111111
 30
0.0
 10
-3.968749999999998
 20
10.7376736111111
 30
0.0
 10
-3.968749999999998
 20
10.7376736111111
 30
0.0
 10
-3.968749999999998
 20
10.7376736111111
 30
0.0
 10
-3.968749999999998
 20
-10.7376736111111
 30
0.0
 10
-3.968749999999998
 20
-10.7376736111111
 30
0.0
  0
ENDBLK
  5
27B7
330
27B3
100
AcDbEntity
  8
0
100
AcDbBlockEnd
  0
BLOCK
  5
27BA
330
27B8
100
AcDbEntity
  8
0
 62
     7
100
AcDbBlockBegin
  2
AI9-BLK10
 70
     0
 10
0.0
 20
0.0
 30
0.0
  3
AI9-BLK10
  1

  0
SPLINE
  5
27B9
330
27B8
100
AcDbEntity
  8
LAYER_1
 62
     7
100
AcDbSpline
210
0.0
220
0.0
230
1.0
 70
    11
 71
     3
 72
    59
 73
    55
 74
     0
 42
0.0000000001
 43
0.0000000001
 40
0.0
 40
0.0
 40
0.0
 40
0.0
 40
1.0
 40
1.0
 40
1.0
 40
2.0
 40
2.0
 40
2.0
 40
3.0
 40
3.0
 40
3.0
 40
4.0
 40
4.0
 40
4.0
 40
5.0
 40
5.0
 40
5.0
 40
6.0
 40
6.0
 40
6.0
 40
7.0
 40
7.0
 40
7.0
 40
8.0
 40
8.0
 40
8.0
 40
9.0
 40
9.0
 40
9.0
 40
10.0
 40
10.0
 40
10.0
 40
11.0
 40
11.0
 40
11.0
 40
12.0
 40
12.0
 40
12.0
 40
13.0
 40
13.0
 40
13.0
 40
14.0
 40
14.0
 40
14.0
 40
15.0
 40
15.0
 40
15.0
 40
16.0
 40
16.0
 40
16.0
 40
17.0
 40
17.0
 40
17.0
 40
18.0
 40
18.0
 40
18.0
 40
18.0
 10
-4.652256944444443
 20
10.7376736111111
 30
0.0
 10
-4.652256944444443
 20
10.7376736111111
 30
0.0
 10
-2.798795572916666
 20
10.7376736111111
 30
0.0
 10
-2.798795572916666
 20
10.7376736111111
 30
0.0
 10
-2.798795572916666
 20
10.7376736111111
 30
0.0
 10
0.0
 20
-7.419357638888887
 30
0.0
 10
0.0
 20
-7.419357638888887
 30
0.0
 10
0.0
 20
-7.419357638888887
 30
0.0
 10
2.793283420138888
 20
10.7376736111111
 30
0.0
 10
2.793283420138888
 20
10.7376736111111
 30
0.0
 10
2.793283420138888
 20
10.7376736111111
 30
0.0
 10
4.652256944444443
 20
10.7376736111111
 30
0.0
 10
4.652256944444443
 20
10.7376736111111
 30
0.0
 10
4.652256944444443
 20
10.7376736111111
 30
0.0
 10
4.652256944444443
 20
-10.7376736111111
 30
0.0
 10
4.652256944444443
 20
-10.7376736111111
 30
0.0
 10
4.652256944444443
 20
-10.7376736111111
 30
0.0
 10
3.41753472222222
 20
-10.7376736111111
 30
0.0
 10
3.41753472222222
 20
-10.7376736111111
 30
0.0
 10
3.41753472222222
 20
-10.7376736111111
 30
0.0
 10
3.41753472222222
 20
1.936832682291665
 30
0.0
 10
3.41753472222222
 20
1.936832682291665
 30
0.0
 10
3.41753472222222
 20
2.375048828124999
 30
0.0
 10
3.424424913194443
 20
3.101274956597221
 30
0.0
 10
3.439583333333333
 20
4.11482204861111
 30
0.0
 10
3.454052734374998
 20
5.128369140624998
 30
0.0
 10
3.461631944444443
 20
6.214952256944441
 30
0.0
 10
3.461631944444443
 20
7.375260416666666
 30
0.0
 10
3.461631944444443
 20
7.375260416666666
 30
0.0
 10
0.6538791232638889
 20
-10.7376736111111
 30
0.0
 10
0.6538791232638889
 20
-10.7376736111111
 30
0.0
 10
0.6538791232638889
 20
-10.7376736111111
 30
0.0
 10
-0.6628363715277778
 20
-10.7376736111111
 30
0.0
 10
-0.6628363715277778
 20
-10.7376736111111
 30
0.0
 10
-0.6628363715277778
 20
-10.7376736111111
 30
0.0
 10
-3.461631944444443
 20
7.375260416666666
 30
0.0
 10
-3.461631944444443
 20
7.375260416666666
 30
0.0
 10
-3.461631944444443
 20
7.375260416666666
 30
0.0
 10
-3.461631944444443
 20
6.717247178819441
 30
0.0
 10
-3.461631944444443
 20
6.717247178819441
 30
0.0
 10
-3.461631944444443
 20
6.190836588541666
 30
0.0
 10
-3.45474175347222
 20
5.389507378472222
 30
0.0
 10
-3.439583333333333
 20
4.312570529513888
 30
0.0
 10
-3.425113932291666
 20
3.235633680555555
 30
0.0
 10
-3.41753472222222
 20
2.44395073784722
 30
0.0
 10
-3.41753472222222
 20
1.936832682291665
 30
0.0
 10
-3.41753472222222
 20
1.936832682291665
 30
0.0
 10
-3.41753472222222
 20
-10.7376736111111
 30
0.0
 10
-3.41753472222222
 20
-10.7376736111111
 30
0.0
 10
-3.41753472222222
 20
-10.7376736111111
 30
0.0
 10
-4.652256944444443
 20
-10.7376736111111
 30
0.0
 10
-4.652256944444443
 20
-10.7376736111111
 30
0.0
 10
-4.652256944444443
 20
-10.7376736111111
 30
0.0
 10
-4.652256944444443
 20
10.7376736111111
 30
0.0
 10
-4.652256944444443
 20
10.7376736111111
 30
0.0
  0
ENDBLK
  5
27BB
330
27B8
100
AcDbEntity
  8
0
100
AcDbBlockEnd
  0
BLOCK
  5
27BF
330
27BC
100
AcDbEntity
  8
0
 62
     7
100
AcDbBlockBegin
  2
AI9-BLK9
 70
     0
 10
0.0
 20
0.0
 30
0.0
  3
AI9-BLK9
  1

  0
SPLINE
  5
27BD
330
27BC
100
AcDbEntity
  8
LAYER_1
 62
     7
100
AcDbSpline
210
0.0
220
0.0
230
1.0
 70
    11
 71
     3
 72
    29
 73
    25
 74
     0
 42
0.0000000001
 43
0.0000000001
 40
0.0
 40
0.0
 40
0.0
 40
0.0
 40
1.0
 40
1.0
 40
1.0
 40
2.0
 40
2.0
 40
2.0
 40
3.0
 40
3.0
 40
3.0
 40
4.0
 40
4.0
 40
4.0
 40
5.0
 40
5.0
 40
5.0
 40
6.0
 40
6.0
 40
6.0
 40
7.0
 40
7.0
 40
7.0
 40
8.0
 40
8.0
 40
8.0
 40
8.0
 10
0.0668348524305556
 20
-8.753298611111111
 30
0.0
 10
-0.9067491319444444
 20
-8.753298611111111
 30
0.0
 10
-1.60954861111111
 20
-7.936810980902778
 30
0.0
 10
-2.041563585069444
 20
-6.30383572048611
 30
0.0
 10
-2.474267578124999
 20
-4.670860460069443
 30
0.0
 10
-2.689930555555555
 20
-2.664436848958333
 30
0.0
 10
-2.689930555555555
 20
-0.28525390625
 30
0.0
 10
-2.689930555555555
 20
2.68855251736111
 30
0.0
 10
-2.439127604166666
 20
4.938199869791666
 30
0.0
 10
-1.937521701388888
 20
6.464377170138886
 30
0.0
 10
-1.43591579861111
 20
7.989865451388887
 30
0.0
 10
-0.7827256944444444
 20
8.753298611111111
 30
0.0
 10
0.0220486111111111
 20
8.753298611111111
 30
0.0
 10
0.8468044704861108
 20
8.753298611111111
 30
0.0
 10
1.49792751736111
 20
7.982975260416663
 30
0.0
 10
1.974728732638888
 20
6.442328559027776
 30
0.0
 10
2.451529947916665
 20
4.901681857638886
 30
0.0
 10
2.689930555555555
 20
2.868386501736111
 30
0.0
 10
2.689930555555555
 20
0.3438205295138888
 30
0.0
 10
2.689930555555555
 20
-2.045697699652774
 30
0.0
 10
2.483224826388884
 20
-4.15891927083333
 30
0.0
 10
2.071191406249999
 20
-5.996533203124998
 30
0.0
 10
1.65915798611111
 20
-7.834836154513887
 30
0.0
 10
0.9908094618055557
 20
-8.753298611111111
 30
0.0
 10
0.0668348524305556
 20
-8.753298611111111
 30
0.0
  0
SPLINE
  5
27BE
330
27BC
100
AcDbEntity
  8
LAYER_1
 62
     7
100
AcDbSpline
210
0.0
220
0.0
230
1.0
 70
    11
 71
     3
 72
    29
 73
    25
 74
     0
 42
0.0000000001
 43
0.0000000001
 40
0.0
 40
0.0
 40
0.0
 40
0.0
 40
1.0
 40
1.0
 40
1.0
 40
2.0
 40
2.0
 40
2.0
 40
3.0
 40
3.0
 40
3.0
 40
4.0
 40
4.0
 40
4.0
 40
5.0
 40
5.0
 40
5.0
 40
6.0
 40
6.0
 40
6.0
 40
7.0
 40
7.0
 40
7.0
 40
8.0
 40
8.0
 40
8.0
 40
8.0
 10
-0.0289388020833333
 20
11.35503472222222
 30
0.0
 10
-1.317404513888887
 20
11.35503472222222
 30
0.0
 10
-2.28892144097222
 20
10.02798394097222
 30
0.0
 10
-2.94280056423611
 20
7.374571397569441
 30
0.0
 10
-3.450607638888888
 20
5.30613606770833
 30
0.0
 10
-3.704166666666666
 20
2.81877712673611
 30
0.0
 10
-3.704166666666666
 20
-0.0881944444444445
 30
0.0
 10
-3.704166666666666
 20
-3.307291666666666
 30
0.0
 10
-3.406510416666666
 20
-5.97035047743055
 30
0.0
 10
-2.811197916666666
 20
-8.077370876736106
 30
0.0
 10
-2.147672526041664
 20
-10.26293945312499
 30
0.0
 10
-1.229899088541666
 20
-11.35503472222222
 30
0.0
 10
-0.0585666232638889
 20
-11.35503472222222
 30
0.0
 10
1.20027126736111
 20
-11.35503472222222
 30
0.0
 10
2.166276041666665
 20
-10.10653211805555
 30
0.0
 10
2.840136718749998
 20
-7.609526909722221
 30
0.0
 10
3.416156684027776
 20
-5.483213975694441
 30
0.0
 10
3.704166666666666
 20
-2.814643012152775
 30
0.0
 10
3.704166666666666
 20
0.3948079427083333
 30
0.0
 10
3.704166666666666
 20
3.360346137152776
 30
0.0
 10
3.449918619791666
 20
5.793961588541666
 30
0.0
 10
2.94280056423611
 20
7.696343315972222
 30
0.0
 10
2.298567708333333
 20
10.13547092013888
 30
0.0
 10
1.307758246527777
 20
11.35503472222222
 30
0.0
 10
-0.0289388020833333
 20
11.35503472222222
 30
0.0
  0
ENDBLK
  5
27C0
330
27BC
100
AcDbEntity
  8
0
100
AcDbBlockEnd
  0
BLOCK
  5
27C4
330
27C1
100
AcDbEntity
  8
0
 62
     7
100
AcDbBlockBegin
  2
AI9-BLK8
 70
     0
 10
0.0
 20
0.0
 30
0.0
  3
AI9-BLK8
  1

  0
LWPOLYLINE
  5
27C2
330
27C1
100
AcDbEntity
  8
LAYER_1
 62
     7
100
AcDbPolyline
 90
       10
 70
     1
 43
0.0
 10
-3.792361111111107
 20
10.7376736111111
 10
-2.268939887152773
 20
10.7376736111111
 10
2.557638888888888
 20
-6.505718315972222
 10
2.557638888888888
 20
10.7376736111111
 10
3.792361111111107
 20
10.7376736111111
 10
3.792361111111107
 20
-10.7376736111111
 10
2.32612847222222
 20
-10.7376736111111
 10
-2.557638888888888
 20
6.549815538194441
 10
-2.557638888888888
 20
-10.7376736111111
 10
-3.792361111111107
 20
-10.7376736111111
  0
HATCH
  5
27C3
330
27C1
100
AcDbEntity
  8
LAYER_1
 62
     7
100
AcDbHatch
 10
0.0
 20
0.0
 30
0.0
210
0.0
220
0.0
230
1.0
  2
SOLID
 70
     1
 71
     0
 91
        1
 92
        3
 72
     0
 73
     1
 93
       10
 10
-3.792361111111107
 20
10.7376736111111
 10
-2.268939887152773
 20
10.7376736111111
 10
2.557638888888888
 20
-6.505718315972222
 10
2.557638888888888
 20
10.7376736111111
 10
3.792361111111107
 20
10.7376736111111
 10
3.792361111111107
 20
-10.7376736111111
 10
2.32612847222222
 20
-10.7376736111111
 10
-2.557638888888888
 20
6.549815538194441
 10
-2.557638888888888
 20
-10.7376736111111
 10
-3.792361111111107
 20
-10.7376736111111
 97
        0
 75
     2
 76
     1
 98
        1
 10
0.0
 20
0.0
  0
ENDBLK
  5
27C5
330
27C1
100
AcDbEntity
  8
0
100
AcDbBlockEnd
  0
BLOCK
  5
27C9
330
27C6
100
AcDbEntity
  8
0
 62
     7
100
AcDbBlockBegin
  2
AI9-BLK7
 70
     0
 10
0.0
 20
0.0
 30
0.0
  3
AI9-BLK7
  1

  0
LWPOLYLINE
  5
27C7
330
27C6
100
AcDbEntity
  8
LAYER_1
 62
     7
100
AcDbPolyline
 90
        4
 70
     1
 43
0.0
 10
-0.6614583333333333
 20
10.7376736111111
 10
0.6614583333333333
 20
10.7376736111111
 10
0.6614583333333333
 20
-10.7376736111111
 10
-0.6614583333333333
 20
-10.7376736111111
  0
HATCH
  5
27C8
330
27C6
100
AcDbEntity
  8
LAYER_1
 62
     7
100
AcDbHatch
 10
0.0
 20
0.0
 30
0.0
210
0.0
220
0.0
230
1.0
  2
SOLID
 70
     1
 71
     0
 91
        1
 92
        3
 72
     0
 73
     1
 93
        4
 10
-0.6614583333333333
 20
10.7376736111111
 10
0.6614583333333333
 20
10.7376736111111
 10
0.6614583333333333
 20
-10.7376736111111
 10
-0.6614583333333333
 20
-10.7376736111111
 97
        0
 75
     2
 76
     1
 98
        1
 10
0.0
 20
0.0
  0
ENDBLK
  5
27CA
330
27C6
100
AcDbEntity
  8
0
100
AcDbBlockEnd
  0
BLOCK
  5
27CD
330
27CB
100
AcDbEntity
  8
0
 62
     7
100
AcDbBlockBegin
  2
AI9-BLK6
 70
     0
 10
0.0
 20
0.0
 30
0.0
  3
AI9-BLK6
  1

  0
SPLINE
  5
27CC
330
27CB
100
AcDbEntity
  8
LAYER_1
 62
     7
100
AcDbSpline
210
0.0
220
0.0
230
1.0
 70
    11
 71
     3
 72
    59
 73
    55
 74
     0
 42
0.0000000001
 43
0.0000000001
 40
0.0
 40
0.0
 40
0.0
 40
0.0
 40
1.0
 40
1.0
 40
1.0
 40
2.0
 40
2.0
 40
2.0
 40
3.0
 40
3.0
 40
3.0
 40
4.0
 40
4.0
 40
4.0
 40
5.0
 40
5.0
 40
5.0
 40
6.0
 40
6.0
 40
6.0
 40
7.0
 40
7.0
 40
7.0
 40
8.0
 40
8.0
 40
8.0
 40
9.0
 40
9.0
 40
9.0
 40
10.0
 40
10.0
 40
10.0
 40
11.0
 40
11.0
 40
11.0
 40
12.0
 40
12.0
 40
12.0
 40
13.0
 40
13.0
 40
13.0
 40
14.0
 40
14.0
 40
14.0
 40
15.0
 40
15.0
 40
15.0
 40
16.0
 40
16.0
 40
16.0
 40
17.0
 40
17.0
 40
17.0
 40
18.0
 40
18.0
 40
18.0
 40
18.0
 10
3.062689887152775
 20
9.168088107638887
 30
0.0
 10
3.735172526041666
 20
7.739062499999997
 30
0.0
 10
4.110687934027776
 20
6.116422526041666
 30
0.0
 10
4.189236111111108
 20
4.299479166666666
 30
0.0
 10
4.189236111111108
 20
4.299479166666666
 30
0.0
 10
2.866319444444443
 20
4.299479166666666
 30
0.0
 10
2.866319444444443
 20
4.299479166666666
 30
0.0
 10
2.720936414930555
 20
5.667871093749997
 30
0.0
 10
2.435682508680555
 20
6.752387152777776
 30
0.0
 10
2.009868706597218
 20
7.553027343749997
 30
0.0
 10
1.584054904513888
 20
8.352978515624997
 30
0.0
 10
0.9839192708333332
 20
8.753298611111111
 30
0.0
 10
0.2101508246527778
 20
8.753298611111111
 30
0.0
 10
-0.7386284722222222
 20
8.753298611111111
 30
0.0
 10
-1.503439670138888
 20
8.010536024305555
 30
0.0
 10
-2.083593749999999
 20
6.526388888888886
 30
0.0
 10
-2.664436848958333
 20
5.042241753472221
 30
0.0
 10
-2.954513888888888
 20
2.767100694444443
 30
0.0
 10
-2.954513888888888
 20
-0.2990342881944444
 30
0.0
 10
-2.954513888888888
 20
-2.811197916666666
 30
0.0
 10
-2.693375651041666
 20
-4.847938368055555
 30
0.0
 10
-2.17041015625
 20
-6.409944661458332
 30
0.0
 10
-1.648133680555553
 20
-7.972639973958332
 30
0.0
 10
-0.8640299479166666
 20
-8.753298611111111
 30
0.0
 10
0.1812120225694444
 20
-8.753298611111111
 30
0.0
 10
1.138948567708333
 20
-8.753298611111111
 30
0.0
 10
1.865174696180553
 20
-7.927853732638887
 30
0.0
 10
2.359201388888884
 20
-6.275585937499998
 30
0.0
 10
2.62998589409722
 20
-5.406043836805555
 30
0.0
 10
2.828423394097221
 20
-4.262272135416666
 30
0.0
 10
2.954513888888888
 20
-2.844270833333331
 30
0.0
 10
2.954513888888888
 20
-2.844270833333331
 30
0.0
 10
4.277430555555555
 20
-2.844270833333331
 30
0.0
 10
4.277430555555555
 20
-2.844270833333331
 30
0.0
 10
4.169943576388888
 20
-5.109765624999996
 30
0.0
 10
3.795117187499998
 20
-7.009391276041665
 30
0.0
 10
3.151573350694443
 20
-8.542458767361106
 30
0.0
 10
2.381249999999999
 20
-10.38834092881943
 30
0.0
 10
1.347721354166665
 20
-11.3109375
 30
0.0
 10
0.0509874131944445
 20
-11.3109375
 30
0.0
 10
-1.07004665798611
 20
-11.3109375
 30
0.0
 10
-2.010557725694444
 20
-10.55577256944443
 30
0.0
 10
-2.771234809027776
 20
-9.04475368923611
 30
0.0
 10
-3.775824652777775
 20
-7.046598307291666
 30
0.0
 10
-4.277430555555555
 20
-3.961170789930555
 30
0.0
 10
-4.277430555555555
 20
0.2115288628472222
 30
0.0
 10
-4.277430555555555
 20
3.379638671874998
 30
0.0
 10
-3.902604166666666
 20
5.977929687499997
 30
0.0
 10
-3.151573350694443
 20
8.005712890624996
 30
0.0
 10
-2.333018663194443
 20
10.20919596354165
 30
0.0
 10
-1.20647243923611
 20
11.3109375
 30
0.0
 10
0.2266872829861111
 20
11.3109375
 30
0.0
 10
1.444873046875
 20
11.3109375
 30
0.0
 10
2.390207248263884
 20
10.59642469618055
 30
0.0
 10
3.062689887152775
 20
9.168088107638887
 30
0.0
  0
ENDBLK
  5
27CE
330
27CB
100
AcDbEntity
  8
0
100
AcDbBlockEnd
  0
BLOCK
  5
27D2
330
27CF
100
AcDbEntity
  8
0
 62
     7
100
AcDbBlockBegin
  2
AI9-BLK5
 70
     0
 10
0.0
 20
0.0
 30
0.0
  3
AI9-BLK5
  1

  0
SPLINE
  5
27D0
330
27CF
100
AcDbEntity
  8
LAYER_1
 62
     7
100
AcDbSpline
210
0.0
220
0.0
230
1.0
 70
    11
 71
     3
 72
    32
 73
    28
 74
     0
 42
0.0000000001
 43
0.0000000001
 40
0.0
 40
0.0
 40
0.0
 40
0.0
 40
1.0
 40
1.0
 40
1.0
 40
2.0
 40
2.0
 40
2.0
 40
3.0
 40
3.0
 40
3.0
 40
4.0
 40
4.0
 40
4.0
 40
5.0
 40
5.0
 40
5.0
 40
6.0
 40
6.0
 40
6.0
 40
7.0
 40
7.0
 40
7.0
 40
8.0
 40
8.0
 40
8.0
 40
9.0
 40
9.0
 40
9.0
 40
9.0
 10
-2.62378472222222
 20
-8.268229166666666
 30
0.0
 10
-2.62378472222222
 20
-8.268229166666666
 30
0.0
 10
-2.62378472222222
 20
8.180034722222217
 30
0.0
 10
-2.62378472222222
 20
8.180034722222217
 30
0.0
 10
-2.62378472222222
 20
8.180034722222217
 30
0.0
 10
-0.3376193576388888
 20
8.180034722222217
 30
0.0
 10
-0.3376193576388888
 20
8.180034722222217
 30
0.0
 10
0.6972873263888888
 20
8.180034722222217
 30
0.0
 10
1.449007161458333
 20
7.445540364583332
 30
0.0
 10
1.918918185763885
 20
5.977929687499997
 30
0.0
 10
2.388829210069443
 20
4.510319010416666
 30
0.0
 10
2.62378472222222
 20
2.449462890624999
 30
0.0
 10
2.62378472222222
 20
-0.204638671875
 30
0.0
 10
2.62378472222222
 20
-0.8950358072916666
 30
0.0
 10
2.590022786458332
 20
-1.643310546874999
 30
0.0
 10
2.523187934027772
 20
-2.45015190972222
 30
0.0
 10
2.408121744791666
 20
-3.80200737847222
 30
0.0
 10
2.226220703124999
 20
-4.909950086805555
 30
0.0
 10
1.976795789930553
 20
-5.774669053819441
 30
0.0
 10
1.659847005208333
 20
-6.853672960069442
 30
0.0
 10
1.252636718749998
 20
-7.583344184027778
 30
0.0
 10
0.7544759114583333
 20
-7.962304687499997
 30
0.0
 10
0.4664659288194444
 20
-8.166254340277777
 30
0.0
 10
0.1074869791666666
 20
-8.268229166666666
 30
0.0
 10
-0.3231499565972222
 20
-8.268229166666666
 30
0.0
 10
-0.3231499565972222
 20
-8.268229166666666
 30
0.0
 10
-2.62378472222222
 20
-8.268229166666666
 30
0.0
 10
-2.62378472222222
 20
-8.268229166666666
 30
0.0
  0
SPLINE
  5
27D1
330
27CF
100
AcDbEntity
  8
LAYER_1
 62
     7
100
AcDbSpline
210
0.0
220
0.0
230
1.0
 70
    11
 71
     3
 72
    26
 73
    22
 74
     0
 42
0.0000000001
 43
0.0000000001
 40
0.0
 40
0.0
 40
0.0
 40
0.0
 40
1.0
 40
1.0
 40
1.0
 40
2.0
 40
2.0
 40
2.0
 40
3.0
 40
3.0
 40
3.0
 40
4.0
 40
4.0
 40
4.0
 40
5.0
 40
5.0
 40
5.0
 40
6.0
 40
6.0
 40
6.0
 40
7.0
 40
7.0
 40
7.0
 40
7.0
 10
-3.946701388888888
 20
-10.7376736111111
 30
0.0
 10
-3.946701388888888
 20
-10.7376736111111
 30
0.0
 10
-0.0943956163194444
 20
-10.7376736111111
 30
0.0
 10
-0.0943956163194444
 20
-10.7376736111111
 30
0.0
 10
1.546847873263885
 20
-10.7376736111111
 30
0.0
 10
2.705777994791666
 20
-9.11021050347222
 30
0.0
 10
3.381705729166666
 20
-5.854595269097222
 30
0.0
 10
3.757910156249999
 20
-4.01284722222222
 30
0.0
 10
3.946701388888888
 20
-1.951991102430555
 30
0.0
 10
3.946701388888888
 20
0.328662109375
 30
0.0
 10
3.946701388888888
 20
3.281797960069443
 30
0.0
 10
3.622862413194443
 20
5.703700086805552
 30
0.0
 10
2.976562499999998
 20
7.594368489583332
 30
0.0
 10
2.25171440972222
 20
9.689675564236106
 30
0.0
 10
1.233344184027777
 20
10.7376736111111
 30
0.0
 10
-0.0799262152777778
 20
10.7376736111111
 30
0.0
 10
-0.0799262152777778
 20
10.7376736111111
 30
0.0
 10
-3.946701388888888
 20
10.7376736111111
 30
0.0
 10
-3.946701388888888
 20
10.7376736111111
 30
0.0
 10
-3.946701388888888
 20
10.7376736111111
 30
0.0
 10
-3.946701388888888
 20
-10.7376736111111
 30
0.0
 10
-3.946701388888888
 20
-10.7376736111111
 30
0.0
  0
ENDBLK
  5
27D3
330
27CF
100
AcDbEntity
  8
0
100
AcDbBlockEnd
  0
BLOCK
  5
27D7
330
27D4
100
AcDbEntity
  8
0
 62
     7
100
AcDbBlockBegin
  2
AI9-BLK4
 70
     0
 10
0.0
 20
0.0
 30
0.0
  3
AI9-BLK4
  1

  0
SPLINE
  5
27D5
330
27D4
100
AcDbEntity
  8
LAYER_1
 62
     7
100
AcDbSpline
210
0.0
220
0.0
230
1.0
 70
    11
 71
     3
 72
    26
 73
    22
 74
     0
 42
0.0000000001
 43
0.0000000001
 40
0.0
 40
0.0
 40
0.0
 40
0.0
 40
1.0
 40
1.0
 40
1.0
 40
2.0
 40
2.0
 40
2.0
 40
3.0
 40
3.0
 40
3.0
 40
4.0
 40
4.0
 40
4.0
 40
5.0
 40
5.0
 40
5.0
 40
6.0
 40
6.0
 40
6.0
 40
7.0
 40
7.0
 40
7.0
 40
7.0
 10
-2.645833333333333
 20
0.9039930555555551
 30
0.0
 10
-2.645833333333333
 20
0.9039930555555551
 30
0.0
 10
-2.645833333333333
 20
8.180034722222217
 30
0.0
 10
-2.645833333333333
 20
8.180034722222217
 30
0.0
 10
-2.645833333333333
 20
8.180034722222217
 30
0.0
 10
0.465087890625
 20
8.180034722222217
 30
0.0
 10
0.465087890625
 20
8.180034722222217
 30
0.0
 10
0.9026150173611108
 20
8.180034722222217
 30
0.0
 10
1.24988064236111
 20
8.034651692708331
 30
0.0
 10
1.506884765625
 20
7.745263671874997
 30
0.0
 10
2.001600477430554
 20
7.194048394097221
 30
0.0
 10
2.248958333333332
 20
6.160519748263887
 30
0.0
 10
2.248958333333332
 20
4.643299696180553
 30
0.0
 10
2.248958333333332
 20
3.232188585069443
 30
0.0
 10
2.072569444444444
 20
2.256537543402775
 30
0.0
 10
1.720480685763888
 20
1.715657552083333
 30
0.0
 10
1.368391927083333
 20
1.174088541666665
 30
0.0
 10
0.8929687499999998
 20
0.9039930555555551
 30
0.0
 10
0.2942111545138888
 20
0.9039930555555551
 30
0.0
 10
0.2942111545138888
 20
0.9039930555555551
 30
0.0
 10
-2.645833333333333
 20
0.9039930555555551
 30
0.0
 10
-2.645833333333333
 20
0.9039930555555551
 30
0.0
  0
SPLINE
  5
27D6
330
27D4
100
AcDbEntity
  8
LAYER_1
 62
     7
100
AcDbSpline
210
0.0
220
0.0
230
1.0
 70
    11
 71
     3
 72
    68
 73
    64
 74
     0
 42
0.0000000001
 43
0.0000000001
 40
0.0
 40
0.0
 40
0.0
 40
0.0
 40
1.0
 40
1.0
 40
1.0
 40
2.0
 40
2.0
 40
2.0
 40
3.0
 40
3.0
 40
3.0
 40
4.0
 40
4.0
 40
4.0
 40
5.0
 40
5.0
 40
5.0
 40
6.0
 40
6.0
 40
6.0
 40
7.0
 40
7.0
 40
7.0
 40
8.0
 40
8.0
 40
8.0
 40
9.0
 40
9.0
 40
9.0
 40
10.0
 40
10.0
 40
10.0
 40
11.0
 40
11.0
 40
11.0
 40
12.0
 40
12.0
 40
12.0
 40
13.0
 40
13.0
 40
13.0
 40
14.0
 40
14.0
 40
14.0
 40
15.0
 40
15.0
 40
15.0
 40
16.0
 40
16.0
 40
16.0
 40
17.0
 40
17.0
 40
17.0
 40
18.0
 40
18.0
 40
18.0
 40
19.0
 40
19.0
 40
19.0
 40
20.0
 40
20.0
 40
20.0
 40
21.0
 40
21.0
 40
21.0
 40
21.0
 10
-3.968749999999998
 20
-10.7376736111111
 30
0.0
 10
-3.968749999999998
 20
-10.7376736111111
 30
0.0
 10
-2.645833333333333
 20
-10.7376736111111
 30
0.0
 10
-2.645833333333333
 20
-10.7376736111111
 30
0.0
 10
-2.645833333333333
 20
-10.7376736111111
 30
0.0
 10
-2.645833333333333
 20
-1.521354166666665
 30
0.0
 10
-2.645833333333333
 20
-1.521354166666665
 30
0.0
 10
-2.645833333333333
 20
-1.521354166666665
 30
0.0
 10
0.2390896267361111
 20
-1.521354166666665
 30
0.0
 10
0.2390896267361111
 20
-1.521354166666665
 30
0.0
 10
0.7599880642361111
 20
-1.521354166666665
 30
0.0
 10
1.143771701388887
 20
-1.65295681423611
 30
0.0
 10
1.390440538194444
 20
-1.916162109374999
 30
0.0
 10
1.816254340277773
 20
-2.39434136284722
 30
0.0
 10
2.04363064236111
 20
-3.335541449652775
 30
0.0
 10
2.072569444444444
 20
-4.739762369791666
 30
0.0
 10
2.072569444444444
 20
-4.739762369791666
 30
0.0
 10
2.160763888888888
 20
-8.324039713541665
 30
0.0
 10
2.160763888888888
 20
-8.324039713541665
 30
0.0
 10
2.18005642361111
 20
-9.163264973958332
 30
0.0
 10
2.202794053819443
 20
-9.728949652777775
 30
0.0
 10
2.227598741319444
 20
-10.02109374999998
 30
0.0
 10
2.252403428819443
 20
-10.31392686631944
 30
0.0
 10
2.28892144097222
 20
-10.55301649305555
 30
0.0
 10
2.33853081597222
 20
-10.7376736111111
 30
0.0
 10
2.33853081597222
 20
-10.7376736111111
 30
0.0
 10
3.968749999999998
 20
-10.7376736111111
 30
0.0
 10
3.968749999999998
 20
-10.7376736111111
 30
0.0
 10
3.968749999999998
 20
-10.7376736111111
 30
0.0
 10
3.968749999999998
 20
-10.25260416666666
 30
0.0
 10
3.968749999999998
 20
-10.25260416666666
 30
0.0
 10
3.766867404513888
 20
-10.05830078125
 30
0.0
 10
3.625618489583333
 20
-9.621462673611112
 30
0.0
 10
3.545692274305555
 20
-8.942089843749997
 30
0.0
 10
3.49470486111111
 20
-8.543836805555555
 30
0.0
 10
3.459564887152775
 20
-7.937499999999999
 30
0.0
 10
3.439583333333333
 20
-7.121701388888887
 30
0.0
 10
3.439583333333333
 20
-7.121701388888887
 30
0.0
 10
3.395486111111106
 20
-4.232644314236106
 30
0.0
 10
3.395486111111106
 20
-4.232644314236106
 30
0.0
 10
3.375504557291666
 20
-2.981385633680555
 30
0.0
 10
3.26870659722222
 20
-2.077392578125
 30
0.0
 10
3.075781249999999
 20
-1.522043185763888
 30
0.0
 10
2.882166883680555
 20
-0.9666937934027776
 30
0.0
 10
2.592089843749999
 20
-0.5188313802083333
 30
0.0
 10
2.204861111111104
 20
-0.1770779079861111
 30
0.0
 10
2.63618706597222
 20
0.3197048611111111
 30
0.0
 10
2.971739366319443
 20
0.9770290798611107
 30
0.0
 10
3.211518012152775
 20
1.79558376736111
 30
0.0
 10
3.451296657986107
 20
2.613449435763888
 30
0.0
 10
3.571874999999999
 20
3.66558159722222
 30
0.0
 10
3.571874999999999
 20
4.951291232638888
 30
0.0
 10
3.571874999999999
 20
7.415912543402777
 30
0.0
 10
3.124701605902775
 20
9.106076388888887
 30
0.0
 10
2.231043836805555
 20
10.02178276909722
 30
0.0
 10
1.759754774305553
 20
10.498583984375
 30
0.0
 10
1.163753255208332
 20
10.7376736111111
 30
0.0
 10
0.443039279513889
 20
10.7376736111111
 30
0.0
 10
0.443039279513889
 20
10.7376736111111
 30
0.0
 10
-3.968749999999998
 20
10.7376736111111
 30
0.0
 10
-3.968749999999998
 20
10.7376736111111
 30
0.0
 10
-3.968749999999998
 20
10.7376736111111
 30
0.0
 10
-3.968749999999998
 20
-10.7376736111111
 30
0.0
 10
-3.968749999999998
 20
-10.7376736111111
 30
0.0
  0
ENDBLK
  5
27D8
330
27D4
100
AcDbEntity
  8
0
100
AcDbBlockEnd
  0
BLOCK
  5
27DC
330
27D9
100
AcDbEntity
  8
0
 62
     7
100
AcDbBlockBegin
  2
AI9-BLK3
 70
     0
 10
0.0
 20
0.0
 30
0.0
  3
AI9-BLK3
  1

  0
LWPOLYLINE
  5
27DA
330
27D9
100
AcDbEntity
  8
LAYER_1
 62
     7
100
AcDbPolyline
 90
        4
 70
     1
 43
0.0
 10
-0.6613722059461809
 20
10.7376736111111
 10
0.6613722059461809
 20
10.7376736111111
 10
0.6613722059461809
 20
-10.7376736111111
 10
-0.6613722059461809
 20
-10.7376736111111
  0
HATCH
  5
27DB
330
27D9
100
AcDbEntity
  8
LAYER_1
 62
     7
100
AcDbHatch
 10
0.0
 20
0.0
 30
0.0
210
0.0
220
0.0
230
1.0
  2
SOLID
 70
     1
 71
     0
 91
        1
 92
        3
 72
     0
 73
     1
 93
        4
 10
-0.6613722059461809
 20
10.7376736111111
 10
0.6613722059461809
 20
10.7376736111111
 10
0.6613722059461809
 20
-10.7376736111111
 10
-0.6613722059461809
 20
-10.7376736111111
 97
        0
 75
     2
 76
     1
 98
        1
 10
0.0
 20
0.0
  0
ENDBLK
  5
27DD
330
27D9
100
AcDbEntity
  8
0
100
AcDbBlockEnd
  0
BLOCK
  5
27E1
330
27DE
100
AcDbEntity
  8
0
 62
     7
100
AcDbBlockBegin
  2
AI9-BLK2
 70
     0
 10
0.0
 20
0.0
 30
0.0
  3
AI9-BLK2
  1

  0
LWPOLYLINE
  5
27DF
330
27DE
100
AcDbEntity
  8
LAYER_1
 62
     7
100
AcDbPolyline
 90
        7
 70
     1
 43
0.0
 10
-2.785704210069443
 20
10.7376736111111
 10
0.0
 20
-7.550960286458332
 10
2.771234809027776
 20
10.7376736111111
 10
4.233333333333331
 20
10.7376736111111
 10
0.6910861545138888
 20
-10.7376736111111
 10
-0.7055555555555558
 20
-10.7376736111111
 10
-4.233333333333331
 20
10.7376736111111
  0
HATCH
  5
27E0
330
27DE
100
AcDbEntity
  8
LAYER_1
 62
     7
100
AcDbHatch
 10
0.0
 20
0.0
 30
0.0
210
0.0
220
0.0
230
1.0
  2
SOLID
 70
     1
 71
     0
 91
        1
 92
        3
 72
     0
 73
     1
 93
        7
 10
-2.785704210069443
 20
10.7376736111111
 10
0.0
 20
-7.550960286458332
 10
2.771234809027776
 20
10.7376736111111
 10
4.233333333333331
 20
10.7376736111111
 10
0.6910861545138888
 20
-10.7376736111111
 10
-0.7055555555555558
 20
-10.7376736111111
 10
-4.233333333333331
 20
10.7376736111111
 97
        0
 75
     2
 76
     1
 98
        1
 10
0.0
 20
0.0
  0
ENDBLK
  5
27E2
330
27DE
100
AcDbEntity
  8
0
100
AcDbBlockEnd
  0
BLOCK
  5
27E6
330
27E3
100
AcDbEntity
  8
0
 62
     7
100
AcDbBlockBegin
  2
AI9-BLK1
 70
     0
 10
0.0
 20
0.0
 30
0.0
  3
AI9-BLK1
  1

  0
LWPOLYLINE
  5
27E4
330
27E3
100
AcDbEntity
  8
LAYER_1
 62
     7
100
AcDbPolyline
 90
       12
 70
     1
 43
0.0
 10
-3.571874999999999
 20
10.7376736111111
 10
3.483680555555555
 20
10.7376736111111
 10
3.483680555555555
 20
8.091840277777777
 10
-2.248958333333332
 20
8.091840277777777
 10
-2.248958333333332
 20
1.565451388888888
 10
3.042708333333333
 20
1.565451388888888
 10
3.042708333333333
 20
-0.9039930555555551
 10
-2.248958333333332
 20
-0.9039930555555551
 10
-2.248958333333332
 20
-8.180034722222217
 10
3.571874999999999
 20
-8.180034722222217
 10
3.571874999999999
 20
-10.7376736111111
 10
-3.571874999999999
 20
-10.7376736111111
  0
HATCH
  5
27E5
330
27E3
100
AcDbEntity
  8
LAYER_1
 62
     7
100
AcDbHatch
 10
0.0
 20
0.0
 30
0.0
210
0.0
220
0.0
230
1.0
  2
SOLID
 70
     1
 71
     0
 91
        1
 92
        3
 72
     0
 73
     1
 93
       12
 10
-3.571874999999999
 20
10.7376736111111
 10
3.483680555555555
 20
10.7376736111111
 10
3.483680555555555
 20
8.091840277777777
 10
-2.248958333333332
 20
8.091840277777777
 10
-2.248958333333332
 20
1.565451388888888
 10
3.042708333333333
 20
1.565451388888888
 10
3.042708333333333
 20
-0.9039930555555551
 10
-2.248958333333332
 20
-0.9039930555555551
 10
-2.248958333333332
 20
-8.180034722222217
 10
3.571874999999999
 20
-8.180034722222217
 10
3.571874999999999
 20
-10.7376736111111
 10
-3.571874999999999
 20
-10.7376736111111
 97
        0
 75
     2
 76
     1
 98
        1
 10
0.0
 20
0.0
  0
ENDBLK
  5
27E7
330
27E3
100
AcDbEntity
  8
0
100
AcDbBlockEnd
  0
BLOCK
  5
280B
330
27E8
100
AcDbEntity
  8
0
100
AcDbBlockBegin
  2
HD_LLC_logo_OT5
 70
     0
 10
0.0
 20
0.0
 30
0.0
  3
HD_LLC_logo_OT5
  1

  0
SPLINE
  5
27E9
102
{ACAD_REACTORS
330
2809
102
}
330
27E8
100
AcDbEntity
  8
LAYER_1
 62
     7
100
AcDbSpline
210
0.0
220
0.0
230
1.0
 70
    11
 71
     3
 72
   113
 73
   109
 74
     0
 42
0.0000000001
 43
0.0000000001
 40
0.0
 40
0.0
 40
0.0
 40
0.0
 40
1.0
 40
1.0
 40
1.0
 40
2.0
 40
2.0
 40
2.0
 40
3.0
 40
3.0
 40
3.0
 40
4.0
 40
4.0
 40
4.0
 40
5.0
 40
5.0
 40
5.0
 40
6.0
 40
6.0
 40
6.0
 40
7.0
 40
7.0
 40
7.0
 40
8.0
 40
8.0
 40
8.0
 40
9.0
 40
9.0
 40
9.0
 40
10.0
 40
10.0
 40
10.0
 40
11.0
 40
11.0
 40
11.0
 40
12.0
 40
12.0
 40
12.0
 40
13.0
 40
13.0
 40
13.0
 40
14.0
 40
14.0
 40
14.0
 40
15.0
 40
15.0
 40
15.0
 40
16.0
 40
16.0
 40
16.0
 40
17.0
 40
17.0
 40
17.0
 40
18.0
 40
18.0
 40
18.0
 40
19.0
 40
19.0
 40
19.0
 40
20.0
 40
20.0
 40
20.0
 40
21.0
 40
21.0
 40
21.0
 40
22.0
 40
22.0
 40
22.0
 40
23.0
 40
23.0
 40
23.0
 40
24.0
 40
24.0
 40
24.0
 40
25.0
 40
25.0
 40
25.0
 40
26.0
 40
26.0
 40
26.0
 40
27.0
 40
27.0
 40
27.0
 40
28.0
 40
28.0
 40
28.0
 40
29.0
 40
29.0
 40
29.0
 40
30.0
 40
30.0
 40
30.0
 40
31.0
 40
31.0
 40
31.0
 40
32.0
 40
32.0
 40
32.0
 40
33.0
 40
33.0
 40
33.0
 40
34.0
 40
34.0
 40
34.0
 40
35.0
 40
35.0
 40
35.0
 40
36.0
 40
36.0
 40
36.0
 40
36.0
 10
193.3039632161458
 20
186.1548733181423
 30
0.0
 10
193.3039632161458
 20
186.1860514322916
 30
0.0
 10
193.3039632161458
 20
219.6932223849826
 30
0.0
 10
193.3039632161458
 20
219.6932223849826
 30
0.0
 10
193.3039632161458
 20
219.6932223849826
 30
0.0
 10
193.2974175347219
 20
219.7488606770833
 30
0.0
 10
193.2974175347219
 20
219.7488606770833
 30
0.0
 10
191.5293945312499
 20
235.455740017361
 30
0.0
 10
175.1458984374999
 20
235.2467949761284
 30
0.0
 10
174.9808783637151
 20
235.2428331163193
 30
0.0
 10
174.9808783637151
 20
235.2428331163193
 30
0.0
 10
125.8827555338541
 20
235.2430053710937
 30
0.0
 10
125.8827555338541
 20
235.2430053710937
 30
0.0
 10
125.8827555338541
 20
235.2430053710937
 30
0.0
 10
125.8827555338541
 20
255.5278998480901
 30
0.0
 10
125.8827555338541
 20
255.5278998480901
 30
0.0
 10
125.8827555338541
 20
255.5278998480901
 30
0.0
 10
84.5626247829861
 20
255.5278998480901
 30
0.0
 10
84.5626247829861
 20
255.5278998480901
 30
0.0
 10
84.5626247829861
 20
255.5278998480901
 30
0.0
 10
84.55711263020829
 20
233.7919311523436
 30
0.0
 10
84.55711263020829
 20
233.7919311523436
 30
0.0
 10
84.55711263020829
 20
233.7919311523436
 30
0.0
 10
64.42052951388888
 20
233.7919311523436
 30
0.0
 10
64.42052951388888
 20
233.7919311523436
 30
0.0
 10
64.42052951388888
 20
233.7919311523436
 30
0.0
 10
64.41501736111111
 20
255.5278998480901
 30
0.0
 10
64.41501736111111
 20
255.5278998480901
 30
0.0
 10
64.41501736111111
 20
255.5278998480901
 30
0.0
 10
23.91757541232637
 20
255.5278998480901
 30
0.0
 10
23.91757541232637
 20
255.5278998480901
 30
0.0
 10
23.91757541232637
 20
255.5278998480901
 30
0.0
 10
23.91757541232637
 20
233.2393378363715
 30
0.0
 10
23.91757541232637
 20
233.2393378363715
 30
0.0
 10
23.91757541232637
 20
233.2393378363715
 30
0.0
 10
43.65624999999999
 20
233.2393378363715
 30
0.0
 10
43.65624999999999
 20
233.2393378363715
 30
0.0
 10
43.65624999999999
 20
233.2393378363715
 30
0.0
 10
43.65624999999999
 20
211.5188720703125
 30
0.0
 10
43.65624999999999
 20
211.5188720703125
 30
0.0
 10
43.65624999999999
 20
211.5188720703125
 30
0.0
 10
23.91757541232637
 20
211.5188720703125
 30
0.0
 10
23.91757541232637
 20
211.5188720703125
 30
0.0
 10
23.91757541232637
 20
211.5188720703125
 30
0.0
 10
23.91757541232637
 20
189.2303100585936
 30
0.0
 10
23.91757541232637
 20
189.2303100585936
 30
0.0
 10
23.91757541232637
 20
189.2303100585936
 30
0.0
 10
64.41501736111111
 20
189.2303100585936
 30
0.0
 10
64.41501736111111
 20
189.2303100585936
 30
0.0
 10
64.41501736111111
 20
189.2303100585936
 30
0.0
 10
64.42052951388888
 20
211.069976128472
 30
0.0
 10
64.42052951388888
 20
211.069976128472
 30
0.0
 10
64.42052951388888
 20
211.069976128472
 30
0.0
 10
84.55711263020829
 20
211.069976128472
 30
0.0
 10
84.55711263020829
 20
211.069976128472
 30
0.0
 10
84.55711263020829
 20
211.069976128472
 30
0.0
 10
84.5626247829861
 20
189.2303100585936
 30
0.0
 10
84.5626247829861
 20
189.2303100585936
 30
0.0
 10
84.5626247829861
 20
189.2303100585936
 30
0.0
 10
125.8827555338541
 20
189.2303100585936
 30
0.0
 10
125.8827555338541
 20
189.2303100585936
 30
0.0
 10
125.8827555338541
 20
189.2303100585936
 30
0.0
 10
125.8827555338541
 20
211.5188720703125
 30
0.0
 10
125.8827555338541
 20
211.5188720703125
 30
0.0
 10
125.8827555338541
 20
211.5188720703125
 30
0.0
 10
105.3213921440971
 20
211.5188720703125
 30
0.0
 10
105.3213921440971
 20
211.5188720703125
 30
0.0
 10
105.3213921440971
 20
211.5188720703125
 30
0.0
 10
105.3213921440971
 20
233.2393378363715
 30
0.0
 10
105.3213921440971
 20
233.2393378363715
 30
0.0
 10
105.3213921440971
 20
233.2393378363715
 30
0.0
 10
175.0046495225693
 20
233.243127441406
 30
0.0
 10
175.0046495225693
 20
233.243127441406
 30
0.0
 10
175.6268337673611
 20
233.2560465494791
 30
0.0
 10
189.7165852864583
 20
233.3962619357638
 30
0.0
 10
191.3037407769094
 20
219.5690266927083
 30
0.0
 10
191.3037407769094
 20
219.4332899305555
 30
0.0
 10
191.3037407769094
 20
186.1142211914062
 30
0.0
 10
191.3037407769094
 20
186.1142211914062
 30
0.0
 10
191.3037407769094
 20
186.1142211914062
 30
0.0
 10
191.3051188151039
 20
186.0880384657115
 30
0.0
 10
191.3051188151039
 20
186.0880384657115
 30
0.0
 10
191.3054633246526
 20
186.0787367078991
 30
0.0
 10
191.3109754774304
 20
185.9566080729166
 30
0.0
 10
191.3109754774304
 20
185.7399115668401
 30
0.0
 10
191.3109754774304
 20
184.2090833875865
 30
0.0
 10
191.0488037109374
 20
177.9643310546874
 30
0.0
 10
186.9866916232638
 20
173.5652886284722
 30
0.0
 10
184.2540418836804
 20
170.6064683702255
 30
0.0
 10
180.3224989149304
 20
169.0308539496526
 30
0.0
 10
175.300927734375
 20
168.8825425889756
 30
0.0
 10
175.300927734375
 20
168.8825425889756
 30
0.0
 10
107.0094889322916
 20
168.8828870985243
 30
0.0
 10
107.0094889322916
 20
168.8828870985243
 30
0.0
 10
107.0094889322916
 20
168.8828870985243
 30
0.0
 10
107.0094889322916
 20
166.8830091688368
 30
0.0
 10
107.0094889322916
 20
166.8830091688368
 30
0.0
 10
107.0094889322916
 20
166.8830091688368
 30
0.0
 10
175.3305555555555
 20
166.8830091688368
 30
0.0
 10
175.3305555555555
 20
166.8830091688368
 30
0.0
 10
180.9467502170138
 20
167.0485460069444
 30
0.0
 10
185.3571614583333
 20
168.8448187934026
 30
0.0
 10
188.4687717013888
 20
172.2223904079861
 30
0.0
 10
192.9649658203124
 20
177.1034016927083
 30
0.0
 10
193.3136094835069
 20
183.7202243381076
 30
0.0
 10
193.3136094835069
 20
185.6520616319443
 30
0.0
 10
193.3136094835069
 20
185.9247409396701
 30
0.0
 10
193.3070638020833
 20
186.0868326822916
 30
0.0
 10
193.3039632161458
 20
186.1548733181423
 30
0.0
  0
INSERT
  5
27EA
102
{ACAD_REACTORS
330
280A
102
}
330
27E8
100
AcDbEntity
  8
LAYER_1
 62
     7
100
AcDbBlockReference
  2
AI9-BLK14
 10
159.5625257703993
 20
200.5118781195744
 30
0.0
  0
INSERT
  5
27EB
330
27E8
100
AcDbEntity
  8
LAYER_1
 62
     7
100
AcDbBlockReference
  2
AI9-BLK13
 10
27.69615614149305
 20
179.2145562065971
 30
0.0
 42
0.9200000000000001
  0
INSERT
  5
27EC
102
{ACAD_REACTORS
330
27F7
102
}
330
27E8
100
AcDbEntity
  8
LAYER_1
 62
     7
100
AcDbBlockReference
  2
AI9-BLK11
 10
44.76591525607638
 20
179.2145562065971
 30
0.0
 42
0.9200000000000001
  0
INSERT
  5
27ED
102
{ACAD_REACTORS
330
2805
102
}
330
27E8
100
AcDbEntity
  8
LAYER_1
 62
     7
100
AcDbBlockReference
  2
AI9-BLK10
 10
54.04665798611111
 20
179.2145562065971
 30
0.0
 42
0.9200000000000001
  0
INSERT
  5
27EE
102
{ACAD_REACTORS
330
2804
102
}
330
27E8
100
AcDbEntity
  8
LAYER_1
 62
     7
100
AcDbBlockReference
  2
AI9-BLK9
 10
62.79013807508679
 20
179.2145562065971
 30
0.0
 42
0.9
  0
INSERT
  5
27EF
330
27E8
100
AcDbEntity
  8
LAYER_1
 62
     7
100
AcDbBlockReference
  2
AI9-BLK8
 10
71.03046196831595
 20
179.2145562065971
 30
0.0
 42
0.9200000000000001
  0
INSERT
  5
27F0
330
27E8
100
AcDbEntity
  8
LAYER_1
 62
     7
100
AcDbBlockReference
  2
AI9-BLK7
 10
76.93793945312498
 20
179.2145562065971
 30
0.0
 42
0.9200000000000001
  0
INSERT
  5
27F1
102
{ACAD_REACTORS
330
27F8
102
}
330
27E8
100
AcDbEntity
  8
LAYER_1
 62
     7
100
AcDbBlockReference
  2
AI9-BLK6
 10
82.55602891710069
 20
179.2145562065971
 30
0.0
 42
0.9
  0
INSERT
  5
27F2
102
{ACAD_REACTORS
330
2806
102
}
330
27E8
100
AcDbEntity
  8
LAYER_1
 62
     7
100
AcDbBlockReference
  2
AI9-BLK5
 10
94.32430284288193
 20
179.2145562065971
 30
0.0
 42
0.9200000000000001
  0
INSERT
  5
27F3
102
{ACAD_REACTORS
330
2807
102
}
330
27E8
100
AcDbEntity
  8
LAYER_1
 62
     7
100
AcDbBlockReference
  2
AI9-BLK4
 10
103.2081705729166
 20
179.2145562065971
 30
0.0
 42
0.9200000000000001
  0
INSERT
  5
27F4
330
27E8
100
AcDbEntity
  8
LAYER_1
 62
     7
100
AcDbBlockReference
  2
AI9-BLK3
 10
108.850978597005
 20
179.2145562065971
 30
0.0
 42
0.9200000000000001
  0
INSERT
  5
27F5
330
27E8
100
AcDbEntity
  8
LAYER_1
 62
     7
100
AcDbBlockReference
  2
AI9-BLK2
 10
114.2045708550346
 20
179.2145562065971
 30
0.0
 42
0.9200000000000001
  0
INSERT
  5
27F6
330
27E8
100
AcDbEntity
  8
LAYER_1
 62
     7
100
AcDbBlockReference
  2
AI9-BLK1
 10
122.4125108506944
 20
179.2145562065971
 30
0.0
 42
0.9200000000000001
  0
HATCH
  5
27F7
330
27E8
100
AcDbEntity
  8
0
  6
Continuous
100
AcDbHatch
 10
0.0
 20
0.0
 30
0.0
210
0.0
220
0.0
230
1.0
  2
SOLID
 70
     1
 71
     1
 91
        2
 92
       16
 93
        1
 72
     4
 94
        3
 73
     0
 74
     0
 95
       26
 96
       22
 40
0.0
 40
0.0
 40
0.0
 40
0.0
 40
1.0
 40
1.0
 40
1.0
 40
2.0
 40
2.0
 40
2.0
 40
3.0
 40
3.0
 40
3.0
 40
4.0
 40
4.0
 40
4.0
 40
5.0
 40
5.0
 40
5.0
 40
6.0
 40
6.0
 40
6.0
 40
7.0
 40
7.0
 40
7.0
 40
7.0
 10
42.12008192274304
 20
180.046229817708
 10
42.12008192274304
 20
180.046229817708
 10
42.12008192274304
 20
186.7401881510414
 10
42.12008192274304
 20
186.7401881510414
 10
42.12008192274304
 20
186.7401881510414
 10
45.23100314670138
 20
186.7401881510414
 10
45.23100314670138
 20
186.7401881510414
 10
45.66853027343749
 20
186.7401881510414
 10
46.01579589843749
 20
186.6064357638887
 10
46.27280002170138
 20
186.3401987847216
 10
46.76751573350694
 20
185.8330807291664
 10
47.01487358940972
 20
184.8822343749995
 10
47.01487358940972
 20
183.4863919270832
 10
47.01487358940972
 20
182.188169704861
 10
46.83848470052082
 20
181.2905707465276
 10
46.48639594184028
 20
180.7929611545137
 10
46.13430718315971
 20
180.2947176649304
 10
45.65888400607638
 20
180.046229817708
 10
45.06012641059028
 20
180.046229817708
 10
45.06012641059028
 20
180.046229817708
 10
42.12008192274304
 20
180.046229817708
 10
42.12008192274304
 20
180.046229817708
 97
        1
330
27EC
 92
        1
 93
        1
 72
     4
 94
        3
 73
     0
 74
     0
 95
       68
 96
       64
 40
0.0
 40
0.0
 40
0.0
 40
0.0
 40
1.0
 40
1.0
 40
1.0
 40
2.0
 40
2.0
 40
2.0
 40
3.0
 40
3.0
 40
3.0
 40
4.0
 40
4.0
 40
4.0
 40
5.0
 40
5.0
 40
5.0
 40
6.0
 40
6.0
 40
6.0
 40
7.0
 40
7.0
 40
7.0
 40
8.0
 40
8.0
 40
8.0
 40
9.0
 40
9.0
 40
9.0
 40
10.0
 40
10.0
 40
10.0
 40
11.0
 40
11.0
 40
11.0
 40
12.0
 40
12.0
 40
12.0
 40
13.0
 40
13.0
 40
13.0
 40
14.0
 40
14.0
 40
14.0
 40
15.0
 40
15.0
 40
15.0
 40
16.0
 40
16.0
 40
16.0
 40
17.0
 40
17.0
 40
17.0
 40
18.0
 40
18.0
 40
18.0
 40
19.0
 40
19.0
 40
19.0
 40
20.0
 40
20.0
 40
20.0
 40
21.0
 40
21.0
 40
21.0
 40
21.0
 10
40.79716525607638
 20
169.3358964843748
 10
40.79716525607638
 20
169.3358964843748
 10
42.12008192274304
 20
169.3358964843748
 10
42.12008192274304
 20
169.3358964843748
 10
42.12008192274304
 20
169.3358964843748
 10
42.12008192274304
 20
177.8149103732637
 10
42.12008192274304
 20
177.8149103732637
 10
42.12008192274304
 20
177.8149103732637
 10
45.00500488281249
 20
177.8149103732637
 10
45.00500488281249
 20
177.8149103732637
 10
45.52590332031249
 20
177.8149103732637
 10
45.90968695746528
 20
177.6938359374998
 10
46.15635579427083
 20
177.4516870659717
 10
46.58216959635415
 20
177.0117621527776
 10
46.80954589843749
 20
176.1458580729164
 10
46.83848470052082
 20
174.8539748263887
 10
46.83848470052082
 20
174.8539748263887
 10
46.92667914496527
 20
171.5564396701385
 10
46.92667914496527
 20
171.5564396701385
 10
46.94597167968749
 20
170.7843524305554
 10
46.96870930989581
 20
170.2639225260415
 10
46.99351399739582
 20
169.9951499565971
 10
47.01831868489581
 20
169.725743489583
 10
47.0548366970486
 20
169.5057810329859
 10
47.10444607204859
 20
169.3358964843748
 10
47.10444607204859
 20
169.3358964843748
 10
48.73466525607638
 20
169.3358964843748
 10
48.73466525607638
 20
169.3358964843748
 10
48.73466525607638
 20
169.3358964843748
 10
48.73466525607638
 20
169.7821603732633
 10
48.73466525607638
 20
169.7821603732633
 10
48.53278266059028
 20
169.9609194878471
 10
48.39153374565971
 20
170.3628105468748
 10
48.31160753038194
 20
170.9878335503471
 10
48.26062011718749
 20
171.3542263454858
 10
48.22548014322915
 20
171.9120562065971
 10
48.20549858940971
 20
172.6625909288193
 10
48.20549858940971
 20
172.6625909288193
 10
48.16140136718749
 20
175.3205234374999
 10
48.16140136718749
 20
175.3205234374999
 10
48.14141981336803
 20
176.4716814236109
 10
48.03462185329859
 20
177.3033550347219
 10
47.84169650607638
 20
177.814276475694
 10
47.64808213975693
 20
178.3251979166665
 10
47.35800509982638
 20
178.7372313368054
 10
46.97077636718749
 20
179.0516445312498
 10
47.4021023220486
 20
179.5086846788193
 10
47.73765462239582
 20
180.1134229600693
 10
47.97743326822915
 20
180.866493272569
 10
48.21721191406249
 20
181.6189296874999
 10
48.33779025607638
 20
182.5868912760411
 10
48.33779025607638
 20
183.7697441406248
 10
48.33779025607638
 20
186.0371957465273
 10
47.89061686197913
 20
187.5921464843749
 10
46.99695909288194
 20
188.4345963541665
 10
46.52567003038194
 20
188.8732534722221
 10
45.92966851128472
 20
189.0932159288193
 10
45.20895453559027
 20
189.0932159288193
 10
45.20895453559027
 20
189.0932159288193
 10
40.79716525607638
 20
189.0932159288193
 10
40.79716525607638
 20
189.0932159288193
 10
40.79716525607638
 20
189.0932159288193
 10
40.79716525607638
 20
169.3358964843748
 10
40.79716525607638
 20
169.3358964843748
 97
        0
 75
     0
 76
     1
 98
        0
  0
HATCH
  5
27F8
330
27E8
100
AcDbEntity
  8
0
  6
Continuous
100
AcDbHatch
 10
0.0
 20
0.0
 30
0.0
210
0.0
220
0.0
230
1.0
  2
SOLID
 70
     1
 71
     1
 91
        1
 92
        1
 93
        1
 72
     4
 94
        3
 73
     0
 74
     0
 95
       59
 96
       55
 40
0.0
 40
0.0
 40
0.0
 40
0.0
 40
1.0
 40
1.0
 40
1.0
 40
2.0
 40
2.0
 40
2.0
 40
3.0
 40
3.0
 40
3.0
 40
4.0
 40
4.0
 40
4.0
 40
5.0
 40
5.0
 40
5.0
 40
6.0
 40
6.0
 40
6.0
 40
7.0
 40
7.0
 40
7.0
 40
8.0
 40
8.0
 40
8.0
 40
9.0
 40
9.0
 40
9.0
 40
10.0
 40
10.0
 40
10.0
 40
11.0
 40
11.0
 40
11.0
 40
12.0
 40
12.0
 40
12.0
 40
13.0
 40
13.0
 40
13.0
 40
14.0
 40
14.0
 40
14.0
 40
15.0
 40
15.0
 40
15.0
 40
16.0
 40
16.0
 40
16.0
 40
17.0
 40
17.0
 40
17.0
 40
18.0
 40
18.0
 40
18.0
 40
18.0
 10
85.61871880425345
 20
187.4658355034721
 10
86.29120144314232
 20
186.1797124565971
 10
86.66671685112847
 20
184.7193364800346
 10
86.7452650282118
 20
183.0840874565969
 10
86.7452650282118
 20
183.0840874565969
 10
85.42234836154511
 20
183.0840874565969
 10
85.42234836154511
 20
183.0840874565969
 10
85.27696533203123
 20
184.3156401909719
 10
84.99171142578125
 20
185.2917046440971
 10
84.56589762369791
 20
186.0122808159719
 10
84.14008382161458
 20
186.7322368706594
 10
83.53994818793401
 20
187.0925249565969
 10
82.76617974175342
 20
187.0925249565969
 10
81.81740044487847
 20
187.0925249565969
 10
81.05258924696178
 20
186.4240386284721
 10
80.47243516710068
 20
185.0883062065971
 10
79.89159206814234
 20
183.7525737847219
 10
79.6015150282118
 20
181.7049468315971
 10
79.6015150282118
 20
178.9454253472221
 10
79.6015150282118
 20
176.6844780815969
 10
79.86265326605901
 20
174.8514116753471
 10
80.38561876085069
 20
173.4456060112846
 10
80.90789523654512
 20
172.0391802300344
 10
81.69199896918403
 20
171.3365874565971
 10
82.73724093967013
 20
171.3365874565971
 10
83.69497748480901
 20
171.3365874565971
 10
84.42120361328125
 20
172.0794878472221
 10
84.91523030598958
 20
173.5665288628469
 10
85.18601481119791
 20
174.3491167534719
 10
85.38445231119791
 20
175.3785112847221
 10
85.51054280598959
 20
176.6547124565971
 10
85.51054280598959
 20
176.6547124565971
 10
86.83345947265625
 20
176.6547124565971
 10
86.83345947265625
 20
176.6547124565971
 10
86.72597249348957
 20
174.6157671440971
 10
86.35114610460069
 20
172.9061040581596
 10
85.70760226779514
 20
171.526343315972
 10
84.93727891710069
 20
169.8650493706596
 10
83.90375027126735
 20
169.0347124565971
 10
82.60701633029514
 20
169.0347124565971
 10
81.48598225911458
 20
169.0347124565971
 10
80.54547119140625
 20
169.7143608940971
 10
79.78479410807292
 20
171.0742778862845
 10
78.78020426432292
 20
172.8726177300344
 10
78.27859836154512
 20
175.6495024956596
 10
78.27859836154512
 20
179.4049321831594
 10
78.27859836154512
 20
182.2562310112846
 10
78.65342475043402
 20
184.5946929253469
 10
79.40445556640622
 20
186.4196978081596
 10
80.22301025390625
 20
188.4028325737846
 10
81.34955647786458
 20
189.3943999565971
 10
82.78271620008679
 20
189.3943999565971
 10
84.00090196397568
 20
189.3943999565971
 10
84.94623616536458
 20
188.7513384331594
 10
85.61871880425345
 20
187.4658355034721
 97
        1
330
27F1
 75
     0
 76
     1
 98
        1
 10
0.0
 20
0.0
  0
LINE
  5
27F9
102
{ACAD_REACTORS
330
2808
102
}
330
27E8
100
AcDbEntity
  8
LAYER_1
 62
     7
100
AcDbLine
 10
34.65766059027778
 20
177.4497853732638
 30
0.0
 11
36.19830729166666
 21
186.1658769531249
 31
0.0
  0
LINE
  5
27FA
102
{ACAD_REACTORS
330
2808
102
}
330
27E8
100
AcDbEntity
  8
LAYER_1
 62
     7
100
AcDbLine
 10
36.19830729166666
 20
186.1658769531249
 30
0.0
 11
37.67556423611111
 21
177.4497853732638
 31
0.0
  0
LINE
  5
27FB
102
{ACAD_REACTORS
330
2808
102
}
330
27E8
100
AcDbEntity
  8
LAYER_1
 62
     7
100
AcDbLine
 10
37.67556423611111
 20
177.4497853732638
 30
0.0
 11
34.65766059027778
 21
177.4497853732638
 31
0.0
  0
LINE
  5
27FC
102
{ACAD_REACTORS
330
2808
102
}
330
27E8
100
AcDbEntity
  8
LAYER_1
 62
     7
100
AcDbLine
 10
31.83957248263888
 20
169.3358964843748
 30
0.0
 11
33.22450086805555
 21
169.3358964843748
 31
0.0
  0
LINE
  5
27FD
102
{ACAD_REACTORS
330
2808
102
}
330
27E8
100
AcDbEntity
  8
LAYER_1
 62
     7
100
AcDbLine
 10
33.22450086805555
 20
169.3358964843748
 30
0.0
 11
34.27043185763887
 21
175.2590353732638
 31
0.0
  0
LINE
  5
27FE
102
{ACAD_REACTORS
330
2808
102
}
330
27E8
100
AcDbEntity
  8
LAYER_1
 62
     7
100
AcDbLine
 10
34.27043185763887
 20
175.2590353732638
 30
0.0
 11
38.04694552951389
 21
175.2590353732638
 31
0.0
  0
LINE
  5
27FF
102
{ACAD_REACTORS
330
2808
102
}
330
27E8
100
AcDbEntity
  8
LAYER_1
 62
     7
100
AcDbLine
 10
38.04694552951389
 20
175.2590353732638
 30
0.0
 11
39.05015733506942
 21
169.3358964843748
 31
0.0
  0
LINE
  5
2800
102
{ACAD_REACTORS
330
2808
102
}
330
27E8
100
AcDbEntity
  8
LAYER_1
 62
     7
100
AcDbLine
 10
39.05015733506942
 20
169.3358964843748
 30
0.0
 11
40.43508572048611
 21
169.3358964843748
 31
0.0
  0
LINE
  5
2801
102
{ACAD_REACTORS
330
2808
102
}
330
27E8
100
AcDbEntity
  8
LAYER_1
 62
     7
100
AcDbLine
 10
40.43508572048611
 20
169.3358964843748
 30
0.0
 11
36.952783203125
 21
189.0932159288193
 31
0.0
  0
LINE
  5
2802
102
{ACAD_REACTORS
330
2808
102
}
330
27E8
100
AcDbEntity
  8
LAYER_1
 62
     7
100
AcDbLine
 10
36.952783203125
 20
189.0932159288193
 30
0.0
 11
35.47828233506943
 21
189.0932159288193
 31
0.0
  0
LINE
  5
2803
102
{ACAD_REACTORS
330
2808
102
}
330
27E8
100
AcDbEntity
  8
LAYER_1
 62
     7
100
AcDbLine
 10
35.47828233506943
 20
189.0932159288193
 30
0.0
 11
31.83957248263888
 21
169.3358964843748
 31
0.0
  0
HATCH
  5
2804
330
27E8
100
AcDbEntity
  8
0
  6
Continuous
100
AcDbHatch
 10
0.0
 20
0.0
 30
0.0
210
0.0
220
0.0
230
1.0
  2
SOLID
 70
     1
 71
     1
 91
        2
 92
       16
 93
        1
 72
     4
 94
        3
 73
     0
 74
     0
 95
       29
 96
       25
 40
0.0
 40
0.0
 40
0.0
 40
0.0
 40
1.0
 40
1.0
 40
1.0
 40
2.0
 40
2.0
 40
2.0
 40
3.0
 40
3.0
 40
3.0
 40
4.0
 40
4.0
 40
4.0
 40
5.0
 40
5.0
 40
5.0
 40
6.0
 40
6.0
 40
6.0
 40
7.0
 40
7.0
 40
7.0
 40
8.0
 40
8.0
 40
8.0
 40
8.0
 10
62.85697292751734
 20
171.3365874565971
 10
61.88338894314235
 20
171.3365874565971
 10
61.18058946397566
 20
172.0714263237844
 10
60.74857449001735
 20
173.5411040581594
 10
60.31587049696178
 20
175.0107817925344
 10
60.10020751953123
 20
176.8165630425341
 10
60.10020751953123
 20
178.9578276909721
 10
60.10020751953123
 20
181.6342534722221
 10
60.35101047092013
 20
183.6589360894094
 10
60.85261637369789
 20
185.0324956597219
 10
61.35422227647566
 20
186.4054351128471
 10
62.00741238064235
 20
187.0925249565969
 10
62.81218668619789
 20
187.0925249565969
 10
63.6369425455729
 20
187.0925249565969
 10
64.28806559244789
 20
186.3992339409721
 10
64.76486680772568
 20
185.0126519097221
 10
65.24166802300347
 20
183.6260698784719
 10
65.48006863064235
 20
181.7961040581594
 10
65.48006863064235
 20
179.5239946831596
 10
65.48006863064235
 20
177.3734282769096
 10
65.27336290147568
 20
175.4715288628467
 10
64.86132948133678
 20
173.8176763237846
 10
64.4492960611979
 20
172.1632036675344
 10
63.78094753689235
 20
171.3365874565971
 10
62.85697292751734
 20
171.3365874565971
 97
        1
330
27EE
 92
        1
 93
        1
 72
     4
 94
        3
 73
     0
 74
     0
 95
       29
 96
       25
 40
0.0
 40
0.0
 40
0.0
 40
0.0
 40
1.0
 40
1.0
 40
1.0
 40
2.0
 40
2.0
 40
2.0
 40
3.0
 40
3.0
 40
3.0
 40
4.0
 40
4.0
 40
4.0
 40
5.0
 40
5.0
 40
5.0
 40
6.0
 40
6.0
 40
6.0
 40
7.0
 40
7.0
 40
7.0
 40
8.0
 40
8.0
 40
8.0
 40
8.0
 10
62.76119927300346
 20
189.4340874565971
 10
61.47273356119789
 20
189.4340874565971
 10
60.50121663411457
 20
188.2397417534719
 10
59.84733751085068
 20
185.8516704644094
 10
59.3395304361979
 20
183.9900786675344
 10
59.08597140842012
 20
181.7514556206596
 10
59.08597140842012
 20
179.1351812065971
 10
59.08597140842012
 20
176.2379937065971
 10
59.3836276584201
 20
173.8412407769094
 10
59.9789401584201
 20
171.9449224175346
 10
60.6424655490451
 20
169.9779106987846
 10
61.5602389865451
 20
168.9950249565971
 10
62.7315714518229
 20
168.9950249565971
 10
63.9904093424479
 20
168.9950249565971
 10
64.95641411675345
 20
170.1186773003469
 10
65.63027479383679
 20
172.3659819878471
 10
66.20629475911457
 20
174.2796636284719
 10
66.49430474175345
 20
176.6813774956591
 10
66.49430474175345
 20
179.5698833550344
 10
66.49430474175345
 20
182.2388677300341
 10
66.24005669487845
 20
184.4291216362844
 10
65.73293863932289
 20
186.1412651909719
 10
65.08870578342011
 20
188.3364800347219
 10
64.09789632161457
 20
189.4340874565971
 10
62.76119927300346
 20
189.4340874565971
 97
        0
 75
     0
 76
     1
 98
        0
  0
HATCH
  5
2805
330
27E8
100
AcDbEntity
  8
0
  6
Continuous
100
AcDbHatch
 10
0.0
 20
0.0
 30
0.0
210
0.0
220
0.0
230
1.0
  2
SOLID
 70
     1
 71
     1
 91
        1
 92
        1
 93
        1
 72
     4
 94
        3
 73
     0
 74
     0
 95
       59
 96
       55
 40
0.0
 40
0.0
 40
0.0
 40
0.0
 40
1.0
 40
1.0
 40
1.0
 40
2.0
 40
2.0
 40
2.0
 40
3.0
 40
3.0
 40
3.0
 40
4.0
 40
4.0
 40
4.0
 40
5.0
 40
5.0
 40
5.0
 40
6.0
 40
6.0
 40
6.0
 40
7.0
 40
7.0
 40
7.0
 40
8.0
 40
8.0
 40
8.0
 40
9.0
 40
9.0
 40
9.0
 40
10.0
 40
10.0
 40
10.0
 40
11.0
 40
11.0
 40
11.0
 40
12.0
 40
12.0
 40
12.0
 40
13.0
 40
13.0
 40
13.0
 40
14.0
 40
14.0
 40
14.0
 40
15.0
 40
15.0
 40
15.0
 40
16.0
 40
16.0
 40
16.0
 40
17.0
 40
17.0
 40
17.0
 40
18.0
 40
18.0
 40
18.0
 40
18.0
 10
49.39440104166666
 20
189.0932159288193
 10
49.39440104166666
 20
189.0932159288193
 10
51.24786241319444
 20
189.0932159288193
 10
51.24786241319444
 20
189.0932159288193
 10
51.24786241319444
 20
189.0932159288193
 10
54.04665798611111
 20
172.3887471788193
 10
54.04665798611111
 20
172.3887471788193
 10
54.04665798611111
 20
172.3887471788193
 10
56.83994140624999
 20
189.0932159288193
 10
56.83994140624999
 20
189.0932159288193
 10
56.83994140624999
 20
189.0932159288193
 10
58.69891493055553
 20
189.0932159288193
 10
58.69891493055553
 20
189.0932159288193
 10
58.69891493055553
 20
189.0932159288193
 10
58.69891493055553
 20
169.3358964843748
 10
58.69891493055553
 20
169.3358964843748
 10
58.69891493055553
 20
169.3358964843748
 10
57.46419270833333
 20
169.3358964843748
 10
57.46419270833333
 20
169.3358964843748
 10
57.46419270833333
 20
169.3358964843748
 10
57.46419270833333
 20
180.9964422743054
 10
57.46419270833333
 20
180.9964422743054
 10
57.46419270833333
 20
181.3996011284721
 10
57.47108289930555
 20
182.0677291666664
 10
57.48624131944444
 20
183.0001924913193
 10
57.50071072048609
 20
183.9326558159721
 10
57.50828993055553
 20
184.932312282986
 10
57.50828993055553
 20
185.9997957899304
 10
57.50828993055553
 20
185.9997957899304
 10
54.700537109375
 20
169.3358964843748
 10
54.700537109375
 20
169.3358964843748
 10
54.700537109375
 20
169.3358964843748
 10
53.38382161458333
 20
169.3358964843748
 10
53.38382161458333
 20
169.3358964843748
 10
53.38382161458333
 20
169.3358964843748
 10
50.58502604166665
 20
185.9997957899304
 10
50.58502604166665
 20
185.9997957899304
 10
50.58502604166665
 20
185.9997957899304
 10
50.58502604166665
 20
185.3944236111109
 10
50.58502604166665
 20
185.3944236111109
 10
50.58502604166665
 20
184.9101258680554
 10
50.59191623263888
 20
184.1729029947915
 10
50.60707465277777
 20
183.1821210937498
 10
50.62154405381942
 20
182.1913391927082
 10
50.62912326388889
 20
181.4629908854165
 10
50.62912326388889
 20
180.9964422743054
 10
50.62912326388889
 20
180.9964422743054
 10
50.62912326388889
 20
169.3358964843748
 10
50.62912326388889
 20
169.3358964843748
 10
50.62912326388889
 20
169.3358964843748
 10
49.39440104166666
 20
169.3358964843748
 10
49.39440104166666
 20
169.3358964843748
 10
49.39440104166666
 20
169.3358964843748
 10
49.39440104166666
 20
189.0932159288193
 10
49.39440104166666
 20
189.0932159288193
 97
        1
330
27ED
 75
     0
 76
     1
 98
        1
 10
0.0
 20
0.0
  0
HATCH
  5
2806
330
27E8
100
AcDbEntity
  8
0
  6
Continuous
100
AcDbHatch
 10
0.0
 20
0.0
 30
0.0
210
0.0
220
0.0
230
1.0
  2
SOLID
 70
     1
 71
     1
 91
        2
 92
       16
 93
        1
 72
     4
 94
        3
 73
     0
 74
     0
 95
       32
 96
       28
 40
0.0
 40
0.0
 40
0.0
 40
0.0
 40
1.0
 40
1.0
 40
1.0
 40
2.0
 40
2.0
 40
2.0
 40
3.0
 40
3.0
 40
3.0
 40
4.0
 40
4.0
 40
4.0
 40
5.0
 40
5.0
 40
5.0
 40
6.0
 40
6.0
 40
6.0
 40
7.0
 40
7.0
 40
7.0
 40
8.0
 40
8.0
 40
8.0
 40
9.0
 40
9.0
 40
9.0
 40
9.0
 10
91.70051812065969
 20
171.6077853732634
 10
91.70051812065969
 20
171.6077853732634
 10
91.70051812065969
 20
186.7401881510414
 10
91.70051812065969
 20
186.7401881510414
 10
91.70051812065969
 20
186.7401881510414
 10
93.98668348524305
 20
186.7401881510414
 10
93.98668348524305
 20
186.7401881510414
 10
95.02159016927082
 20
186.7401881510414
 10
95.77331000434028
 20
186.0644533420137
 10
96.24322102864582
 20
184.7142515190969
 10
96.71313205295138
 20
183.3640496961804
 10
96.94808756510417
 20
181.4680620659721
 10
96.94808756510417
 20
179.0262886284719
 10
96.94808756510417
 20
178.3911232638887
 10
96.91432562934028
 20
177.7027105034721
 10
96.84749077690971
 20
176.9604164496524
 10
96.7324245876736
 20
175.7167094184024
 10
96.55052354600693
 20
174.6974021267359
 10
96.30109863281248
 20
173.901860677083
 10
95.98414984809028
 20
172.9091770833332
 10
95.57693956163193
 20
172.2378795572914
 10
95.07877875434026
 20
171.8892358940971
 10
94.79076877170138
 20
171.7016022135415
 10
94.43178982204859
 20
171.6077853732634
 10
94.00115288628471
 20
171.6077853732634
 10
94.00115288628471
 20
171.6077853732634
 10
91.70051812065969
 20
171.6077853732634
 10
91.70051812065969
 20
171.6077853732634
 97
        1
330
27F2
 92
        1
 93
        1
 72
     4
 94
        3
 73
     0
 74
     0
 95
       26
 96
       22
 40
0.0
 40
0.0
 40
0.0
 40
0.0
 40
1.0
 40
1.0
 40
1.0
 40
2.0
 40
2.0
 40
2.0
 40
3.0
 40
3.0
 40
3.0
 40
4.0
 40
4.0
 40
4.0
 40
5.0
 40
5.0
 40
5.0
 40
6.0
 40
6.0
 40
6.0
 40
7.0
 40
7.0
 40
7.0
 40
7.0
 10
90.37760145399305
 20
169.3358964843748
 10
90.37760145399305
 20
169.3358964843748
 10
94.22990722656248
 20
169.3358964843748
 10
94.22990722656248
 20
169.3358964843748
 10
95.87115071614581
 20
169.3358964843748
 10
97.03008083767359
 20
170.8331625434026
 10
97.70600857204859
 20
173.8283285590274
 10
98.08221299913194
 20
175.5227367621523
 10
98.27100423177082
 20
177.4187243923609
 10
98.27100423177082
 20
179.5169253472221
 10
98.27100423177082
 20
182.233810329861
 10
97.94716525607638
 20
184.4619602864582
 10
97.30086534288195
 20
186.2013752170135
 10
96.57601725260416
 20
188.1290577256939
 10
95.5576470269097
 20
189.0932159288193
 10
94.24437662760416
 20
189.0932159288193
 10
94.24437662760416
 20
189.0932159288193
 10
90.37760145399305
 20
189.0932159288193
 10
90.37760145399305
 20
189.0932159288193
 10
90.37760145399305
 20
189.0932159288193
 10
90.37760145399305
 20
169.3358964843748
 10
90.37760145399305
 20
169.3358964843748
 97
        0
 75
     0
 76
     1
 98
        0
  0
HATCH
  5
2807
330
27E8
100
AcDbEntity
  8
0
  6
Continuous
100
AcDbHatch
 10
0.0
 20
0.0
 30
0.0
210
0.0
220
0.0
230
1.0
  2
SOLID
 70
     1
 71
     1
 91
        2
 92
       16
 93
        1
 72
     4
 94
        3
 73
     0
 74
     0
 95
       26
 96
       22
 40
0.0
 40
0.0
 40
0.0
 40
0.0
 40
1.0
 40
1.0
 40
1.0
 40
2.0
 40
2.0
 40
2.0
 40
3.0
 40
3.0
 40
3.0
 40
4.0
 40
4.0
 40
4.0
 40
5.0
 40
5.0
 40
5.0
 40
6.0
 40
6.0
 40
6.0
 40
7.0
 40
7.0
 40
7.0
 40
7.0
 10
100.5623372395832
 20
180.046229817708
 10
100.5623372395832
 20
180.046229817708
 10
100.5623372395832
 20
186.7401881510414
 10
100.5623372395832
 20
186.7401881510414
 10
100.5623372395832
 20
186.7401881510414
 10
103.6732584635416
 20
186.7401881510414
 10
103.6732584635416
 20
186.7401881510414
 10
104.1107855902777
 20
186.7401881510414
 10
104.4580512152777
 20
186.6064357638887
 10
104.7150553385415
 20
186.3401987847216
 10
105.2097710503471
 20
185.8330807291664
 10
105.4571289062495
 20
184.8822343749995
 10
105.4571289062495
 20
183.4863919270832
 10
105.4571289062495
 20
182.188169704861
 10
105.280740017361
 20
181.2905707465276
 10
104.9286512586804
 20
180.7929611545137
 10
104.5765624999999
 20
180.2947176649304
 10
104.1011393229166
 20
180.046229817708
 10
103.5023817274304
 20
180.046229817708
 10
103.5023817274304
 20
180.046229817708
 10
100.5623372395832
 20
180.046229817708
 10
100.5623372395832
 20
180.046229817708
 97
        1
330
27F3
 92
        1
 93
        1
 72
     4
 94
        3
 73
     0
 74
     0
 95
       68
 96
       64
 40
0.0
 40
0.0
 40
0.0
 40
0.0
 40
1.0
 40
1.0
 40
1.0
 40
2.0
 40
2.0
 40
2.0
 40
3.0
 40
3.0
 40
3.0
 40
4.0
 40
4.0
 40
4.0
 40
5.0
 40
5.0
 40
5.0
 40
6.0
 40
6.0
 40
6.0
 40
7.0
 40
7.0
 40
7.0
 40
8.0
 40
8.0
 40
8.0
 40
9.0
 40
9.0
 40
9.0
 40
10.0
 40
10.0
 40
10.0
 40
11.0
 40
11.0
 40
11.0
 40
12.0
 40
12.0
 40
12.0
 40
13.0
 40
13.0
 40
13.0
 40
14.0
 40
14.0
 40
14.0
 40
15.0
 40
15.0
 40
15.0
 40
16.0
 40
16.0
 40
16.0
 40
17.0
 40
17.0
 40
17.0
 40
18.0
 40
18.0
 40
18.0
 40
19.0
 40
19.0
 40
19.0
 40
20.0
 40
20.0
 40
20.0
 40
21.0
 40
21.0
 40
21.0
 40
21.0
 10
99.23942057291661
 20
169.3358964843748
 10
99.23942057291661
 20
169.3358964843748
 10
100.5623372395832
 20
169.3358964843748
 10
100.5623372395832
 20
169.3358964843748
 10
100.5623372395832
 20
169.3358964843748
 10
100.5623372395832
 20
177.8149103732637
 10
100.5623372395832
 20
177.8149103732637
 10
100.5623372395832
 20
177.8149103732637
 10
103.4472601996527
 20
177.8149103732637
 10
103.4472601996527
 20
177.8149103732637
 10
103.9681586371527
 20
177.8149103732637
 10
104.3519422743053
 20
177.6938359374998
 10
104.5986111111109
 20
177.4516870659717
 10
105.0244249131943
 20
177.0117621527776
 10
105.2518012152777
 20
176.1458580729164
 10
105.280740017361
 20
174.8539748263887
 10
105.280740017361
 20
174.8539748263887
 10
105.3689344618053
 20
171.5564396701385
 10
105.3689344618053
 20
171.5564396701385
 10
105.3882269965277
 20
170.7843524305554
 10
105.4109646267359
 20
170.2639225260415
 10
105.4357693142359
 20
169.9951499565971
 10
105.4605740017358
 20
169.725743489583
 10
105.4970920138888
 20
169.5057810329859
 10
105.5467013888887
 20
169.3358964843748
 10
105.5467013888887
 20
169.3358964843748
 10
107.1769205729166
 20
169.3358964843748
 10
107.1769205729166
 20
169.3358964843748
 10
107.1769205729166
 20
169.3358964843748
 10
107.1769205729166
 20
169.7821603732633
 10
107.1769205729166
 20
169.7821603732633
 10
106.9750379774303
 20
169.9609194878471
 10
106.8337890624996
 20
170.3628105468748
 10
106.7538628472221
 20
170.9878335503471
 10
106.7028754340274
 20
171.3542263454858
 10
106.6677354600692
 20
171.9120562065971
 10
106.6477539062496
 20
172.6625909288193
 10
106.6477539062496
 20
172.6625909288193
 10
106.6036566840277
 20
175.3205234374999
 10
106.6036566840277
 20
175.3205234374999
 10
106.5836751302082
 20
176.4716814236109
 10
106.4768771701387
 20
177.3033550347219
 10
106.2839518229166
 20
177.814276475694
 10
106.0903374565971
 20
178.3251979166665
 10
105.8002604166666
 20
178.7372313368054
 10
105.4130316840276
 20
179.0516445312498
 10
105.8443576388885
 20
179.5086846788193
 10
106.179909939236
 20
180.1134229600693
 10
106.4196885850692
 20
180.866493272569
 10
106.6594672309027
 20
181.6189296874999
 10
106.7800455729166
 20
182.5868912760411
 10
106.7800455729166
 20
183.7697441406248
 10
106.7800455729166
 20
186.0371957465273
 10
106.3328721788193
 20
187.5921464843749
 10
105.4392144097221
 20
188.4345963541665
 10
104.9679253472221
 20
188.8732534722221
 10
104.3719238281249
 20
189.0932159288193
 10
103.6512098524303
 20
189.0932159288193
 10
103.6512098524303
 20
189.0932159288193
 10
99.23942057291661
 20
189.0932159288193
 10
99.23942057291661
 20
189.0932159288193
 10
99.23942057291661
 20
189.0932159288193
 10
99.23942057291661
 20
169.3358964843748
 10
99.23942057291661
 20
169.3358964843748
 97
        0
 75
     0
 76
     1
 98
        0
  0
HATCH
  5
2808
330
27E8
100
AcDbEntity
  8
0
  6
Continuous
100
AcDbHatch
 10
0.0
 20
0.0
 30
0.0
210
0.0
220
0.0
230
1.0
  2
SOLID
 70
     1
 71
     1
 91
        2
 92
        1
 93
        8
 72
     1
 10
35.47828233506943
 20
189.0932159288193
 11
31.83957248263888
 21
169.3358964843748
 72
     1
 10
31.83957248263888
 20
169.3358964843748
 11
33.22450086805555
 21
169.3358964843748
 72
     1
 10
33.22450086805555
 20
169.3358964843748
 11
34.27043185763887
 21
175.2590353732638
 72
     1
 10
34.27043185763887
 20
175.2590353732638
 11
38.04694552951389
 21
175.2590353732638
 72
     1
 10
38.04694552951389
 20
175.2590353732638
 11
39.05015733506942
 21
169.3358964843748
 72
     1
 10
39.05015733506942
 20
169.3358964843748
 11
40.43508572048611
 21
169.3358964843748
 72
     1
 10
40.43508572048611
 20
169.3358964843748
 11
36.952783203125
 21
189.0932159288193
 72
     1
 10
36.952783203125
 20
189.0932159288193
 11
35.47828233506943
 21
189.0932159288193
 97
        8
330
2803
330
27FC
330
27FD
330
27FE
330
27FF
330
2800
330
2801
330
2802
 92
       16
 93
        3
 72
     1
 10
37.67556423611111
 20
177.4497853732638
 11
34.65766059027778
 21
177.4497853732638
 72
     1
 10
34.65766059027778
 20
177.4497853732638
 11
36.19830729166666
 21
186.1658769531249
 72
     1
 10
36.19830729166666
 20
186.1658769531249
 11
37.67556423611111
 21
177.4497853732638
 97
        3
330
27FB
330
27F9
330
27FA
 75
     0
 76
     1
 98
        1
 10
0.0
 20
0.0
  0
HATCH
  5
2809
330
27E8
100
AcDbEntity
  8
0
  6
Continuous
100
AcDbHatch
 10
0.0
 20
0.0
 30
0.0
210
0.0
220
0.0
230
1.0
  2
SOLID
 70
     1
 71
     1
 91
        1
 92
        1
 93
        1
 72
     4
 94
        3
 73
     0
 74
     0
 95
      113
 96
      109
 40
0.0
 40
0.0
 40
0.0
 40
0.0
 40
1.0
 40
1.0
 40
1.0
 40
2.0
 40
2.0
 40
2.0
 40
3.0
 40
3.0
 40
3.0
 40
4.0
 40
4.0
 40
4.0
 40
5.0
 40
5.0
 40
5.0
 40
6.0
 40
6.0
 40
6.0
 40
7.0
 40
7.0
 40
7.0
 40
8.0
 40
8.0
 40
8.0
 40
9.0
 40
9.0
 40
9.0
 40
10.0
 40
10.0
 40
10.0
 40
11.0
 40
11.0
 40
11.0
 40
12.0
 40
12.0
 40
12.0
 40
13.0
 40
13.0
 40
13.0
 40
14.0
 40
14.0
 40
14.0
 40
15.0
 40
15.0
 40
15.0
 40
16.0
 40
16.0
 40
16.0
 40
17.0
 40
17.0
 40
17.0
 40
18.0
 40
18.0
 40
18.0
 40
19.0
 40
19.0
 40
19.0
 40
20.0
 40
20.0
 40
20.0
 40
21.0
 40
21.0
 40
21.0
 40
22.0
 40
22.0
 40
22.0
 40
23.0
 40
23.0
 40
23.0
 40
24.0
 40
24.0
 40
24.0
 40
25.0
 40
25.0
 40
25.0
 40
26.0
 40
26.0
 40
26.0
 40
27.0
 40
27.0
 40
27.0
 40
28.0
 40
28.0
 40
28.0
 40
29.0
 40
29.0
 40
29.0
 40
30.0
 40
30.0
 40
30.0
 40
31.0
 40
31.0
 40
31.0
 40
32.0
 40
32.0
 40
32.0
 40
33.0
 40
33.0
 40
33.0
 40
34.0
 40
34.0
 40
34.0
 40
35.0
 40
35.0
 40
35.0
 40
36.0
 40
36.0
 40
36.0
 40
36.0
 10
193.3039632161458
 20
186.1548733181423
 10
193.3039632161458
 20
186.1860514322916
 10
193.3039632161458
 20
219.6932223849826
 10
193.3039632161458
 20
219.6932223849826
 10
193.3039632161458
 20
219.6932223849826
 10
193.2974175347219
 20
219.7488606770833
 10
193.2974175347219
 20
219.7488606770833
 10
191.5293945312499
 20
235.455740017361
 10
175.1458984374999
 20
235.2467949761284
 10
174.9808783637151
 20
235.2428331163193
 10
174.9808783637151
 20
235.2428331163193
 10
125.8827555338541
 20
235.2430053710937
 10
125.8827555338541
 20
235.2430053710937
 10
125.8827555338541
 20
235.2430053710937
 10
125.8827555338541
 20
255.5278998480901
 10
125.8827555338541
 20
255.5278998480901
 10
125.8827555338541
 20
255.5278998480901
 10
84.5626247829861
 20
255.5278998480901
 10
84.5626247829861
 20
255.5278998480901
 10
84.5626247829861
 20
255.5278998480901
 10
84.55711263020829
 20
233.7919311523436
 10
84.55711263020829
 20
233.7919311523436
 10
84.55711263020829
 20
233.7919311523436
 10
64.42052951388888
 20
233.7919311523436
 10
64.42052951388888
 20
233.7919311523436
 10
64.42052951388888
 20
233.7919311523436
 10
64.41501736111111
 20
255.5278998480901
 10
64.41501736111111
 20
255.5278998480901
 10
64.41501736111111
 20
255.5278998480901
 10
23.91757541232637
 20
255.5278998480901
 10
23.91757541232637
 20
255.5278998480901
 10
23.91757541232637
 20
255.5278998480901
 10
23.91757541232637
 20
233.2393378363715
 10
23.91757541232637
 20
233.2393378363715
 10
23.91757541232637
 20
233.2393378363715
 10
43.65624999999999
 20
233.2393378363715
 10
43.65624999999999
 20
233.2393378363715
 10
43.65624999999999
 20
233.2393378363715
 10
43.65624999999999
 20
211.5188720703125
 10
43.65624999999999
 20
211.5188720703125
 10
43.65624999999999
 20
211.5188720703125
 10
23.91757541232637
 20
211.5188720703125
 10
23.91757541232637
 20
211.5188720703125
 10
23.91757541232637
 20
211.5188720703125
 10
23.91757541232637
 20
189.2303100585936
 10
23.91757541232637
 20
189.2303100585936
 10
23.91757541232637
 20
189.2303100585936
 10
64.41501736111111
 20
189.2303100585936
 10
64.41501736111111
 20
189.2303100585936
 10
64.41501736111111
 20
189.2303100585936
 10
64.42052951388888
 20
211.069976128472
 10
64.42052951388888
 20
211.069976128472
 10
64.42052951388888
 20
211.069976128472
 10
84.55711263020829
 20
211.069976128472
 10
84.55711263020829
 20
211.069976128472
 10
84.55711263020829
 20
211.069976128472
 10
84.5626247829861
 20
189.2303100585936
 10
84.5626247829861
 20
189.2303100585936
 10
84.5626247829861
 20
189.2303100585936
 10
125.8827555338541
 20
189.2303100585936
 10
125.8827555338541
 20
189.2303100585936
 10
125.8827555338541
 20
189.2303100585936
 10
125.8827555338541
 20
211.5188720703125
 10
125.8827555338541
 20
211.5188720703125
 10
125.8827555338541
 20
211.5188720703125
 10
105.3213921440971
 20
211.5188720703125
 10
105.3213921440971
 20
211.5188720703125
 10
105.3213921440971
 20
211.5188720703125
 10
105.3213921440971
 20
233.2393378363715
 10
105.3213921440971
 20
233.2393378363715
 10
105.3213921440971
 20
233.2393378363715
 10
175.0046495225693
 20
233.243127441406
 10
175.0046495225693
 20
233.243127441406
 10
175.6268337673611
 20
233.2560465494791
 10
189.7165852864583
 20
233.3962619357638
 10
191.3037407769094
 20
219.5690266927083
 10
191.3037407769094
 20
219.4332899305555
 10
191.3037407769094
 20
186.1142211914062
 10
191.3037407769094
 20
186.1142211914062
 10
191.3037407769094
 20
186.1142211914062
 10
191.3051188151039
 20
186.0880384657115
 10
191.3051188151039
 20
186.0880384657115
 10
191.3054633246526
 20
186.0787367078991
 10
191.3109754774304
 20
185.9566080729166
 10
191.3109754774304
 20
185.7399115668401
 10
191.3109754774304
 20
184.2090833875865
 10
191.0488037109374
 20
177.9643310546874
 10
186.9866916232638
 20
173.5652886284722
 10
184.2540418836804
 20
170.6064683702255
 10
180.3224989149304
 20
169.0308539496526
 10
175.300927734375
 20
168.8825425889756
 10
175.300927734375
 20
168.8825425889756
 10
107.0094889322916
 20
168.8828870985243
 10
107.0094889322916
 20
168.8828870985243
 10
107.0094889322916
 20
168.8828870985243
 10
107.0094889322916
 20
166.8830091688368
 10
107.0094889322916
 20
166.8830091688368
 10
107.0094889322916
 20
166.8830091688368
 10
175.3305555555555
 20
166.8830091688368
 10
175.3305555555555
 20
166.8830091688368
 10
180.9467502170138
 20
167.0485460069444
 10
185.3571614583333
 20
168.8448187934026
 10
188.4687717013888
 20
172.2223904079861
 10
192.9649658203124
 20
177.1034016927083
 10
193.3136094835069
 20
183.7202243381076
 10
193.3136094835069
 20
185.6520616319443
 10
193.3136094835069
 20
185.9247409396701
 10
193.3070638020833
 20
186.0868326822916
 10
193.3039632161458
 20
186.1548733181423
 97
        1
330
27E9
 75
     0
 76
     1
 98
        1
 10
0.0
 20
0.0
  0
HATCH
  5
280A
330
27E8
100
AcDbEntity
  8
0
  6
Continuous
100
AcDbHatch
 10
0.0
 20
0.0
 30
0.0
210
0.0
220
0.0
230
1.0
  2
SOLID
 70
     1
 71
     1
 91
        2
 92
        1
 93
        1
 72
     4
 94
        3
 73
     0
 74
     0
 95
       23
 96
       19
 40
0.0
 40
0.0
 40
0.0
 40
0.0
 40
1.0
 40
1.0
 40
1.0
 40
2.0
 40
2.0
 40
2.0
 40
3.0
 40
3.0
 40
3.0
 40
4.0
 40
4.0
 40
4.0
 40
5.0
 40
5.0
 40
5.0
 40
6.0
 40
6.0
 40
6.0
 40
6.0
 10
148.6593153211804
 20
211.3929538302948
 10
148.6593153211804
 20
211.3929538302948
 10
148.6593153211804
 20
189.6308024088539
 10
148.6593153211804
 20
189.6308024088539
 10
148.6593153211804
 20
189.6308024088539
 10
161.3152180989583
 20
189.6308024088539
 10
161.3152180989583
 20
189.6308024088539
 10
162.8431179470483
 20
189.6308024088539
 10
170.4657362196178
 20
190.1880466037321
 10
170.4657362196178
 20
201.1911648220483
 10
170.4657362196178
 20
211.1288872612844
 10
162.3356553819444
 20
211.3914035373261
 10
162.2536621093749
 20
211.3927815755205
 10
162.2536621093749
 20
211.3927815755205
 10
149.6594265407986
 20
211.3929538302948
 10
149.6594265407986
 20
211.3929538302948
 10
149.6594265407986
 20
211.3929538302948
 10
148.6593153211804
 20
211.3929538302948
 10
148.6593153211804
 20
211.3929538302948
 97
        1
330
27EA
 92
       16
 93
        1
 72
     4
 94
        3
 73
     0
 74
     0
 95
       20
 96
       16
 40
0.0
 40
0.0
 40
0.0
 40
0.0
 40
1.0
 40
1.0
 40
1.0
 40
2.0
 40
2.0
 40
2.0
 40
3.0
 40
3.0
 40
3.0
 40
4.0
 40
4.0
 40
4.0
 40
5.0
 40
5.0
 40
5.0
 40
5.0
 10
162.2354031032983
 20
209.3930759006072
 10
162.467947048611
 20
209.3861857096351
 10
168.4655137803819
 20
209.1283203124997
 10
168.4655137803819
 20
201.1911648220483
 10
168.4655137803819
 20
192.3202162000865
 10
162.9926350911458
 20
191.6306803385413
 10
161.3152180989583
 20
191.6306803385413
 10
161.3152180989583
 20
191.6306803385413
 10
152.3310980902776
 20
191.6306803385413
 10
150.6595377604166
 20
191.6306803385413
 10
150.6595377604166
 20
193.3373806423608
 10
150.6595377604166
 20
207.6863755967879
 10
150.6595377604166
 20
209.3930759006072
 10
152.3538357204859
 20
209.3930759006072
 10
162.2354031032983
 20
209.3930759006072
 10
162.2354031032983
 20
209.3930759006072
 97
        0
 75
     0
 76
     1
 98
        0
  0
ENDBLK
  5
280C
330
27E8
100
AcDbEntity
  8
0
100
AcDbBlockEnd
  0
BLOCK
  5
280F
330
280D
100
AcDbEntity
  8
0
100
AcDbBlockBegin
  2
HD logo-new
 70
     0
 10
0.0
 20
0.0
 30
0.0
  3
HD logo-new
  1

  0
INSERT
  5
280E
330
280D
100
AcDbEntity
  8
0
 62
     3
100
AcDbBlockReference
  2
HD_LLC_logo_OT5
 10
-27.1607188578505
 20
-68.37367811463031
 30
0.0
 41
0.2999999999999971
 42
0.3000000000000007
 43
0.3
  0
ENDBLK
  5
2810
330
280D
100
AcDbEntity
  8
0
100
AcDbBlockEnd
  0
BLOCK
  5
2813
330
2811
100
AcDbEntity
  8
0
100
AcDbBlockBegin
  2
HD Logo
 70
     0
 10
0.0
 20
0.0
 30
0.0
  3
HD Logo
  1

  0
INSERT
  5
2812
330
2811
100
AcDbEntity
  8
0
100
AcDbBlockReference
  2
HD logo-new
 10
0.9700256734946606
 20
7.273795608420527
 30
0.0
  0
ENDBLK
  5
2814
330
2811
100
AcDbEntity
  8
0
100
AcDbBlockEnd
  0
BLOCK
  5
2B6F
330
2B6C
100
AcDbEntity
  8
0
100
AcDbBlockBegin
  2
NTC
 70
     0
 10
0.0
 20
0.0
 30
0.0
  3
NTC
  1

  0
LWPOLYLINE
  5
2B6D
330
2B6C
100
AcDbEntity
  8
0
100
AcDbPolyline
 90
        8
 70
     1
 43
0.0
 10
4.581008201925953
 20
-10.78862239032818
 10
319.3921777697513
 20
-10.78862239032818
 42
-0.4142135623730951
 10
324.9046777697513
 20
-16.30112239032816
 10
324.9046777697513
 20
-117.4075202476924
 42
-0.4142135623730951
 10
319.3921777697513
 20
-122.9200202476925
 10
4.581008201925838
 20
-122.9200202476925
 42
-0.4142135623730951
 10
-0.9314917980741483
 20
-117.4075202476924
 10
-0.9314917980740915
 20
-16.30112239032816
 42
-0.4142135623730951
  0
MTEXT
  5
2B6E
330
2B6C
100
AcDbEntity
  8
0
  6
Continuous
370
    30
100
AcDbMText
 10
21.65307678143926
 20
-17.4535155144544
 30
0.0
 40
8.75
 41
294.5432999999998
 71
     1
 72
     5
  3
{\fTxt|b1|i0|c0|p2;Notice:\P\Ftxt.shx;\H0.5714x;All specifications and dimensions shown in the drawing are subject to change without notice. This drawing is the property of Harmonic Drive LLC.   This data is believed to be accurate, however, Harmonic
  1
 Drive LLC assumes no liability for any errors or omissions in the specifications, models, or drawings.\P\PHarmonic Drive LLC\PTel: 800-921-3332\Pwww.harmonicdrive.net}
 73
     1
 44
1.0
  0
ENDBLK
  5
2B70
330
2B6C
100
AcDbEntity
  8
0
100
AcDbBlockEnd
  0
ENDSEC
  0
SECTION
  2
ENTITIES
  0
LINE
  5
255C
330
253D
100
AcDbEntity
  8
1
 62
     7
100
AcDbLine
 10
196.973262829509
 20
159.6036752508075
 30
0.0
 11
183.697262829509
 21
159.6036752508075
 31
0.0
  0
LINE
  5
255D
330
253D
100
AcDbEntity
  8
1
 62
     7
100
AcDbLine
 10
181.241262829509
 20
256.7416752508074
 30
0.0
 11
181.241262829509
 21
242.2966752508076
 31
0.0
  0
LINE
  5
255E
330
253D
100
AcDbEntity
  8
2
  6
CENTER
 62
     3
100
AcDbLine
 10
358.4538575810289
 20
261.066674424824
 30
0.0
 11
358.4538575810289
 21
159.6016752508423
 31
0.0
  0
LINE
  5
255F
330
253D
100
AcDbEntity
  8
1
  6
CENTER
 62
     3
100
AcDbLine
 10
176.4463030076164
 20
262.0666752508077
 30
0.0
 11
183.1252168013435
 21
262.0666752508077
 31
0.0
  0
LINE
  5
2560
330
253D
100
AcDbEntity
  8
1
 62
     7
100
AcDbLine
 10
178.230262829509
 20
259.3166752508076
 30
0.0
 11
178.230262829509
 21
264.8166752508076
 31
0.0
  0
LINE
  5
2561
330
253D
100
AcDbEntity
  8
1
 62
     7
100
AcDbLine
 10
181.830262829509
 20
259.3166752508076
 30
0.0
 11
181.830262829509
 21
264.8166752508076
 31
0.0
  0
LINE
  5
2562
330
253D
100
AcDbEntity
  8
1
 62
     7
100
AcDbLine
 10
178.230262829509
 20
264.8166752508076
 30
0.0
 11
181.830262829509
 21
264.8166752508076
 31
0.0
  0
LINE
  5
2563
330
253D
100
AcDbEntity
  8
1
 62
     7
100
AcDbLine
 10
181.830262829509
 20
242.4296752508076
 30
0.0
 11
181.830262829509
 21
259.3166752508076
 31
0.0
  0
LINE
  5
2564
330
253D
100
AcDbEntity
  8
1
 62
     7
100
AcDbLine
 10
178.230262829509
 20
259.3166752508076
 30
0.0
 11
181.830262829509
 21
259.3166752508076
 31
0.0
  0
LINE
  5
2565
330
253D
100
AcDbEntity
  8
1
 62
     7
100
AcDbLine
 10
183.830262829509
 20
160.1926752508074
 30
0.0
 11
219.3002628295088
 21
160.1926752508074
 31
0.0
  0
LINE
  5
2566
330
253D
100
AcDbEntity
  8
1
 62
     7
100
AcDbLine
 10
220.230262829509
 20
159.6016752508074
 30
0.0
 11
220.230262829509
 21
160.1439360160744
 31
0.0
  0
LINE
  5
2567
330
253D
100
AcDbEntity
  8
1
 62
     7
100
AcDbLine
 10
220.230262829509
 20
160.1439360160744
 30
0.0
 11
219.3002628295088
 21
160.1926752508074
 31
0.0
  0
LINE
  5
2568
330
253D
100
AcDbEntity
  8
1
 62
     7
100
AcDbLine
 10
219.1216681443282
 20
158.493080565627
 30
0.0
 11
220.230262829509
 21
159.6016752508074
 31
0.0
  0
LINE
  5
2569
330
253D
100
AcDbEntity
  8
1
 62
     7
100
AcDbLine
 10
205.6022628295088
 20
158.53712833685
 30
0.0
 11
212.1052628295088
 21
158.4576752508076
 31
0.0
  0
LINE
  5
256A
330
253D
100
AcDbEntity
  8
1
 62
     7
100
AcDbLine
 10
212.1052628295088
 20
158.4576752508076
 30
0.0
 11
216.005262829509
 21
158.4576752508076
 31
0.0
  0
LINE
  5
256B
330
253D
100
AcDbEntity
  8
1
 62
     7
100
AcDbLine
 10
219.1216681443282
 20
158.493080565627
 30
0.0
 11
216.005262829509
 21
158.4576752508076
 31
0.0
  0
LINE
  5
256C
330
253D
100
AcDbEntity
  8
1
 62
     7
100
AcDbLine
 10
220.230262829509
 20
239.9894144855408
 30
0.0
 11
220.230262829509
 21
240.5316752508077
 31
0.0
  0
LINE
  5
256D
330
253D
100
AcDbEntity
  8
1
 62
     7
100
AcDbLine
 10
219.3002628295088
 20
239.9406752508077
 30
0.0
 11
183.697262829509
 21
239.9406752508077
 31
0.0
  0
LINE
  5
256E
330
253D
100
AcDbEntity
  8
1
 62
     7
100
AcDbLine
 10
219.3002628295088
 20
239.9406752508077
 30
0.0
 11
220.230262829509
 21
239.9894144855408
 31
0.0
  0
LINE
  5
256F
330
253D
100
AcDbEntity
  8
1
 62
     7
100
AcDbLine
 10
220.230262829509
 20
240.5316752508077
 30
0.0
 11
219.1216681443282
 21
241.6402699359883
 31
0.0
  0
LINE
  5
2570
330
253D
100
AcDbEntity
  8
1
 62
     7
100
AcDbLine
 10
178.6302628295088
 20
267.0666752508076
 30
0.0
 11
181.4302628295088
 21
267.0666752508076
 31
0.0
  0
LINE
  5
2571
330
253D
100
AcDbEntity
  8
1
 62
     7
100
AcDbLine
 10
220.230262829509
 20
239.9894144855408
 30
0.0
 11
220.230262829509
 21
229.5306748082775
 31
0.0
  0
LINE
  5
2572
330
253D
100
AcDbEntity
  8
1
 62
     7
100
AcDbLine
 10
183.830262829509
 20
240.5296752508077
 30
0.0
 11
196.973262829509
 21
240.5296752508077
 31
0.0
  0
LINE
  5
2573
330
253D
100
AcDbEntity
  8
1
 62
     7
100
AcDbLine
 10
212.1052628295088
 20
241.6756752508077
 30
0.0
 11
205.6022628295088
 21
241.5962221647653
 31
0.0
  0
LINE
  5
2574
330
253D
100
AcDbEntity
  8
1
 62
     7
100
AcDbLine
 10
216.005262829509
 20
241.6756752508077
 30
0.0
 11
212.1052628295088
 21
241.6756752508077
 31
0.0
  0
LINE
  5
2575
330
253D
100
AcDbEntity
  8
1
 62
     7
100
AcDbLine
 10
216.005262829509
 20
241.6756752508077
 30
0.0
 11
219.1216681443282
 21
241.6402699359883
 31
0.0
  0
LINE
  5
2576
330
253D
100
AcDbEntity
  8
1
  6
CENTER
 62
     3
100
AcDbLine
 10
226.4965444115241
 20
200.0666752508077
 30
0.0
 11
200.2302629642468
 21
200.0666752508077
 31
0.0
  0
LINE
  5
2577
330
253D
100
AcDbEntity
  8
1
 62
     7
100
AcDbLine
 10
178.230262829509
 20
200.0666752508077
 30
0.0
 11
178.230262829509
 21
257.0666752508076
 31
0.0
  0
LINE
  5
2578
330
253D
100
AcDbEntity
  8
1
 62
     7
100
AcDbLine
 10
220.230262829509
 20
170.5986752508071
 30
0.0
 11
220.230262829509
 21
160.1439360160744
 31
0.0
  0
LINE
  5
2579
330
253D
100
AcDbEntity
  8
1
  6
DIVIDE
 62
     7
100
AcDbLine
 10
221.730262829509
 20
157.0666752508074
 30
0.0
 11
221.730262829509
 21
164.7039255085964
 31
0.0
  0
LINE
  5
257A
330
253D
100
AcDbEntity
  8
0
 62
     7
100
AcDbLine
 10
220.230262829509
 20
157.0666752508074
 30
0.0
 11
220.230262829509
 21
152.8166752508074
 31
0.0
  0
LINE
  5
257B
330
253D
100
AcDbEntity
  8
1
  6
DIVIDE
 62
     7
100
AcDbLine
 10
220.230262829509
 20
157.0666752508074
 30
0.0
 11
221.730262829509
 21
157.0666752508074
 31
0.0
  0
LINE
  5
257C
330
253D
100
AcDbEntity
  8
0
 62
     7
100
AcDbLine
 10
220.230262829509
 20
158.4576752508076
 30
0.0
 11
220.230262829509
 21
157.0666752508074
 31
0.0
  0
LINE
  5
257D
330
253D
100
AcDbEntity
  8
0
 62
     7
100
AcDbLine
 10
203.2302628294341
 20
158.4576752508076
 30
0.0
 11
203.2302628294264
 21
158.6166752505533
 31
0.0
  0
LINE
  5
257E
330
253D
100
AcDbEntity
  8
1
 62
     7
100
AcDbLine
 10
203.2302628294341
 20
158.4576752508076
 30
0.0
 11
220.230262829509
 21
158.4576752508076
 31
0.0
  0
LINE
  5
257F
330
253D
100
AcDbEntity
  8
1
 62
     7
100
AcDbLine
 10
203.830262829398
 20
159.2166752505534
 30
0.0
 11
203.2302628294264
 21
158.6166752505533
 31
0.0
  0
LINE
  5
2580
330
253D
100
AcDbEntity
  8
1
 62
     7
100
AcDbLine
 10
219.6302628295088
 20
159.2166752505534
 30
0.0
 11
220.230262829509
 21
158.6166752505533
 31
0.0
  0
LINE
  5
2581
330
253D
100
AcDbEntity
  8
0
 62
     7
100
AcDbLine
 10
220.230262829509
 20
158.6166752505533
 30
0.0
 11
220.230262829509
 21
158.4576752508076
 31
0.0
  0
LINE
  5
2582
330
253D
100
AcDbEntity
  8
1
 62
     7
100
AcDbLine
 10
203.830262829398
 20
159.2166752505534
 30
0.0
 11
219.6302628295088
 21
159.2166752505534
 31
0.0
  0
LINE
  5
2583
330
253D
100
AcDbEntity
  8
0
 62
     7
100
AcDbLine
 10
203.230262829506
 20
241.6756752508077
 30
0.0
 11
203.230262829506
 21
244.6666745808808
 31
0.0
  0
LINE
  5
2584
330
253D
100
AcDbEntity
  8
1
 62
     7
100
AcDbLine
 10
220.1098504173476
 20
241.6756752508077
 30
0.0
 11
203.230262829506
 21
241.6756752508077
 31
0.0
  0
LINE
  5
2585
330
253D
100
AcDbEntity
  8
1
 62
     7
100
AcDbLine
 10
203.230262829506
 20
241.5166752505283
 30
0.0
 11
203.8302628295062
 21
240.9166752505281
 31
0.0
  0
LINE
  5
2586
330
253D
100
AcDbEntity
  8
1
 62
     7
100
AcDbLine
 10
220.2302628296359
 20
241.5166752505283
 30
0.0
 11
219.630262829658
 21
240.9166752505281
 31
0.0
  0
LINE
  5
2587
330
253D
100
AcDbEntity
  8
1
 62
     7
100
AcDbLine
 10
219.830262829658
 20
240.9166752505281
 30
0.0
 11
220.2302628296433
 21
240.9166752505281
 31
0.0
  0
LINE
  5
2588
330
253D
100
AcDbEntity
  8
1
 62
     3
100
AcDbLine
 10
220.2302628296433
 20
240.9166752505281
 30
0.0
 11
220.2302628296433
 21
241.3166752505281
 31
0.0
  0
LINE
  5
2589
330
253D
100
AcDbEntity
  8
1
 62
     7
100
AcDbLine
 10
220.2302628296433
 20
241.3166752505281
 30
0.0
 11
220.2302628296433
 21
240.9166752505281
 31
0.0
  0
LINE
  5
258A
330
253D
100
AcDbEntity
  8
1
 62
     3
100
AcDbLine
 10
219.830262829658
 20
240.9166752505281
 30
0.0
 11
220.2302628296433
 21
240.9166752505281
 31
0.0
  0
LINE
  5
258B
330
253D
100
AcDbEntity
  8
0
 62
     7
100
AcDbLine
 10
220.2302628296359
 20
241.5166752505283
 30
0.0
 11
220.2302628294233
 21
247.3166752508077
 31
0.0
  0
LINE
  5
258C
330
253D
100
AcDbEntity
  8
1
 62
     7
100
AcDbLine
 10
203.8302628295062
 20
240.9166752505281
 30
0.0
 11
219.630262829658
 21
240.9166752505281
 31
0.0
  0
LINE
  5
258D
330
253D
100
AcDbEntity
  8
0
 62
     7
100
AcDbLine
 10
200.2302629642468
 20
226.8166752508077
 30
0.0
 11
200.2302629642468
 21
223.2590477917736
 31
0.0
  0
LINE
  5
258E
330
253D
100
AcDbEntity
  8
0
 62
     7
100
AcDbLine
 10
200.2302629642468
 20
226.8166752508077
 30
0.0
 11
204.2302629641883
 21
226.8166752508077
 31
0.0
  0
LINE
  5
258F
330
253D
100
AcDbEntity
  8
0
 62
     7
100
AcDbLine
 10
204.2302629641883
 20
226.8166752508077
 30
0.0
 11
204.2302629641883
 21
213.4666750495393
 31
0.0
  0
LINE
  5
2590
330
253D
100
AcDbEntity
  8
0
 62
     7
100
AcDbLine
 10
204.6302629581794
 20
213.0666750555584
 30
0.0
 11
218.7802627486916
 21
213.0666750555584
 31
0.0
  0
LINE
  5
2591
330
253D
100
AcDbEntity
  8
0
 62
     7
100
AcDbLine
 10
220.130262728411
 20
213.0666750555584
 30
0.0
 11
221.730262836977
 21
213.0666750556041
 31
0.0
  0
LINE
  5
2592
330
253D
100
AcDbEntity
  8
0
 62
     7
100
AcDbLine
 10
221.7302628370201
 20
213.0666750555103
 30
0.0
 11
222.230262829509
 21
212.5666750630339
 31
0.0
  0
LINE
  5
2593
330
253D
100
AcDbEntity
  8
0
 62
     7
100
AcDbLine
 10
222.230262829509
 20
212.5166750638336
 30
0.0
 11
222.230262829509
 21
200.0666752508077
 31
0.0
  0
LINE
  5
2594
330
253D
100
AcDbEntity
  8
0
 62
     7
100
AcDbLine
 10
218.7802627486916
 20
213.0666750555584
 30
0.0
 11
218.7802627486916
 21
212.5166750638336
 31
0.0
  0
LINE
  5
2595
330
253D
100
AcDbEntity
  8
0
 62
     7
100
AcDbLine
 10
218.7802627486916
 20
212.5166750638336
 30
0.0
 11
220.130262728411
 21
212.5166750638336
 31
0.0
  0
LINE
  5
2596
330
253D
100
AcDbEntity
  8
0
 62
     7
100
AcDbLine
 10
220.130262728411
 20
212.5166750638336
 30
0.0
 11
220.130262728411
 21
213.0666750555584
 31
0.0
  0
LINE
  5
2597
330
253D
100
AcDbEntity
  8
0
 62
     7
100
AcDbLine
 10
200.2302629642468
 20
173.3166752508076
 30
0.0
 11
204.2302629641883
 21
173.3166752508076
 31
0.0
  0
LINE
  5
2598
330
253D
100
AcDbEntity
  8
0
 62
     7
100
AcDbLine
 10
204.2302629641883
 20
173.3166752508076
 30
0.0
 11
204.2302629641883
 21
186.6666754520837
 31
0.0
  0
LINE
  5
2599
330
253D
100
AcDbEntity
  8
0
 62
     7
100
AcDbLine
 10
204.6302629581794
 20
187.0666754460746
 30
0.0
 11
218.7802627486916
 21
187.0666754460746
 31
0.0
  0
LINE
  5
259A
330
253D
100
AcDbEntity
  8
0
 62
     7
100
AcDbLine
 10
220.130262728411
 20
187.0666754460746
 30
0.0
 11
221.730262836977
 21
187.0666754460239
 31
0.0
  0
LINE
  5
259B
330
253D
100
AcDbEntity
  8
0
 62
     7
100
AcDbLine
 10
221.7302628370201
 20
187.0666754461254
 30
0.0
 11
222.230262829509
 21
187.5666754385889
 31
0.0
  0
LINE
  5
259C
330
253D
100
AcDbEntity
  8
0
 62
     7
100
AcDbLine
 10
222.230262829509
 20
187.6166754377868
 30
0.0
 11
222.230262829509
 21
200.0666752508077
 31
0.0
  0
LINE
  5
259D
330
253D
100
AcDbEntity
  8
0
 62
     7
100
AcDbLine
 10
218.7802627486916
 20
187.0666754460746
 30
0.0
 11
218.7802627486916
 21
187.6166754377868
 31
0.0
  0
LINE
  5
259E
330
253D
100
AcDbEntity
  8
0
 62
     7
100
AcDbLine
 10
218.7802627486916
 20
187.6166754377868
 30
0.0
 11
220.130262728411
 21
187.6166754377868
 31
0.0
  0
LINE
  5
259F
330
253D
100
AcDbEntity
  8
0
 62
     7
100
AcDbLine
 10
220.130262728411
 20
187.6166754377868
 30
0.0
 11
220.130262728411
 21
187.0666754460746
 31
0.0
  0
LINE
  5
25A0
330
253D
100
AcDbEntity
  8
0
 62
     7
100
AcDbLine
 10
208.4302629041363
 20
213.0666750555584
 30
0.0
 11
208.4302629041693
 21
226.5666748527625
 31
0.0
  0
LINE
  5
25A1
330
253D
100
AcDbEntity
  8
0
 62
     7
100
AcDbLine
 10
207.9302629116476
 20
213.0666750555584
 30
0.0
 11
207.9302629116579
 21
217.3166749917434
 31
0.0
  0
LINE
  5
25A2
330
253D
100
AcDbEntity
  8
0
 62
     7
100
AcDbLine
 10
207.9302629116579
 20
217.3166749917434
 30
0.0
 11
212.4302628440845
 21
217.3166749916975
 31
0.0
  0
LINE
  5
25A3
330
253D
100
AcDbEntity
  8
0
 62
     7
100
AcDbLine
 10
212.4302628440845
 20
217.3166749916975
 30
0.0
 11
212.4302628441073
 21
226.5666748526863
 31
0.0
  0
LINE
  5
25A4
330
253D
100
AcDbEntity
  8
0
 62
     7
100
AcDbLine
 10
204.2302629642461
 20
226.5666748527625
 30
0.0
 11
204.2302629642112
 21
215.066675025554
 31
0.0
  0
LINE
  5
25A5
330
253D
100
AcDbEntity
  8
0
 62
     7
100
AcDbLine
 10
204.2302629641419
 20
185.0666754701506
 30
0.0
 11
204.2302629641419
 21
173.5666756489038
 31
0.0
  0
LINE
  5
25A6
330
253D
100
AcDbEntity
  8
0
 62
     7
100
AcDbLine
 10
204.2302629642224
 20
215.066675025554
 30
0.0
 11
204.7302629567107
 21
215.066675025554
 31
0.0
  0
LINE
  5
25A7
330
253D
100
AcDbEntity
  8
0
 62
     7
100
AcDbLine
 10
204.7302629567107
 20
215.066675025554
 30
0.0
 11
204.7302629566991
 21
213.0666750555584
 31
0.0
  0
LINE
  5
25A8
330
253D
100
AcDbEntity
  8
0
 62
     7
100
AcDbLine
 10
204.7302629566526
 20
187.0666754461509
 30
0.0
 11
204.7302629566412
 21
185.0666754761194
 31
0.0
  0
LINE
  5
25A9
330
253D
100
AcDbEntity
  8
0
 62
     7
100
AcDbLine
 10
204.7302629566412
 20
185.0666754761194
 30
0.0
 11
200.4302630242527
 21
185.0666754761194
 31
0.0
  0
LINE
  5
25AA
330
253D
100
AcDbEntity
  8
0
 62
     7
100
AcDbLine
 10
200.4302630242527
 20
185.0666754761194
 30
0.0
 11
200.4302630242273
 21
173.5666756489038
 31
0.0
  0
LINE
  5
25AB
330
253D
100
AcDbEntity
  8
0
 62
     7
100
AcDbLine
 10
200.4302630242273
 20
173.5666756489038
 30
0.0
 11
205.3302629506048
 21
173.5666756489038
 31
0.0
  0
LINE
  5
25AC
330
253D
100
AcDbEntity
  8
0
 62
     7
100
AcDbLine
 10
205.3302629506048
 20
173.5666756489038
 30
0.0
 11
205.3302629505874
 21
165.5666757690837
 31
0.0
  0
LINE
  5
25AD
330
253D
100
AcDbEntity
  8
0
 62
     7
100
AcDbLine
 10
205.3302629505874
 20
165.5666757690837
 30
0.0
 11
206.8302629280624
 21
165.5666757690837
 31
0.0
  0
LINE
  5
25AE
330
253D
100
AcDbEntity
  8
0
 62
     7
100
AcDbLine
 10
206.8302629280624
 20
165.5666757690837
 30
0.0
 11
206.8302629280796
 21
173.5666756489038
 31
0.0
  0
LINE
  5
25AF
330
253D
100
AcDbEntity
  8
0
 62
     7
100
AcDbLine
 10
206.8302629280796
 20
173.5666756489038
 30
0.0
 11
208.4302629040653
 21
173.5666756489038
 31
0.0
  0
LINE
  5
25B0
330
253D
100
AcDbEntity
  8
0
 62
     7
100
AcDbLine
 10
208.4302629040653
 20
173.5666756489038
 30
0.0
 11
208.4302629040879
 21
187.0666754461509
 31
0.0
  0
LINE
  5
25B1
330
253D
100
AcDbEntity
  8
0
 62
     7
100
AcDbLine
 10
207.9302629115893
 20
187.0666754461509
 30
0.0
 11
207.9302629115893
 21
182.8166755099202
 31
0.0
  0
LINE
  5
25B2
330
253D
100
AcDbEntity
  8
0
 62
     7
100
AcDbLine
 10
207.9302629115893
 20
182.8166755099202
 30
0.0
 11
208.430262904078
 21
182.8166755099202
 31
0.0
  0
LINE
  5
25B3
330
253D
100
AcDbEntity
  8
0
 62
     7
100
AcDbLine
 10
207.9302629116476
 20
213.5666750480345
 30
0.0
 11
204.7302629566991
 21
213.5666750480345
 31
0.0
  0
LINE
  5
25B4
330
253D
100
AcDbEntity
  8
0
 62
     7
100
AcDbLine
 10
207.9302629115893
 20
186.566675453586
 30
0.0
 11
204.7302629566526
 21
186.566675453586
 31
0.0
  0
LINE
  5
25B5
330
253D
100
AcDbEntity
  8
0
 62
     7
100
AcDbLine
 10
212.4302628441073
 20
226.5666748526863
 30
0.0
 11
208.4302629041693
 21
226.5666748527625
 31
0.0
  0
LINE
  5
25B6
330
253D
100
AcDbEntity
  8
0
 62
     7
100
AcDbLine
 10
208.4302629041693
 20
226.5666748527625
 30
0.0
 11
206.8302629281951
 21
226.5666748527625
 31
0.0
  0
LINE
  5
25B7
330
253D
100
AcDbEntity
  8
0
 62
     7
100
AcDbLine
 10
206.8302629281951
 20
226.5666748527625
 30
0.0
 11
206.830262928212
 21
234.5666747326588
 31
0.0
  0
LINE
  5
25B8
330
253D
100
AcDbEntity
  8
0
 62
     7
100
AcDbLine
 10
206.830262928212
 20
234.5666747326588
 30
0.0
 11
205.3302629507376
 21
234.5666747326588
 31
0.0
  0
LINE
  5
25B9
330
253D
100
AcDbEntity
  8
0
 62
     7
100
AcDbLine
 10
205.3302629507376
 20
234.5666747326588
 30
0.0
 11
205.3302629507204
 21
226.5666748527625
 31
0.0
  0
LINE
  5
25BA
330
253D
100
AcDbEntity
  8
0
 62
     7
100
AcDbLine
 10
205.3302629507204
 20
226.5666748527625
 30
0.0
 11
204.2302629642461
 21
226.5666748527625
 31
0.0
  0
LINE
  5
25BB
330
253D
100
AcDbEntity
  8
0
 62
     7
100
AcDbLine
 10
208.4302629040982
 20
213.3166750517953
 30
0.0
 11
208.4302629040982
 21
229.5306748082775
 31
0.0
  0
LINE
  5
25BC
330
253D
100
AcDbEntity
  8
0
 62
     7
100
AcDbLine
 10
208.4302629040982
 20
229.5306748082775
 30
0.0
 11
217.7302627644093
 21
229.5306748082775
 31
0.0
  0
LINE
  5
25BD
330
253D
100
AcDbEntity
  8
0
 62
     7
100
AcDbLine
 10
217.7302627644093
 20
229.5306748082775
 30
0.0
 11
217.7302627644093
 21
213.3166750517953
 31
0.0
  0
LINE
  5
25BE
330
253D
100
AcDbEntity
  8
0
 62
     7
100
AcDbLine
 10
217.7302627644093
 20
213.3166750517953
 30
0.0
 11
208.4302629040982
 21
213.3166750517953
 31
0.0
  0
LINE
  5
25BF
330
253D
100
AcDbEntity
  8
0
 62
     7
100
AcDbLine
 10
212.6302628410114
 20
213.3166750517953
 30
0.0
 11
212.6302628410114
 21
229.5306748082775
 31
0.0
  0
LINE
  5
25C0
330
253D
100
AcDbEntity
  8
0
 62
     7
100
AcDbLine
 10
208.4302629040982
 20
217.0666749954583
 30
0.0
 11
212.6302628410114
 21
217.0666749954583
 31
0.0
  0
LINE
  5
25C1
330
253D
100
AcDbEntity
  8
0
 62
     7
100
AcDbLine
 10
208.4302629040982
 20
186.8166754498304
 30
0.0
 11
208.4302629040982
 21
170.6026756935663
 31
0.0
  0
LINE
  5
25C2
330
253D
100
AcDbEntity
  8
0
 62
     7
100
AcDbLine
 10
208.4302629040982
 20
170.6026756935663
 30
0.0
 11
217.7302627644093
 21
170.6026756935663
 31
0.0
  0
LINE
  5
25C3
330
253D
100
AcDbEntity
  8
0
 62
     7
100
AcDbLine
 10
217.7302627644093
 20
170.6026756935663
 30
0.0
 11
217.7302627644093
 21
186.8166754498304
 31
0.0
  0
LINE
  5
25C4
330
253D
100
AcDbEntity
  8
0
 62
     7
100
AcDbLine
 10
217.7302627644093
 20
186.8166754498304
 30
0.0
 11
208.4302629040982
 21
186.8166754498304
 31
0.0
  0
LINE
  5
25C5
330
253D
100
AcDbEntity
  8
0
 62
     7
100
AcDbLine
 10
208.4302629040982
 20
183.0666755061647
 30
0.0
 11
212.6302628410114
 21
183.0666755061647
 31
0.0
  0
LINE
  5
25C6
330
253D
100
AcDbEntity
  8
0
 62
     7
100
AcDbLine
 10
212.6302628410114
 20
183.0666755061647
 30
0.0
 11
212.6302628410114
 21
186.8166754498304
 31
0.0
  0
LINE
  5
25C7
330
253D
100
AcDbEntity
  8
0
 62
     7
100
AcDbLine
 10
208.0902629091955
 20
160.1886758499692
 30
0.0
 11
218.7002627497663
 21
160.1886758499692
 31
0.0
  0
LINE
  5
25C8
330
253D
100
AcDbEntity
  8
0
 62
     7
100
AcDbLine
 10
200.2302629642468
 20
186.566675453586
 30
0.0
 11
204.2302629641883
 21
186.566675453586
 31
0.0
  0
LINE
  5
25C9
330
253D
100
AcDbEntity
  8
0
 62
     7
100
AcDbLine
 10
217.7302627644144
 20
217.5666749879825
 30
0.0
 11
218.7802627486916
 21
217.5666749879825
 31
0.0
  0
LINE
  5
25CA
330
253D
100
AcDbEntity
  8
0
 62
     7
100
AcDbLine
 10
218.7802627486916
 20
217.5666749879825
 30
0.0
 11
218.7802627486916
 21
213.0666750555584
 31
0.0
  0
LINE
  5
25CB
330
253D
100
AcDbEntity
  8
0
 62
     7
100
AcDbLine
 10
218.7802627486916
 20
216.0666750105061
 30
0.0
 11
220.130262728411
 21
216.0666750105061
 31
0.0
  0
LINE
  5
25CC
330
253D
100
AcDbEntity
  8
0
 62
     7
100
AcDbLine
 10
220.130262728411
 20
216.0666750105061
 30
0.0
 11
220.130262728411
 21
213.0666750555584
 31
0.0
  0
LINE
  5
25CD
330
253D
100
AcDbEntity
  8
0
 62
     7
100
AcDbLine
 10
217.7302627644144
 20
182.5666755137264
 30
0.0
 11
218.7802627486916
 21
182.5666755137264
 31
0.0
  0
LINE
  5
25CE
330
253D
100
AcDbEntity
  8
0
 62
     7
100
AcDbLine
 10
218.7802627486916
 20
182.5666755137264
 30
0.0
 11
218.7802627486916
 21
187.0666754461509
 31
0.0
  0
LINE
  5
25CF
330
253D
100
AcDbEntity
  8
0
 62
     7
100
AcDbLine
 10
218.7802627486916
 20
184.0666754911168
 30
0.0
 11
220.130262728411
 21
184.0666754911168
 31
0.0
  0
LINE
  5
25D0
330
253D
100
AcDbEntity
  8
0
 62
     7
100
AcDbLine
 10
220.130262728411
 20
184.0666754911168
 30
0.0
 11
220.130262728411
 21
187.0666754461509
 31
0.0
  0
LINE
  5
25D1
330
253D
100
AcDbEntity
  8
0
 62
     7
100
AcDbLine
 10
217.7302627644144
 20
213.3166750517953
 30
0.0
 11
217.7302627644144
 21
213.0666750555584
 31
0.0
  0
LINE
  5
25D2
330
253D
100
AcDbEntity
  8
0
 62
     7
100
AcDbLine
 10
217.7302627644144
 20
187.0666754461509
 30
0.0
 11
217.7302627644144
 21
186.8166754498304
 31
0.0
  0
LINE
  5
25D3
330
253D
100
AcDbEntity
  8
0
 62
     7
100
AcDbLine
 10
200.2302629642468
 20
209.3666751111414
 30
0.0
 11
222.230262829509
 21
209.3666751111414
 31
0.0
  0
LINE
  5
25D4
330
253D
100
AcDbEntity
  8
0
 62
     7
100
AcDbLine
 10
200.2302629642468
 20
207.0666751456808
 30
0.0
 11
222.230262829509
 21
207.0666751456808
 31
0.0
  0
LINE
  5
25D5
330
253D
100
AcDbEntity
  8
0
 62
     7
100
AcDbLine
 10
200.2302629642468
 20
193.066675356016
 30
0.0
 11
222.230262829509
 21
193.066675356016
 31
0.0
  0
LINE
  5
25D6
330
253D
100
AcDbEntity
  8
0
 62
     7
100
AcDbLine
 10
358.8871864774616
 20
187.1177771047759
 30
0.0
 11
358.8871864774616
 21
183.8166754949681
 31
0.0
  0
LINE
  5
25D7
330
253D
100
AcDbEntity
  8
0
 62
     7
100
AcDbLine
 10
358.8871864774616
 20
183.8166754949681
 30
0.0
 11
361.7471864345108
 21
183.8166754949681
 31
0.0
  0
LINE
  5
25D8
330
253D
100
AcDbEntity
  8
0
 62
     7
100
AcDbLine
 10
362.6138530881438
 20
184.6833421486337
 30
0.0
 11
362.6138530881438
 21
186.4466816375642
 31
0.0
  0
LINE
  5
25D9
330
253D
100
AcDbEntity
  8
0
 62
     7
100
AcDbLine
 10
358.0205198238169
 20
187.1177771047759
 30
0.0
 11
358.0205198238169
 21
183.8166754949681
 31
0.0
  0
LINE
  5
25DA
330
253D
100
AcDbEntity
  8
0
 62
     7
100
AcDbLine
 10
358.0205198238169
 20
183.8166754949681
 30
0.0
 11
355.1605198667707
 21
183.8166754949681
 31
0.0
  0
LINE
  5
25DB
330
253D
100
AcDbEntity
  8
0
 62
     7
100
AcDbLine
 10
354.29385321315
 20
184.6833421486337
 30
0.0
 11
354.29385321315
 21
186.4466816375642
 31
0.0
  0
LINE
  5
25DC
330
253D
100
AcDbEntity
  8
0
 62
     7
100
AcDbLine
 10
220.2302628294233
 20
254.6666744303001
 30
0.0
 11
219.8302628354304
 21
255.0666744242908
 31
0.0
  0
LINE
  5
25DD
330
253D
100
AcDbEntity
  8
0
 62
     7
100
AcDbLine
 10
219.8302628354304
 20
255.0666744242908
 30
0.0
 11
206.6302627783026
 21
255.0666744244689
 31
0.0
  0
LINE
  5
25DE
330
253D
100
AcDbEntity
  8
0
 62
     7
100
AcDbLine
 10
206.6302627783026
 20
255.0666744244689
 30
0.0
 11
206.2302627843623
 21
254.6666744306813
 31
0.0
  0
LINE
  5
25DF
330
253D
100
AcDbEntity
  8
0
 62
     7
100
AcDbLine
 10
206.2302627843623
 20
254.6666744306813
 30
0.0
 11
206.2302627843874
 21
252.5666752508076
 31
0.0
  0
LINE
  5
25E0
330
253D
100
AcDbEntity
  8
0
 62
     7
100
AcDbLine
 10
205.9302627889198
 20
245.0666745748464
 30
0.0
 11
203.630262823446
 21
245.0666745748464
 31
0.0
  0
LINE
  5
25E1
330
253D
100
AcDbEntity
  8
0
 62
     7
100
AcDbLine
 10
203.630262823446
 20
245.0666745748464
 30
0.0
 11
203.230262829506
 21
244.6666745808808
 31
0.0
  0
LINE
  5
25E2
330
253D
100
AcDbEntity
  8
0
 62
     7
100
AcDbLine
 10
220.230262829509
 20
145.4666760711374
 30
0.0
 11
219.8302628355194
 21
145.066676077044
 31
0.0
  0
LINE
  5
25E3
330
253D
100
AcDbEntity
  8
0
 62
     7
100
AcDbLine
 10
219.8302628355194
 20
145.066676077044
 30
0.0
 11
206.6302627784739
 21
145.066676077044
 31
0.0
  0
LINE
  5
25E4
330
253D
100
AcDbEntity
  8
0
 62
     7
100
AcDbLine
 10
206.6302627784739
 20
145.066676077044
 30
0.0
 11
206.2302627845338
 21
145.4666760711374
 31
0.0
  0
LINE
  5
25E5
330
253D
100
AcDbEntity
  8
0
 62
     7
100
AcDbLine
 10
206.2302627845338
 20
145.4666760711374
 30
0.0
 11
206.2302627845084
 21
147.3166752508074
 31
0.0
  0
LINE
  5
25E6
330
253D
100
AcDbEntity
  8
0
 62
     7
100
AcDbLine
 10
205.9302627890401
 20
155.0666759268199
 30
0.0
 11
203.6302628236678
 21
155.0666759265658
 31
0.0
  0
LINE
  5
25E7
330
253D
100
AcDbEntity
  8
0
 62
     7
100
AcDbLine
 10
203.6302628236678
 20
155.0666759265658
 30
0.0
 11
203.2302628295755
 21
155.4666759204045
 31
0.0
  0
LINE
  5
25E8
330
253D
100
AcDbEntity
  8
0
 62
     7
100
AcDbLine
 10
203.2302628295755
 20
155.4666759204045
 30
0.0
 11
203.2302628294341
 21
158.4576752508076
 31
0.0
  0
LINE
  5
25E9
330
253D
100
AcDbEntity
  8
0
 62
     7
100
AcDbLine
 10
203.230262829506
 20
241.5166752505283
 30
0.0
 11
203.230262829506
 21
241.6756752508077
 31
0.0
  0
LINE
  5
25EA
330
253D
100
AcDbEntity
  8
0
 62
     7
100
AcDbLine
 10
206.2302627843874
 20
247.9166752508076
 30
0.0
 11
206.2302627843874
 21
247.5666752508077
 31
0.0
  0
LINE
  5
25EB
330
253D
100
AcDbEntity
  8
0
 62
     7
100
AcDbLine
 10
206.2302627843874
 20
247.9166752508076
 30
0.0
 11
206.2302627843874
 21
248.0666752508076
 31
0.0
  0
LINE
  5
25EC
330
253D
100
AcDbEntity
  8
0
 62
     7
100
AcDbLine
 10
220.2302628295061
 20
247.9166752508076
 30
0.0
 11
220.2302628295061
 21
252.2166752508077
 31
0.0
  0
LINE
  5
25ED
330
253D
100
AcDbEntity
  8
0
 62
     7
100
AcDbLine
 10
220.2302628295061
 20
252.2166752508077
 30
0.0
 11
220.2302628294233
 21
252.8166752508074
 31
0.0
  0
LINE
  5
25EE
330
253D
100
AcDbEntity
  8
1
 62
     7
100
AcDbLine
 10
213.2302627843873
 20
252.8166752508074
 30
0.0
 11
212.6355920071397
 21
252.0666752508077
 31
0.0
  0
LINE
  5
25EF
330
253D
100
AcDbEntity
  8
1
 62
     7
100
AcDbLine
 10
212.6355920071397
 20
252.0666752508077
 30
0.0
 11
212.6355920071588
 21
248.0710630515809
 31
0.0
  0
LINE
  5
25F0
330
253D
100
AcDbEntity
  8
1
 62
     7
100
AcDbLine
 10
212.6355920071588
 20
248.0710630515809
 30
0.0
 11
213.2302627843873
 21
247.3166752508077
 31
0.0
  0
LINE
  5
25F1
330
253D
100
AcDbEntity
  8
1
 62
     7
100
AcDbLine
 10
213.2302627844226
 20
247.3166752508077
 30
0.0
 11
213.2302627843873
 21
247.3166752508077
 31
0.0
  0
LINE
  5
25F2
330
253D
100
AcDbEntity
  8
1
 62
     7
100
AcDbLine
 10
213.2302627843873
 20
252.8166752508074
 30
0.0
 11
213.2302627843873
 21
247.3166752508077
 31
0.0
  0
LINE
  5
25F3
330
253D
100
AcDbEntity
  8
1
 62
     7
100
AcDbLine
 10
213.2302627843873
 20
247.3166752508077
 30
0.0
 11
213.2302627844226
 21
247.3166752508077
 31
0.0
  0
LINE
  5
25F4
330
253D
100
AcDbEntity
  8
1
  6
CENTER
 62
     3
100
AcDbLine
 10
202.23026284458
 20
150.0666752508077
 30
0.0
 11
224.2302627694372
 21
150.0666752508077
 31
0.0
  0
LINE
  5
25F5
330
253D
100
AcDbEntity
  8
1
 62
     7
100
AcDbLine
 10
206.2302627845084
 20
147.3166752508074
 30
0.0
 11
220.230262829509
 21
147.3166752508074
 31
0.0
  0
LINE
  5
25F6
330
253D
100
AcDbEntity
  8
0
 62
     7
100
AcDbLine
 10
206.2302627845084
 20
147.3166752508074
 30
0.0
 11
206.2302627845084
 21
152.8166752508074
 31
0.0
  0
LINE
  5
25F7
330
253D
100
AcDbEntity
  8
0
 62
     7
100
AcDbLine
 10
220.230262829509
 20
147.3166752508074
 30
0.0
 11
220.230262829509
 21
145.4666760711374
 31
0.0
  0
LINE
  5
25F8
330
253D
100
AcDbEntity
  8
1
 62
     7
100
AcDbLine
 10
206.2302627845084
 20
152.8166752508074
 30
0.0
 11
220.230262829509
 21
152.8166752508074
 31
0.0
  0
LINE
  5
25F9
330
253D
100
AcDbEntity
  8
0
 62
     7
100
AcDbLine
 10
206.2302627845084
 20
152.8166752508074
 30
0.0
 11
206.2302627844829
 21
154.7666759313774
 31
0.0
  0
LINE
  5
25FA
330
253D
100
AcDbEntity
  8
0
 62
     7
100
AcDbLine
 10
220.230262829509
 20
152.8166752508074
 30
0.0
 11
220.230262829509
 21
147.3166752508074
 31
0.0
  0
LINE
  5
25FB
330
253D
100
AcDbEntity
  8
2
  6
CENTER
 62
     3
100
AcDbLine
 10
297.4538584070129
 20
200.0666752508077
 30
0.0
 11
419.4538567550456
 21
200.0666752508663
 31
0.0
  0
LINE
  5
25FC
330
253D
100
AcDbEntity
  8
1
 62
     7
100
AcDbLine
 10
355.9538531887028
 20
206.605023567913
 30
0.0
 11
355.9538531887028
 21
209.366675111225
 31
0.0
  0
LINE
  5
25FD
330
253D
100
AcDbEntity
  8
1
 62
     7
100
AcDbLine
 10
360.9538531128289
 20
209.366675111225
 30
0.0
 11
360.9538531128289
 21
206.605023567913
 31
0.0
  0
LINE
  5
25FE
330
253D
100
AcDbEntity
  8
1
 62
     7
100
AcDbLine
 10
355.9538531887028
 20
209.366675111225
 30
0.0
 11
360.9538531128289
 21
209.366675111225
 31
0.0
  0
LINE
  5
25FF
330
253D
100
AcDbEntity
  8
1
 62
     3
100
AcDbLine
 10
206.2302627843874
 20
247.5666752508077
 30
0.0
 11
213.0145183832047
 21
247.5666752508077
 31
0.0
  0
LINE
  5
2600
330
253D
100
AcDbEntity
  8
0
 62
     7
100
AcDbLine
 10
206.2302627843874
 20
247.5666752508077
 30
0.0
 11
206.2302627844132
 21
245.3666745703396
 31
0.0
  0
LINE
  5
2601
330
253D
100
AcDbEntity
  8
1
 62
     3
100
AcDbLine
 10
206.2302627843874
 20
252.5666752508076
 30
0.0
 11
213.0305674751964
 21
252.5666752508076
 31
0.0
  0
LINE
  5
2602
330
253D
100
AcDbEntity
  8
0
 62
     7
100
AcDbLine
 10
206.2302627843874
 20
252.5666752508076
 30
0.0
 11
206.2302627843874
 21
252.2166752508077
 31
0.0
  0
LINE
  5
2603
330
253D
100
AcDbEntity
  8
1
  6
CENTER
 62
     3
100
AcDbLine
 10
224.2302627694499
 20
250.0666752508077
 30
0.0
 11
204.9492627843831
 21
250.0666752508077
 31
0.0
  0
LINE
  5
2604
330
253D
100
AcDbEntity
  8
1
 62
     7
100
AcDbLine
 10
206.2302627843874
 20
248.0666752508076
 30
0.0
 11
212.6355920071397
 21
248.0666752508076
 31
0.0
  0
LINE
  5
2605
330
253D
100
AcDbEntity
  8
0
 62
     7
100
AcDbLine
 10
206.2302627843874
 20
248.0666752508076
 30
0.0
 11
206.2302627843874
 21
252.0666752508077
 31
0.0
  0
LINE
  5
2606
330
253D
100
AcDbEntity
  8
1
 62
     7
100
AcDbLine
 10
206.2302627843874
 20
252.0666752508077
 30
0.0
 11
212.6355920071397
 21
252.0666752508077
 31
0.0
  0
LINE
  5
2607
330
253D
100
AcDbEntity
  8
0
 62
     7
100
AcDbLine
 10
206.2302627843874
 20
252.0666752508077
 30
0.0
 11
206.2302627843874
 21
252.2166752508077
 31
0.0
  0
LINE
  5
2608
330
253D
100
AcDbEntity
  8
1
 62
     7
100
AcDbLine
 10
213.2302627843873
 20
252.8166752508074
 30
0.0
 11
220.2302628294233
 21
252.8166752508074
 31
0.0
  0
LINE
  5
2609
330
253D
100
AcDbEntity
  8
0
 62
     7
100
AcDbLine
 10
220.2302628294233
 20
252.8166752508074
 30
0.0
 11
220.2302628294233
 21
254.6666744303001
 31
0.0
  0
LINE
  5
260A
330
253D
100
AcDbEntity
  8
1
 62
     7
100
AcDbLine
 10
213.2302627843873
 20
247.3166752508077
 30
0.0
 11
220.2302628294233
 21
247.3166752508077
 31
0.0
  0
LINE
  5
260B
330
253D
100
AcDbEntity
  8
0
 62
     7
100
AcDbLine
 10
220.2302628294233
 20
247.3166752508077
 30
0.0
 11
220.2302628295061
 21
247.9166752508076
 31
0.0
  0
LINE
  5
260C
330
253D
100
AcDbEntity
  8
1
  6
CENTER
 62
     3
100
AcDbLine
 10
385.51635758103
 20
153.1930502710028
 30
0.0
 11
381.3913575810296
 21
160.3377598522245
 31
0.0
  0
LINE
  5
260D
330
253D
100
AcDbEntity
  8
1
  6
CENTER
 62
     3
100
AcDbLine
 10
405.3274825608616
 20
173.0041752508356
 30
0.0
 11
398.1827729796409
 21
177.1291752508354
 31
0.0
  0
LINE
  5
260E
330
253D
100
AcDbEntity
  8
1
  6
CENTER
 62
     3
100
AcDbLine
 10
405.3274825608616
 20
227.1291752508356
 30
0.0
 11
398.1827729796409
 21
223.0041752508356
 31
0.0
  0
LINE
  5
260F
330
253D
100
AcDbEntity
  8
1
  6
CENTER
 62
     3
100
AcDbLine
 10
385.5163575810288
 20
246.9403002306683
 30
0.0
 11
381.3913575810289
 21
239.7955906494466
 31
0.0
  0
LINE
  5
2610
330
253D
100
AcDbEntity
  8
1
  6
CENTER
 62
     3
100
AcDbLine
 10
344.5423339067679
 20
251.9851884138728
 30
0.0
 11
346.4834767450371
 21
244.7407447167048
 31
0.0
  0
LINE
  5
2611
330
253D
100
AcDbEntity
  8
1
  6
CENTER
 62
     3
100
AcDbLine
 10
372.3653812552896
 20
148.1481620877983
 30
0.0
 11
370.424238417022
 21
155.3926057849658
 31
0.0
  0
LINE
  5
2612
330
253D
100
AcDbEntity
  8
1
 62
     7
100
AcDbLine
 10
181.830262829509
 20
266.6666752508077
 30
0.0
 11
181.830262829509
 21
264.8166752508076
 31
0.0
  0
LINE
  5
2613
330
253D
100
AcDbEntity
  8
1
 62
     7
100
AcDbLine
 10
178.6302628295088
 20
267.0666752508076
 30
0.0
 11
178.230262829509
 21
266.6666752508077
 31
0.0
  0
LINE
  5
2614
330
253D
100
AcDbEntity
  8
1
 62
     7
100
AcDbLine
 10
181.4302628295088
 20
267.0666752508076
 30
0.0
 11
181.830262829509
 21
266.6666752508077
 31
0.0
  0
LINE
  5
2615
330
253D
100
AcDbEntity
  8
1
 62
     7
100
AcDbLine
 10
178.230262829509
 20
257.4666752508075
 30
0.0
 11
178.230262829509
 21
259.3166752508076
 31
0.0
  0
LINE
  5
2616
330
253D
100
AcDbEntity
  8
1
 62
     7
100
AcDbLine
 10
178.230262829509
 20
257.5666752508076
 30
0.0
 11
178.230262829509
 21
266.6666752508077
 31
0.0
  0
LINE
  5
2617
330
253D
100
AcDbEntity
  8
1
 62
     7
100
AcDbLine
 10
178.230262829509
 20
257.0666752508076
 30
0.0
 11
178.230262829509
 21
257.5666752508076
 31
0.0
  0
LINE
  5
2618
330
253D
100
AcDbEntity
  8
1
 62
     7
100
AcDbLine
 10
178.6302628295088
 20
257.0666752508076
 30
0.0
 11
180.2302628295088
 21
257.0666752508076
 31
0.0
  0
LINE
  5
2619
330
253D
100
AcDbEntity
  8
1
 62
     7
100
AcDbLine
 10
178.6302628295088
 20
257.0666752508076
 30
0.0
 11
178.230262829509
 21
257.4666752508075
 31
0.0
  0
LINE
  5
261A
330
253D
100
AcDbEntity
  8
1
 62
     7
100
AcDbLine
 10
178.230262829509
 20
257.0666752508076
 30
0.0
 11
178.230262829509
 21
257.4666752508075
 31
0.0
  0
LINE
  5
261B
330
253D
100
AcDbEntity
  8
1
 62
     7
100
AcDbLine
 10
181.241262829509
 20
242.2966752508076
 30
0.0
 11
181.241262829509
 21
200.0666752508077
 31
0.0
  0
LINE
  5
261C
330
253D
100
AcDbEntity
  8
1
  6
CENTER
 62
     3
100
AcDbLine
 10
181.241262829509
 20
200.0666752508077
 30
0.0
 11
174.2626782457649
 21
200.0666752508077
 31
0.0
  0
LINE
  5
261D
330
253D
100
AcDbEntity
  8
1
 62
     7
100
AcDbLine
 10
181.241262829509
 20
157.8366752508078
 30
0.0
 11
181.241262829509
 21
143.3916752508078
 31
0.0
  0
LINE
  5
261E
330
253D
100
AcDbEntity
  8
1
 62
     7
100
AcDbLine
 10
178.230262829509
 20
135.3166752508078
 30
0.0
 11
178.230262829509
 21
140.8166752508078
 31
0.0
  0
LINE
  5
261F
330
253D
100
AcDbEntity
  8
1
 62
     7
100
AcDbLine
 10
181.830262829509
 20
135.3166752508078
 30
0.0
 11
181.830262829509
 21
140.8166752508078
 31
0.0
  0
LINE
  5
2620
330
253D
100
AcDbEntity
  8
1
 62
     7
100
AcDbLine
 10
181.830262829509
 20
135.3166752508078
 30
0.0
 11
178.230262829509
 21
135.3166752508078
 31
0.0
  0
LINE
  5
2621
330
253D
100
AcDbEntity
  8
1
 62
     7
100
AcDbLine
 10
181.830262829509
 20
140.8166752508078
 30
0.0
 11
181.830262829509
 21
157.7036752508078
 31
0.0
  0
LINE
  5
2622
330
253D
100
AcDbEntity
  8
1
 62
     7
100
AcDbLine
 10
181.830262829509
 20
140.8166752508078
 30
0.0
 11
178.230262829509
 21
140.8166752508078
 31
0.0
  0
LINE
  5
2623
330
253D
100
AcDbEntity
  8
1
 62
     7
100
AcDbLine
 10
181.4302628295088
 20
133.0666752508074
 30
0.0
 11
178.6302628295088
 21
133.0666752508074
 31
0.0
  0
LINE
  5
2624
330
253D
100
AcDbEntity
  8
1
 62
     7
100
AcDbLine
 10
178.230262829509
 20
143.0666752508078
 30
0.0
 11
178.230262829509
 21
200.0666752508077
 31
0.0
  0
LINE
  5
2625
330
253D
100
AcDbEntity
  8
1
 62
     7
100
AcDbLine
 10
181.830262829509
 20
135.3166752508078
 30
0.0
 11
181.830262829509
 21
133.4666752508077
 31
0.0
  0
LINE
  5
2626
330
253D
100
AcDbEntity
  8
1
 62
     7
100
AcDbLine
 10
178.230262829509
 20
133.4666752508077
 30
0.0
 11
178.6302628295088
 21
133.0666752508074
 31
0.0
  0
LINE
  5
2627
330
253D
100
AcDbEntity
  8
1
 62
     7
100
AcDbLine
 10
181.830262829509
 20
133.4666752508077
 30
0.0
 11
181.4302628295088
 21
133.0666752508074
 31
0.0
  0
LINE
  5
2628
330
253D
100
AcDbEntity
  8
1
 62
     7
100
AcDbLine
 10
178.230262829509
 20
140.8166752508078
 30
0.0
 11
178.230262829509
 21
142.6666752508078
 31
0.0
  0
LINE
  5
2629
330
253D
100
AcDbEntity
  8
1
 62
     7
100
AcDbLine
 10
178.230262829509
 20
133.4666752508077
 30
0.0
 11
178.230262829509
 21
142.5666752508078
 31
0.0
  0
LINE
  5
262A
330
253D
100
AcDbEntity
  8
1
 62
     7
100
AcDbLine
 10
178.230262829509
 20
142.5666752508078
 30
0.0
 11
178.230262829509
 21
143.0666752508078
 31
0.0
  0
LINE
  5
262B
330
253D
100
AcDbEntity
  8
1
 62
     7
100
AcDbLine
 10
180.9162628295089
 20
143.0666752508078
 30
0.0
 11
178.6302628295088
 21
143.0666752508078
 31
0.0
  0
LINE
  5
262C
330
253D
100
AcDbEntity
  8
1
 62
     7
100
AcDbLine
 10
178.230262829509
 20
142.6666752508078
 30
0.0
 11
178.6302628295088
 21
143.0666752508078
 31
0.0
  0
LINE
  5
262D
330
253D
100
AcDbEntity
  8
1
 62
     7
100
AcDbLine
 10
178.230262829509
 20
142.6666752508078
 30
0.0
 11
178.230262829509
 21
143.0666752508078
 31
0.0
  0
LINE
  5
262E
330
253D
100
AcDbEntity
  8
1
 62
     7
100
AcDbLine
 10
181.241262829509
 20
200.0666752508077
 30
0.0
 11
181.241262829509
 21
157.8366752508078
 31
0.0
  0
LINE
  5
262F
330
253D
100
AcDbEntity
  8
1
  6
CENTER
 62
     3
100
AcDbLine
 10
183.1252168013435
 20
138.0666752508078
 30
0.0
 11
176.4463030076164
 21
138.0666752508078
 31
0.0
  0
LINE
  5
2630
330
253D
100
AcDbEntity
  8
1
  6
CENTER
 62
     3
100
AcDbLine
 10
-37.6592633392116
 20
200.0666752508077
 30
0.0
 11
97.34073666078836
 21
200.0666752508077
 31
0.0
  0
LINE
  5
2631
330
253D
100
AcDbEntity
  8
1
  6
CENTER
 62
     3
100
AcDbLine
 10
97.34073666078836
 20
200.0666752508077
 30
0.0
 11
108.3407366607882
 21
200.0666752508077
 31
0.0
  0
LINE
  5
2632
330
253D
100
AcDbEntity
  8
1
  6
CENTER
 62
     3
100
AcDbLine
 10
35.34073666078838
 20
127.0666752508077
 30
0.0
 11
35.34073666078838
 21
239.9406752508077
 31
0.0
  0
LINE
  5
2633
330
253D
100
AcDbEntity
  8
1
  6
CENTER
 62
     3
100
AcDbLine
 10
2.278236660788393
 20
257.3326050760537
 30
0.0
 11
6.403236660788388
 21
250.187895494832
 31
0.0
  0
LINE
  5
2634
330
253D
100
AcDbEntity
  8
1
  6
CENTER
 62
     3
100
AcDbLine
 10
-21.92519316445771
 20
233.1291752508076
 30
0.0
 11
-14.7804835832361
 21
229.0041752508077
 31
0.0
  0
LINE
  5
2635
330
253D
100
AcDbEntity
  8
1
  6
CENTER
 62
     3
100
AcDbLine
 10
-21.92519316445771
 20
167.0041752508074
 30
0.0
 11
-14.78048358323599
 21
171.1291752508074
 31
0.0
  0
LINE
  5
2636
330
253D
100
AcDbEntity
  8
1
  6
CENTER
 62
     3
100
AcDbLine
 10
2.278236660788393
 20
142.8007454255615
 30
0.0
 11
6.403236660788388
 21
149.9454550067833
 31
0.0
  0
LINE
  5
2637
330
253D
100
AcDbEntity
  8
1
  6
CENTER
 62
     3
100
AcDbLine
 10
68.4032366607883
 20
142.8007454255615
 30
0.0
 11
64.27823666078833
 21
149.9454550067833
 31
0.0
  0
LINE
  5
2638
330
253D
100
AcDbEntity
  8
1
  6
CENTER
 62
     3
100
AcDbLine
 10
92.60666648603423
 20
167.0041752508074
 30
0.0
 11
85.4619569048126
 21
171.1291752508074
 31
0.0
  0
LINE
  5
2639
330
253D
100
AcDbEntity
  8
1
  6
CENTER
 62
     3
100
AcDbLine
 10
92.60666648603423
 20
233.1291752508076
 30
0.0
 11
85.4619569048126
 21
229.0041752508077
 31
0.0
  0
LINE
  5
263A
330
253D
100
AcDbEntity
  8
1
  6
CENTER
 62
     3
100
AcDbLine
 10
68.4032366607883
 20
257.3326050760537
 30
0.0
 11
64.27823666078833
 21
250.187895494832
 31
0.0
  0
LINE
  5
263B
330
253D
100
AcDbEntity
  8
1
  6
CENTER
 62
     3
100
AcDbLine
 10
35.34073666078838
 20
239.9406752508077
 30
0.0
 11
35.34073666078838
 21
273.0666752508076
 31
0.0
  0
LINE
  5
263C
330
253D
100
AcDbEntity
  8
2
  6
CENTER
 62
     3
100
AcDbLine
 10
358.4538575810289
 20
145.066676076791
 30
0.0
 11
358.4538575810289
 21
139.0666760767909
 31
0.0
  0
LINE
  5
263D
330
253D
100
AcDbEntity
  8
2
  6
CENTER
 62
     3
100
AcDbLine
 10
358.4538575810289
 20
159.6016752508423
 30
0.0
 11
358.4538575810289
 21
158.4576752508423
 31
0.0
  0
LINE
  5
263E
330
253D
100
AcDbEntity
  8
2
  6
CENTER
 62
     3
100
AcDbLine
 10
358.4538575810289
 20
158.4576752508423
 30
0.0
 11
358.4538575810298
 21
150.0666752508356
 31
0.0
  0
LINE
  5
263F
330
253D
100
AcDbEntity
  8
2
  6
CENTER
 62
     3
100
AcDbLine
 10
358.4538575810298
 20
150.0666752508356
 30
0.0
 11
358.4538575810289
 21
145.066676076791
 31
0.0
  0
LINE
  5
2640
330
253D
100
AcDbEntity
  8
1
  6
CENTER
 62
     3
100
AcDbLine
 10
335.5163487202488
 20
239.7955906494466
 30
0.0
 11
331.3913487202488
 21
246.9403002306683
 31
0.0
  0
LINE
  5
2641
330
253D
100
AcDbEntity
  8
1
  6
CENTER
 62
     3
100
AcDbLine
 10
318.7249333216366
 20
223.0041752508356
 30
0.0
 11
311.5802237404158
 21
227.1291752508356
 31
0.0
  0
LINE
  5
2642
330
253D
100
AcDbEntity
  8
1
  6
CENTER
 62
     3
100
AcDbLine
 10
318.7249333216366
 20
177.1291752508354
 30
0.0
 11
311.5802237404158
 21
173.0041752508356
 31
0.0
  0
LINE
  5
2643
330
253D
100
AcDbEntity
  8
1
  6
CENTER
 62
     3
100
AcDbLine
 10
335.516348720248
 20
160.3377598522245
 30
0.0
 11
331.391348720248
 21
153.1930502710028
 31
0.0
  0
LINE
  5
2644
330
253D
100
AcDbEntity
  8
1
  6
PHANTOM
 62
     4
100
AcDbLine
 10
180.2302628295088
 20
236.5666752508074
 30
0.0
 11
189.830262829509
 21
236.5666752508074
 31
0.0
  0
LINE
  5
2645
330
253D
100
AcDbEntity
  8
1
  6
PHANTOM
 62
     4
100
AcDbLine
 10
180.2302628295088
 20
257.0666752508076
 30
0.0
 11
180.2302628295088
 21
236.5666752508074
 31
0.0
  0
LINE
  5
2646
330
253D
100
AcDbEntity
  8
1
 62
     7
100
AcDbLine
 10
180.2302628295088
 20
257.0666752508076
 30
0.0
 11
180.8162628295089
 21
257.0666752508076
 31
0.0
  0
LINE
  5
2647
330
253D
100
AcDbEntity
  8
1
  6
DIVIDE
 62
     4
100
AcDbLine
 10
183.0302627845142
 20
243.0666752508077
 30
0.0
 11
183.0302627843462
 21
243.0666752508077
 31
0.0
  0
LINE
  5
2648
330
253D
100
AcDbEntity
  8
1
  6
PHANTOM
 62
     4
100
AcDbLine
 10
183.0302627843462
 20
257.0666752508076
 30
0.0
 11
183.0302627843462
 21
243.0666752508077
 31
0.0
  0
LINE
  5
2649
330
253D
100
AcDbEntity
  8
1
  6
PHANTOM
 62
     4
100
AcDbLine
 10
183.0302627843462
 20
243.0666752508077
 30
0.0
 11
193.4302627845016
 21
243.0666752508077
 31
0.0
  0
LINE
  5
264A
330
253D
100
AcDbEntity
  8
0
 62
     7
100
AcDbLine
 10
200.2302629642468
 20
223.2590477917736
 30
0.0
 11
200.2302629642468
 21
200.0666752508077
 31
0.0
  0
LINE
  5
264B
330
253D
100
AcDbEntity
  8
1
  6
PHANTOM
 62
     4
100
AcDbLine
 10
193.4302627845016
 20
157.0666752508074
 30
0.0
 11
183.0302627843462
 21
157.0666752508074
 31
0.0
  0
LINE
  5
264C
330
253D
100
AcDbEntity
  8
1
  6
PHANTOM
 62
     4
100
AcDbLine
 10
189.830262829509
 20
163.5666752508074
 30
0.0
 11
180.2302628295088
 21
163.5666752508074
 31
0.0
  0
LINE
  5
264D
330
253D
100
AcDbEntity
  8
1
  6
PHANTOM
 62
     4
100
AcDbLine
 10
180.2302628295088
 20
163.5666752508074
 30
0.0
 11
180.2302628295088
 21
143.0666752508074
 31
0.0
  0
LINE
  5
264E
330
253D
100
AcDbEntity
  8
1
  6
PHANTOM
 62
     4
100
AcDbLine
 10
183.0302627843462
 20
157.0666752508074
 30
0.0
 11
183.0302627843462
 21
143.0666752508074
 31
0.0
  0
LINE
  5
264F
330
253D
100
AcDbEntity
  8
1
  6
DIVIDE
 62
     7
100
AcDbLine
 10
221.730262829509
 20
235.4294249930189
 30
0.0
 11
221.730262829509
 21
243.0666752508077
 31
0.0
  0
LINE
  5
2650
330
253D
100
AcDbEntity
  8
1
  6
DIVIDE
 62
     7
100
AcDbLine
 10
221.730262829509
 20
243.0666752508077
 30
0.0
 11
220.230262829509
 21
243.0666752508077
 31
0.0
  0
LINE
  5
2651
330
253D
100
AcDbEntity
  8
1
  6
DIVIDE
 62
     7
100
AcDbLine
 10
221.730262829509
 20
235.4294249930189
 30
0.0
 11
221.730262829509
 21
243.0666752508077
 31
0.0
  0
LINE
  5
2652
330
253D
100
AcDbEntity
  8
1
  6
CENTER
 62
     3
100
AcDbLine
 10
190.4412446763933
 20
200.0666752508077
 30
0.0
 11
181.241262829509
 21
200.0666752508077
 31
0.0
  0
LINE
  5
2653
330
253D
100
AcDbEntity
  8
0
 62
     7
100
AcDbLine
 10
200.2302629642468
 20
200.0666752508077
 30
0.0
 11
200.2302629642468
 21
173.3166752508076
 31
0.0
  0
LINE
  5
2654
330
253D
100
AcDbEntity
  8
1
 62
     7
100
AcDbLine
 10
208.0902628295091
 20
239.9406752508077
 30
0.0
 11
213.3952628295088
 21
239.9406752508077
 31
0.0
  0
LINE
  5
2655
330
253D
100
AcDbEntity
  8
1
 62
     7
100
AcDbLine
 10
207.4902628295088
 20
239.5942650892939
 30
0.0
 11
207.4902628295088
 21
238.1726752508074
 31
0.0
  0
LINE
  5
2656
330
253D
100
AcDbEntity
  8
1
 62
     7
100
AcDbLine
 10
207.690262829509
 20
237.9726752508076
 30
0.0
 11
211.8597935150567
 21
237.9726752508076
 31
0.0
  0
LINE
  5
2657
330
253D
100
AcDbEntity
  8
1
 62
     7
100
AcDbLine
 10
207.4902628295088
 20
238.1726752508074
 30
0.0
 11
207.690262829509
 21
237.9726752508076
 31
0.0
  0
LINE
  5
2658
330
253D
100
AcDbEntity
  8
1
 62
     7
100
AcDbLine
 10
207.4902628295088
 20
239.5942650892939
 30
0.0
 11
208.0902628295091
 21
239.9406752508077
 31
0.0
  0
LINE
  5
2659
330
253D
100
AcDbEntity
  8
1
 62
     7
100
AcDbLine
 10
218.7002628295088
 20
239.9406752508077
 30
0.0
 11
219.3002628295088
 21
239.5942650892939
 31
0.0
  0
LINE
  5
265A
330
253D
100
AcDbEntity
  8
1
 62
     7
100
AcDbLine
 10
217.2152628295091
 20
229.5266752508076
 30
0.0
 11
217.7152628295091
 21
230.0266752508075
 31
0.0
  0
LINE
  5
265B
330
253D
100
AcDbEntity
  8
1
 62
     7
100
AcDbLine
 10
217.7152628295091
 20
231.0826752508075
 30
0.0
 11
217.2152628295091
 21
231.5826752508076
 31
0.0
  0
LINE
  5
265C
330
253D
100
AcDbEntity
  8
1
 62
     7
100
AcDbLine
 10
219.1002628295091
 20
237.9726752508076
 30
0.0
 11
219.3002628295088
 21
238.1726752508074
 31
0.0
  0
LINE
  5
265D
330
253D
100
AcDbEntity
  8
1
 62
     7
100
AcDbLine
 10
213.3952628295088
 20
229.5266752508076
 30
0.0
 11
217.2152628295091
 21
229.5266752508076
 31
0.0
  0
LINE
  5
265E
330
253D
100
AcDbEntity
  8
1
 62
     7
100
AcDbLine
 10
217.7152628295091
 20
231.0826752508075
 30
0.0
 11
217.7152628295091
 21
230.0266752508075
 31
0.0
  0
LINE
  5
265F
330
253D
100
AcDbEntity
  8
1
 62
     7
100
AcDbLine
 10
215.0508793357161
 20
231.5826752508076
 30
0.0
 11
217.2152628295091
 21
231.5826752508076
 31
0.0
  0
LINE
  5
2660
330
253D
100
AcDbEntity
  8
1
 62
     7
100
AcDbLine
 10
214.9307321439613
 20
237.9726752508076
 30
0.0
 11
219.1002628295091
 21
237.9726752508076
 31
0.0
  0
LINE
  5
2661
330
253D
100
AcDbEntity
  8
1
 62
     7
100
AcDbLine
 10
219.3002628295088
 20
238.1726752508074
 30
0.0
 11
219.3002628295088
 21
239.5942650892939
 31
0.0
  0
LINE
  5
2662
330
253D
100
AcDbEntity
  8
1
 62
     7
100
AcDbLine
 10
213.3952628295088
 20
239.9406752508077
 30
0.0
 11
218.7002628295088
 21
239.9406752508077
 31
0.0
  0
LINE
  5
2663
330
253D
100
AcDbEntity
  8
1
 62
     7
100
AcDbLine
 10
219.3002628295088
 20
238.1726752508074
 30
0.0
 11
219.3002628295088
 21
232.2710889493304
 31
0.0
  0
LINE
  5
2664
330
253D
100
AcDbEntity
  8
1
 62
     7
100
AcDbLine
 10
207.4902628295088
 20
232.2710889493304
 30
0.0
 11
207.4902628295088
 21
238.1726752508074
 31
0.0
  0
LINE
  5
2665
330
253D
100
AcDbEntity
  8
1
 62
     7
100
AcDbLine
 10
209.0752628295088
 20
230.0266752508075
 30
0.0
 11
209.0752628295088
 21
231.0826752508075
 31
0.0
  0
LINE
  5
2666
330
253D
100
AcDbEntity
  8
1
 62
     7
100
AcDbLine
 10
209.575262829509
 20
231.5826752508076
 30
0.0
 11
209.0752628295088
 21
231.0826752508075
 31
0.0
  0
LINE
  5
2667
330
253D
100
AcDbEntity
  8
1
 62
     7
100
AcDbLine
 10
209.0752628295088
 20
230.0266752508075
 30
0.0
 11
209.575262829509
 21
229.5266752508076
 31
0.0
  0
LINE
  5
2668
330
253D
100
AcDbEntity
  8
1
 62
     7
100
AcDbLine
 10
209.575262829509
 20
231.5826752508076
 30
0.0
 11
211.739646323302
 21
231.5826752508076
 31
0.0
  0
LINE
  5
2669
330
253D
100
AcDbEntity
  8
1
 62
     7
100
AcDbLine
 10
209.575262829509
 20
229.5266752508076
 30
0.0
 11
213.3952628295088
 21
229.5266752508076
 31
0.0
  0
LINE
  5
266A
330
253D
100
AcDbEntity
  8
1
 62
     7
100
AcDbLine
 10
213.3952628295088
 20
170.5986752508071
 30
0.0
 11
209.575262829509
 21
170.5986752508071
 31
0.0
  0
LINE
  5
266B
330
253D
100
AcDbEntity
  8
1
 62
     7
100
AcDbLine
 10
211.739646323302
 20
168.5426752508074
 30
0.0
 11
209.575262829509
 21
168.5426752508074
 31
0.0
  0
LINE
  5
266C
330
253D
100
AcDbEntity
  8
1
 62
     7
100
AcDbLine
 10
209.575262829509
 20
170.5986752508071
 30
0.0
 11
209.0752628295088
 21
170.0986752508075
 31
0.0
  0
LINE
  5
266D
330
253D
100
AcDbEntity
  8
1
 62
     7
100
AcDbLine
 10
209.0752628295088
 20
169.0426752508074
 30
0.0
 11
209.575262829509
 21
168.5426752508074
 31
0.0
  0
LINE
  5
266E
330
253D
100
AcDbEntity
  8
1
 62
     7
100
AcDbLine
 10
209.0752628295088
 20
169.0426752508074
 30
0.0
 11
209.0752628295088
 21
170.0986752508075
 31
0.0
  0
LINE
  5
266F
330
253D
100
AcDbEntity
  8
1
 62
     7
100
AcDbLine
 10
207.4902628295088
 20
161.9526752508076
 30
0.0
 11
207.4902628295088
 21
167.8542615522848
 31
0.0
  0
LINE
  5
2670
330
253D
100
AcDbEntity
  8
1
 62
     7
100
AcDbLine
 10
219.3002628295088
 20
167.8542615522848
 30
0.0
 11
219.3002628295088
 21
161.9526752508076
 31
0.0
  0
LINE
  5
2671
330
253D
100
AcDbEntity
  8
1
 62
     7
100
AcDbLine
 10
218.7002628295088
 20
160.184675250807
 30
0.0
 11
213.3952628295088
 21
160.184675250807
 31
0.0
  0
LINE
  5
2672
330
253D
100
AcDbEntity
  8
1
 62
     7
100
AcDbLine
 10
219.3002628295088
 20
160.5310854123214
 30
0.0
 11
219.3002628295088
 21
161.9526752508076
 31
0.0
  0
LINE
  5
2673
330
253D
100
AcDbEntity
  8
1
 62
     7
100
AcDbLine
 10
219.1002628295091
 20
162.1526752508071
 30
0.0
 11
214.9307321439613
 21
162.1526752508071
 31
0.0
  0
LINE
  5
2674
330
253D
100
AcDbEntity
  8
1
 62
     7
100
AcDbLine
 10
217.2152628295091
 20
168.5426752508074
 30
0.0
 11
215.0508793357161
 21
168.5426752508074
 31
0.0
  0
LINE
  5
2675
330
253D
100
AcDbEntity
  8
1
 62
     7
100
AcDbLine
 10
217.7152628295091
 20
170.0986752508075
 30
0.0
 11
217.7152628295091
 21
169.0426752508074
 31
0.0
  0
LINE
  5
2676
330
253D
100
AcDbEntity
  8
1
 62
     7
100
AcDbLine
 10
217.2152628295091
 20
170.5986752508071
 30
0.0
 11
213.3952628295088
 21
170.5986752508071
 31
0.0
  0
LINE
  5
2677
330
253D
100
AcDbEntity
  8
1
 62
     7
100
AcDbLine
 10
219.3002628295088
 20
161.9526752508076
 30
0.0
 11
219.1002628295091
 21
162.1526752508071
 31
0.0
  0
LINE
  5
2678
330
253D
100
AcDbEntity
  8
1
 62
     7
100
AcDbLine
 10
217.2152628295091
 20
168.5426752508074
 30
0.0
 11
217.7152628295091
 21
169.0426752508074
 31
0.0
  0
LINE
  5
2679
330
253D
100
AcDbEntity
  8
1
 62
     7
100
AcDbLine
 10
217.7152628295091
 20
170.0986752508075
 30
0.0
 11
217.2152628295091
 21
170.5986752508071
 31
0.0
  0
LINE
  5
267A
330
253D
100
AcDbEntity
  8
1
 62
     7
100
AcDbLine
 10
219.3002628295088
 20
160.5310854123214
 30
0.0
 11
218.7002628295088
 21
160.184675250807
 31
0.0
  0
LINE
  5
267B
330
253D
100
AcDbEntity
  8
1
 62
     7
100
AcDbLine
 10
208.0902628295091
 20
160.184675250807
 30
0.0
 11
207.4902628295088
 21
160.5310854123214
 31
0.0
  0
LINE
  5
267C
330
253D
100
AcDbEntity
  8
1
 62
     7
100
AcDbLine
 10
207.690262829509
 20
162.1526752508071
 30
0.0
 11
207.4902628295088
 21
161.9526752508076
 31
0.0
  0
LINE
  5
267D
330
253D
100
AcDbEntity
  8
1
 62
     7
100
AcDbLine
 10
211.8597935150567
 20
162.1526752508071
 30
0.0
 11
207.690262829509
 21
162.1526752508071
 31
0.0
  0
LINE
  5
267E
330
253D
100
AcDbEntity
  8
1
 62
     7
100
AcDbLine
 10
207.4902628295088
 20
161.9526752508076
 30
0.0
 11
207.4902628295088
 21
160.5310854123214
 31
0.0
  0
LINE
  5
267F
330
253D
100
AcDbEntity
  8
1
 62
     7
100
AcDbLine
 10
213.3952628295088
 20
160.184675250807
 30
0.0
 11
208.0902628295091
 21
160.184675250807
 31
0.0
  0
LINE
  5
2680
330
253D
100
AcDbEntity
  8
1
 62
     7
100
AcDbLine
 10
209.623387829509
 20
237.0776752508076
 30
0.0
 11
210.6647462780276
 21
237.050406320149
 31
0.0
  0
LINE
  5
2681
330
253D
100
AcDbEntity
  8
1
 62
     7
100
AcDbLine
 10
208.3433878295088
 20
237.0776752508076
 30
0.0
 11
209.623387829509
 21
237.0776752508076
 31
0.0
  0
LINE
  5
2682
330
253D
100
AcDbEntity
  8
1
 62
     7
100
AcDbLine
 10
208.0433878295091
 20
236.7776752508076
 30
0.0
 11
208.0433878295091
 21
234.9338661077596
 31
0.0
  0
LINE
  5
2683
330
253D
100
AcDbEntity
  8
1
 62
     7
100
AcDbLine
 10
207.764712299925
 20
232.6642360538292
 30
0.0
 11
208.0433878295091
 21
234.9338661077596
 31
0.0
  0
LINE
  5
2684
330
253D
100
AcDbEntity
  8
1
 62
     7
100
AcDbLine
 10
208.0624761454175
 20
232.3276752508077
 30
0.0
 11
209.623387829509
 21
232.3276752508077
 31
0.0
  0
LINE
  5
2685
330
253D
100
AcDbEntity
  8
1
 62
     7
100
AcDbLine
 10
209.623387829509
 20
237.0776752508076
 30
0.0
 11
209.623387829509
 21
232.3276752508077
 31
0.0
  0
LINE
  5
2686
330
253D
100
AcDbEntity
  8
1
 62
     7
100
AcDbLine
 10
210.7681177981821
 20
232.3276752508077
 30
0.0
 11
209.623387829509
 21
232.3276752508077
 31
0.0
  0
LINE
  5
2687
330
253D
100
AcDbEntity
  8
1
 62
     7
100
AcDbLine
 10
209.623387829509
 20
167.797675250807
 30
0.0
 11
210.7681177981821
 21
167.797675250807
 31
0.0
  0
LINE
  5
2688
330
253D
100
AcDbEntity
  8
1
 62
     7
100
AcDbLine
 10
209.623387829509
 20
167.797675250807
 30
0.0
 11
209.623387829509
 21
163.0476752508076
 31
0.0
  0
LINE
  5
2689
330
253D
100
AcDbEntity
  8
1
 62
     7
100
AcDbLine
 10
209.623387829509
 20
167.797675250807
 30
0.0
 11
208.0624761454175
 21
167.797675250807
 31
0.0
  0
LINE
  5
268A
330
253D
100
AcDbEntity
  8
1
 62
     7
100
AcDbLine
 10
208.0433878295091
 20
165.1914843938558
 30
0.0
 11
207.764712299925
 21
167.4611144477861
 31
0.0
  0
LINE
  5
268B
330
253D
100
AcDbEntity
  8
1
 62
     7
100
AcDbLine
 10
208.0433878295091
 20
165.1914843938558
 30
0.0
 11
208.0433878295091
 21
163.3476752508077
 31
0.0
  0
LINE
  5
268C
330
253D
100
AcDbEntity
  8
1
 62
     7
100
AcDbLine
 10
209.623387829509
 20
163.0476752508076
 30
0.0
 11
208.3433878295088
 21
163.0476752508076
 31
0.0
  0
LINE
  5
268D
330
253D
100
AcDbEntity
  8
1
 62
     7
100
AcDbLine
 10
210.6647462780276
 20
163.074944181466
 30
0.0
 11
209.623387829509
 21
163.0476752508076
 31
0.0
  0
ARC
  5
2692
330
253D
100
AcDbEntity
  8
1
 62
     7
100
AcDbCircle
 10
358.4538575810289
 20
200.066675250825
 30
0.0
 40
41.60899999998272
100
AcDbArc
 50
90.0
 51
118.7288589475624
  0
ARC
  5
2693
330
253D
100
AcDbEntity
  8
1
 62
     7
100
AcDbCircle
 10
358.4538575810289
 20
200.066675250825
 30
0.0
 40
40.4649999999827
100
AcDbArc
 50
90.0
 51
119.6205896434386
  0
ARC
  5
2694
330
253D
100
AcDbEntity
  8
1
 62
     7
100
AcDbCircle
 10
197.3431407649411
 20
127.1536752508076
 30
0.0
 40
32.45210793904027
100
AcDbArc
 50
75.25592954456358
 51
90.65305167668688
  0
ARC
  5
2695
330
253D
100
AcDbEntity
  8
1
 62
     7
100
AcDbCircle
 10
197.3431407649411
 20
272.9796752508077
 30
0.0
 40
32.45210793904026
100
AcDbArc
 50
269.3469483233128
 51
284.7440704554363
  0
ARC
  5
2696
330
253D
100
AcDbEntity
  8
0
 62
     7
100
AcDbCircle
 10
204.630262958174
 20
213.4666750495444
 30
0.0
 40
0.3999999939858299
100
AcDbArc
 50
180.0000000007165
 51
270.0000000007491
  0
ARC
  5
2697
330
253D
100
AcDbEntity
  8
0
 62
     7
100
AcDbCircle
 10
204.6302629581794
 20
186.6666754520837
 30
0.0
 40
0.3999999939909991
100
AcDbArc
 50
90.0
 51
180.0
  0
ARC
  5
2698
330
253D
100
AcDbEntity
  8
0
 62
     7
100
AcDbCircle
 10
361.7471864344988
 20
184.6833421486324
 30
0.0
 40
0.8666666536645093
100
AcDbArc
 50
270.0000000007995
 51
0.0000000000716515
  0
ARC
  5
2699
330
253D
100
AcDbEntity
  8
0
 62
     7
100
AcDbCircle
 10
363.4805197417936
 20
186.4466816375642
 30
0.0
 40
0.8666666536509959
100
AcDbArc
 50
109.2696388775054
 51
180.0
  0
ARC
  5
269A
330
253D
100
AcDbEntity
  8
0
 62
     7
100
AcDbCircle
 10
358.4538531506368
 20
200.8250085727754
 30
0.0
 40
14.36499978417269
100
AcDbArc
 50
289.2696388779731
 51
89.99999999999186
  0
ARC
  5
269B
330
253D
100
AcDbEntity
  8
0
 62
     7
100
AcDbCircle
 10
355.1605198667929
 20
184.6833421486337
 30
0.0
 40
0.8666666536650922
100
AcDbArc
 50
180.0
 51
269.9999999985393
  0
ARC
  5
269C
330
253D
100
AcDbEntity
  8
0
 62
     7
100
AcDbCircle
 10
353.4271865594898
 20
186.4466816375559
 30
0.0
 40
0.8666666536601042
100
AcDbArc
 50
0.0000000005487856
 51
70.73036112249416
  0
ARC
  5
269D
330
253D
100
AcDbEntity
  8
0
 62
     7
100
AcDbCircle
 10
358.4538531506398
 20
200.8250085727754
 30
0.0
 40
14.36499978417253
100
AcDbArc
 50
90.00000000000486
 51
250.730361122029
  0
ARC
  5
269E
330
253D
100
AcDbEntity
  8
0
 62
     7
100
AcDbCircle
 10
205.9302627889198
 20
245.3666745703396
 30
0.0
 40
0.2999999954932449
100
AcDbArc
 50
270.0
 51
0.0
  0
ARC
  5
269F
330
253D
100
AcDbEntity
  8
0
 62
     7
100
AcDbCircle
 10
205.9302627890275
 20
154.7666759313646
 30
0.0
 40
0.2999999954553223
100
AcDbArc
 50
0.0000000024263816
 51
89.99999999756873
  0
ARC
  5
26A0
330
253D
100
AcDbEntity
  8
1
 62
     7
100
AcDbCircle
 10
358.4538531506398
 20
200.0666752508017
 30
0.0
 40
6.999999894658897
100
AcDbArc
 50
110.9248324237734
 51
269.9999999999902
  0
ARC
  5
26A1
330
253D
100
AcDbEntity
  8
1
 62
     7
100
AcDbCircle
 10
358.4538531506459
 20
200.0666752508458
 30
0.0
 40
6.99999989472872
100
AcDbArc
 50
269.9999999999411
 51
69.07516757429147
  0
ARC
  5
26A2
330
253D
100
AcDbEntity
  8
1
 62
     7
100
AcDbCircle
 10
349.0959477126667
 20
233.4654613624834
 30
0.0
 40
3.57187500000042
100
AcDbArc
 50
132.3520936652959
 51
259.4383337137704
  0
ARC
  5
26A3
330
253D
100
AcDbEntity
  8
1
 62
     7
100
AcDbCircle
 10
340.4320794132688
 20
229.7022122975199
 30
0.0
 40
3.571874999999763
100
AcDbArc
 50
148.0042675783304
 51
275.090507626818
  0
ARC
  5
26A4
330
253D
100
AcDbEntity
  8
1
 62
     7
100
AcDbCircle
 10
333.1048032992608
 20
223.741031023364
 30
0.0
 40
3.571874999999379
100
AcDbArc
 50
163.6564414913712
 51
290.742681539866
  0
ARC
  5
26A5
330
253D
100
AcDbEntity
  8
1
 62
     7
100
AcDbCircle
 10
327.6575499199618
 20
216.0240310845298
 30
0.0
 40
3.571874999999923
100
AcDbArc
 50
179.3086154044178
 51
306.3948554529027
  0
ARC
  5
26A6
330
253D
100
AcDbEntity
  8
1
 62
     7
100
AcDbCircle
 10
324.494317138987
 20
207.1235470635556
 30
0.0
 40
3.571875000000379
100
AcDbArc
 50
194.9607893174595
 51
322.0470293659358
  0
ARC
  5
26A7
330
253D
100
AcDbEntity
  8
1
 62
     7
100
AcDbCircle
 10
323.8497074608748
 20
197.6996871432714
 30
0.0
 40
3.571875000000738
100
AcDbArc
 50
210.6129632304988
 51
337.6992032789865
  0
ARC
  5
26A8
330
253D
100
AcDbEntity
  8
1
 62
     7
100
AcDbCircle
 10
325.7715286365568
 20
188.4513759026744
 30
0.0
 40
3.571874999999943
100
AcDbArc
 50
226.2651371435503
 51
353.3513771920323
  0
ARC
  5
26A9
330
253D
100
AcDbEntity
  8
1
 62
     7
100
AcDbCircle
 10
330.117247981181
 20
180.0645182782709
 30
0.0
 40
3.571874999999844
100
AcDbArc
 50
241.9173110565955
 51
9.003551105076406
  0
ARC
  5
26AA
330
253D
100
AcDbEntity
  8
1
 62
     7
100
AcDbCircle
 10
336.564563371299
 20
173.1611291327418
 30
0.0
 40
3.571874999999928
100
AcDbArc
 50
257.5694849696345
 51
24.65572501812338
  0
ARC
  5
26AB
330
253D
100
AcDbEntity
  8
1
 62
     7
100
AcDbCircle
 10
344.6353069189309
 20
168.2532012581084
 30
0.0
 40
3.571874999999959
100
AcDbArc
 50
273.2216588826763
 51
40.30789893115822
  0
ARC
  5
26AC
330
253D
100
AcDbEntity
  8
1
 62
     7
100
AcDbCircle
 10
353.7309084963448
 20
165.7047332125549
 30
0.0
 40
3.571875000000071
100
AcDbArc
 50
288.8738327957288
 51
55.96007284421354
  0
ARC
  5
26AD
330
253D
100
AcDbEntity
  8
1
 62
     7
100
AcDbCircle
 10
349.0959477126667
 20
233.4654613624834
 30
0.0
 40
3.57187499999974
100
AcDbArc
 50
311.866014112312
 51
78.95225416079559
  0
ARC
  5
26AE
330
253D
100
AcDbEntity
  8
1
 62
     7
100
AcDbCircle
 10
340.4320794132688
 20
229.7022122975199
 30
0.0
 40
3.571875000000206
100
AcDbArc
 50
327.518188025358
 51
94.60442807384415
  0
ARC
  5
26AF
330
253D
100
AcDbEntity
  8
1
 62
     7
100
AcDbCircle
 10
333.1048032992608
 20
223.741031023364
 30
0.0
 40
3.571875000000682
100
AcDbArc
 50
343.1703619384051
 51
110.2566019868753
  0
ARC
  5
26B0
330
253D
100
AcDbEntity
  8
1
 62
     7
100
AcDbCircle
 10
327.6575499199618
 20
216.0240310845298
 30
0.0
 40
3.571874999999771
100
AcDbArc
 50
358.8225358514447
 51
125.908775899929
  0
ARC
  5
26B1
330
253D
100
AcDbEntity
  8
1
 62
     7
100
AcDbCircle
 10
324.494317138987
 20
207.1235470635556
 30
0.0
 40
3.571874999999856
100
AcDbArc
 50
14.47470976449025
 51
141.5609498129728
  0
ARC
  5
26B2
330
253D
100
AcDbEntity
  8
1
 62
     7
100
AcDbCircle
 10
323.8497074608748
 20
197.6996871432714
 30
0.0
 40
3.571874999998883
100
AcDbArc
 50
30.12688367754313
 51
157.2131237260224
  0
ARC
  5
26B3
330
253D
100
AcDbEntity
  8
1
 62
     7
100
AcDbCircle
 10
325.7715286365568
 20
188.4513759026744
 30
0.0
 40
3.571874999999582
100
AcDbArc
 50
45.77905759058245
 51
172.8652976390596
  0
ARC
  5
26B4
330
253D
100
AcDbEntity
  8
1
 62
     7
100
AcDbCircle
 10
330.117247981181
 20
180.0645182782709
 30
0.0
 40
3.571874999999896
100
AcDbArc
 50
61.43123150362244
 51
188.5174715521035
  0
ARC
  5
26B5
330
253D
100
AcDbEntity
  8
1
 62
     7
100
AcDbCircle
 10
336.564563371299
 20
173.1611291327418
 30
0.0
 40
3.571875000000055
100
AcDbArc
 50
77.08340541666466
 51
204.169645465148
  0
ARC
  5
26B6
330
253D
100
AcDbEntity
  8
1
 62
     7
100
AcDbCircle
 10
344.6353069189309
 20
168.2532012581084
 30
0.0
 40
3.571874999999995
100
AcDbArc
 50
92.73557932971536
 51
219.821819378194
  0
ARC
  5
26B7
330
253D
100
AcDbEntity
  8
1
 62
     7
100
AcDbCircle
 10
353.7309084963448
 20
165.7047332125549
 30
0.0
 40
3.571874999999912
100
AcDbArc
 50
108.3877532427455
 51
235.4739932912348
  0
ARC
  5
26B8
330
253D
100
AcDbEntity
  8
1
 62
     7
100
AcDbCircle
 10
358.4538487202479
 20
234.751675250825
 30
0.0
 40
3.57187499999993
100
AcDbArc
 50
116.699919752242
 51
243.7861598007338
  0
ARC
  5
26B9
330
253D
100
AcDbEntity
  8
1
 62
     7
100
AcDbCircle
 10
367.8117585886108
 20
233.4654613624834
 30
0.0
 40
3.571875000000028
100
AcDbArc
 50
280.5616662862328
 51
47.64790633471664
  0
ARC
  5
26BA
330
253D
100
AcDbEntity
  8
1
 62
     7
100
AcDbCircle
 10
376.4756268880077
 20
229.7022122975199
 30
0.0
 40
3.57187500000009
100
AcDbArc
 50
264.9094923731797
 51
31.99573242166232
  0
ARC
  5
26BB
330
253D
100
AcDbEntity
  8
1
 62
     7
100
AcDbCircle
 10
383.8029030020158
 20
223.741031023364
 30
0.0
 40
3.571874999999863
100
AcDbArc
 50
249.2573184601476
 51
16.34355850862407
  0
ARC
  5
26BC
330
253D
100
AcDbEntity
  8
1
 62
     7
100
AcDbCircle
 10
389.2501563813153
 20
216.0240310845298
 30
0.0
 40
3.57187499999986
100
AcDbArc
 50
233.6051445470995
 51
0.6913845955821837
  0
ARC
  5
26BD
330
253D
100
AcDbEntity
  8
1
 62
     7
100
AcDbCircle
 10
392.4133891622908
 20
207.1235470635556
 30
0.0
 40
3.571875000000028
100
AcDbArc
 50
217.9529706340522
 51
345.0392106825351
  0
ARC
  5
26BE
330
253D
100
AcDbEntity
  8
1
 62
     7
100
AcDbCircle
 10
393.0579988404029
 20
197.6996871432714
 30
0.0
 40
3.571874999999407
100
AcDbArc
 50
202.3007967210145
 51
329.387036769495
  0
ARC
  5
26BF
330
253D
100
AcDbEntity
  8
1
 62
     7
100
AcDbCircle
 10
391.1361776647208
 20
188.4513759026744
 30
0.0
 40
3.571875000000146
100
AcDbArc
 50
186.6486228079676
 51
313.7348628564497
  0
ARC
  5
26C0
330
253D
100
AcDbEntity
  8
1
 62
     7
100
AcDbCircle
 10
386.7904583200969
 20
180.0645182782709
 30
0.0
 40
3.571875000000575
100
AcDbArc
 50
170.996448894925
 51
298.0826889434045
  0
ARC
  5
26C1
330
253D
100
AcDbEntity
  8
1
 62
     7
100
AcDbCircle
 10
380.3431429299788
 20
173.1611291327418
 30
0.0
 40
3.571875000000384
100
AcDbArc
 50
155.3442749818839
 51
282.4305150303469
  0
ARC
  5
26C2
330
253D
100
AcDbEntity
  8
1
 62
     7
100
AcDbCircle
 10
372.2723993823456
 20
168.2532012581084
 30
0.0
 40
3.571874999999752
100
AcDbArc
 50
139.6921010688336
 51
266.7783411173203
  0
ARC
  5
26C3
330
253D
100
AcDbEntity
  8
1
 62
     7
100
AcDbCircle
 10
363.1767978049328
 20
165.7047332125549
 30
0.0
 40
3.571875000000146
100
AcDbArc
 50
124.0399271557981
 51
251.1261672042731
  0
ARC
  5
26C4
330
253D
100
AcDbEntity
  8
1
 62
     7
100
AcDbCircle
 10
367.8117585886108
 20
233.4654613624834
 30
0.0
 40
3.571874999999991
100
AcDbArc
 50
101.0477458392009
 51
228.1339858876775
  0
ARC
  5
26C5
330
253D
100
AcDbEntity
  8
1
 62
     7
100
AcDbCircle
 10
376.4756268880077
 20
229.7022122975199
 30
0.0
 40
3.571874999999906
100
AcDbArc
 50
85.3955719261558
 51
212.4818119746416
  0
ARC
  5
26C6
330
253D
100
AcDbEntity
  8
1
 62
     7
100
AcDbCircle
 10
383.8029030020158
 20
223.741031023364
 30
0.0
 40
3.571875000000196
100
AcDbArc
 50
69.743398013107
 51
196.8296380615998
  0
ARC
  5
26C7
330
253D
100
AcDbEntity
  8
1
 62
     7
100
AcDbCircle
 10
389.2501563813153
 20
216.0240310845298
 30
0.0
 40
3.571875000000126
100
AcDbArc
 50
54.09122410006852
 51
181.1774641485551
  0
ARC
  5
26C8
330
253D
100
AcDbEntity
  8
1
 62
     7
100
AcDbCircle
 10
392.4133891622908
 20
207.1235470635556
 30
0.0
 40
3.571875000000022
100
AcDbArc
 50
38.43905018702703
 51
165.5252902355094
  0
ARC
  5
26C9
330
253D
100
AcDbEntity
  8
1
 62
     7
100
AcDbCircle
 10
393.0579988404029
 20
197.6996871432714
 30
0.0
 40
3.571875000000222
100
AcDbArc
 50
22.78687627398232
 51
149.873116322464
  0
ARC
  5
26CA
330
253D
100
AcDbEntity
  8
1
 62
     7
100
AcDbCircle
 10
391.1361776647208
 20
188.4513759026744
 30
0.0
 40
3.571874999999816
100
AcDbArc
 50
7.134702360940302
 51
134.2209424094278
  0
ARC
  5
26CB
330
253D
100
AcDbEntity
  8
1
 62
     7
100
AcDbCircle
 10
386.7904583200969
 20
180.0645182782709
 30
0.0
 40
3.57187499999909
100
AcDbArc
 50
351.4825284478931
 51
118.5687684963929
  0
ARC
  5
26CC
330
253D
100
AcDbEntity
  8
1
 62
     7
100
AcDbCircle
 10
380.3431429299788
 20
173.1611291327418
 30
0.0
 40
3.571874999999678
100
AcDbArc
 50
335.8303545348504
 51
102.9165945833353
  0
ARC
  5
26CD
330
253D
100
AcDbEntity
  8
1
 62
     7
100
AcDbCircle
 10
372.2723993823456
 20
168.2532012581084
 30
0.0
 40
3.571875000000539
100
AcDbArc
 50
320.1781806218163
 51
87.26442067028786
  0
ARC
  5
26CE
330
253D
100
AcDbEntity
  8
1
 62
     7
100
AcDbCircle
 10
363.1767978049328
 20
165.7047332125549
 30
0.0
 40
3.571874999999963
100
AcDbArc
 50
304.5260067087649
 51
71.61224675725275
  0
ARC
  5
26CF
330
253D
100
AcDbEntity
  8
1
 62
     7
100
AcDbCircle
 10
358.4538575810289
 20
234.751675250825
 30
0.0
 40
3.571875000000308
100
AcDbArc
 50
296.2138401992805
 51
63.30008024774851
  0
ARC
  5
26D0
330
253D
100
AcDbEntity
  8
1
 62
     7
100
AcDbCircle
 10
353.7309173571258
 20
165.7047332125549
 30
0.0
 40
3.93500000000006
100
AcDbArc
 50
318.4435404295275
 51
32.73543427012571
  0
ARC
  5
26D1
330
253D
100
AcDbEntity
  8
1
 62
     7
100
AcDbCircle
 10
353.7309173571258
 20
165.7047332125549
 30
0.0
 40
3.935000000000176
100
AcDbArc
 50
131.6123918168337
 51
205.9042856574299
  0
ARC
  5
26D2
330
253D
100
AcDbEntity
  8
1
 62
     7
100
AcDbCircle
 10
358.4538575810289
 20
200.066675250825
 30
0.0
 40
32.26499999999993
100
AcDbArc
 50
251.8379946090675
 51
256.8576575648455
  0
ARC
  5
26D3
330
253D
100
AcDbEntity
  8
1
 62
     7
100
AcDbCircle
 10
344.635315779712
 20
168.2532012581084
 30
0.0
 40
3.935000000000128
100
AcDbArc
 50
302.7913665164859
 51
17.08326035708146
  0
ARC
  5
26D4
330
253D
100
AcDbEntity
  8
1
 62
     7
100
AcDbCircle
 10
358.4538575810289
 20
200.066675250825
 30
0.0
 40
37.01499999999984
100
AcDbArc
 50
251.594014115721
 51
257.1016380581915
  0
ARC
  5
26D5
330
253D
100
AcDbEntity
  8
1
 62
     7
100
AcDbCircle
 10
344.635315779712
 20
168.2532012581084
 30
0.0
 40
3.935000000000052
100
AcDbArc
 50
115.9602179037902
 51
190.2521117443896
  0
ARC
  5
26D6
330
253D
100
AcDbEntity
  8
1
 62
     7
100
AcDbCircle
 10
358.4538575810289
 20
200.066675250825
 30
0.0
 40
32.26499999999977
100
AcDbArc
 50
236.1858206960249
 51
241.2054836518013
  0
ARC
  5
26D7
330
253D
100
AcDbEntity
  8
1
 62
     7
100
AcDbCircle
 10
336.5645722320798
 20
173.1611291327418
 30
0.0
 40
3.934999999999971
100
AcDbArc
 50
287.1391926034414
 51
1.431086444038172
  0
ARC
  5
26D8
330
253D
100
AcDbEntity
  8
1
 62
     7
100
AcDbCircle
 10
358.4538575810289
 20
200.066675250825
 30
0.0
 40
37.01499999999988
100
AcDbArc
 50
235.9418402026768
 51
241.4494641451488
  0
ARC
  5
26D9
330
253D
100
AcDbEntity
  8
1
 62
     7
100
AcDbCircle
 10
336.5645722320798
 20
173.1611291327418
 30
0.0
 40
3.935000000000008
100
AcDbArc
 50
100.3080439907424
 51
174.5999378313436
  0
ARC
  5
26DA
330
253D
100
AcDbEntity
  8
1
 62
     7
100
AcDbCircle
 10
358.4538575810289
 20
200.066675250825
 30
0.0
 40
32.26499999999996
100
AcDbArc
 50
220.5336467829798
 51
225.5533097387587
  0
ARC
  5
26DB
330
253D
100
AcDbEntity
  8
1
 62
     7
100
AcDbCircle
 10
330.117256841962
 20
180.0645182782709
 30
0.0
 40
3.934999999999963
100
AcDbArc
 50
271.4870186903954
 51
345.7789125309936
  0
ARC
  5
26DC
330
253D
100
AcDbEntity
  8
1
 62
     7
100
AcDbCircle
 10
358.4538575810289
 20
200.066675250825
 30
0.0
 40
37.01499999999981
100
AcDbArc
 50
220.2896662896348
 51
225.7972902321041
  0
ARC
  5
26DD
330
253D
100
AcDbEntity
  8
1
 62
     7
100
AcDbCircle
 10
330.117256841962
 20
180.0645182782709
 30
0.0
 40
3.935000000000008
100
AcDbArc
 50
84.65587007769959
 51
158.9477639182988
  0
ARC
  5
26DE
330
253D
100
AcDbEntity
  8
1
 62
     7
100
AcDbCircle
 10
358.4538575810289
 20
200.066675250825
 30
0.0
 40
32.26499999999956
100
AcDbArc
 50
204.8814728699368
 51
209.9011358257149
  0
ARC
  5
26DF
330
253D
100
AcDbEntity
  8
1
 62
     7
100
AcDbCircle
 10
325.7715374973378
 20
188.4513759026744
 30
0.0
 40
3.935
100
AcDbArc
 50
255.8348447773518
 51
330.1267386179536
  0
ARC
  5
26E0
330
253D
100
AcDbEntity
  8
1
 62
     7
100
AcDbCircle
 10
358.4538575810289
 20
200.066675250825
 30
0.0
 40
37.01499999999978
100
AcDbArc
 50
204.6374923765915
 51
210.1451163190612
  0
ARC
  5
26E1
330
253D
100
AcDbEntity
  8
1
 62
     7
100
AcDbCircle
 10
325.7715374973378
 20
188.4513759026744
 30
0.0
 40
3.935000000000147
100
AcDbArc
 50
69.00369616465074
 51
143.2955900052611
  0
ARC
  5
26E2
330
253D
100
AcDbEntity
  8
1
 62
     7
100
AcDbCircle
 10
358.4538575810289
 20
200.066675250825
 30
0.0
 40
32.26499999999988
100
AcDbArc
 50
189.2292989568929
 51
194.2489619126718
  0
ARC
  5
26E3
330
253D
100
AcDbEntity
  8
1
 62
     7
100
AcDbCircle
 10
323.8497163216558
 20
197.6996871432714
 30
0.0
 40
3.935000000000096
100
AcDbArc
 50
240.1826708643052
 51
314.4745647049024
  0
ARC
  5
26E4
330
253D
100
AcDbEntity
  8
1
 62
     7
100
AcDbCircle
 10
358.4538575810289
 20
200.066675250825
 30
0.0
 40
37.01499999999953
100
AcDbArc
 50
188.9853184635476
 51
194.4929424060176
  0
ARC
  5
26E5
330
253D
100
AcDbEntity
  8
1
 62
     7
100
AcDbCircle
 10
323.8497163216558
 20
197.6996871432714
 30
0.0
 40
3.934999999999568
100
AcDbArc
 50
53.3515222516219
 51
127.6434160922174
  0
ARC
  5
26E6
330
253D
100
AcDbEntity
  8
1
 62
     7
100
AcDbCircle
 10
358.4538575810289
 20
200.066675250825
 30
0.0
 40
32.26499999999931
100
AcDbArc
 50
173.5771250438498
 51
178.5967879996276
  0
ARC
  5
26E7
330
253D
100
AcDbEntity
  8
1
 62
     7
100
AcDbCircle
 10
324.4943259997678
 20
207.1235470635556
 30
0.0
 40
3.935000000000036
100
AcDbArc
 50
224.5304969512634
 51
298.8223907918722
  0
ARC
  5
26E8
330
253D
100
AcDbEntity
  8
1
 62
     7
100
AcDbCircle
 10
358.4538575810289
 20
200.066675250825
 30
0.0
 40
37.01499999999993
100
AcDbArc
 50
173.3331445505039
 51
178.8407684929748
  0
ARC
  5
26E9
330
253D
100
AcDbEntity
  8
1
 62
     7
100
AcDbCircle
 10
324.4943259997678
 20
207.1235470635556
 30
0.0
 40
3.935000000000322
100
AcDbArc
 50
37.69934833856667
 51
111.9912421791745
  0
ARC
  5
26EA
330
253D
100
AcDbEntity
  8
1
 62
     7
100
AcDbCircle
 10
358.4538575810289
 20
200.066675250825
 30
0.0
 40
32.26500000000017
100
AcDbArc
 50
157.9249511308072
 51
162.9446140865848
  0
ARC
  5
26EB
330
253D
100
AcDbEntity
  8
1
 62
     7
100
AcDbCircle
 10
327.6575587807428
 20
216.0240310845298
 30
0.0
 40
3.934999999999517
100
AcDbArc
 50
208.8783230382246
 51
283.170216878816
  0
ARC
  5
26EC
330
253D
100
AcDbEntity
  8
1
 62
     7
100
AcDbCircle
 10
358.4538575810289
 20
200.066675250825
 30
0.0
 40
37.01499999999931
100
AcDbArc
 50
157.6809706374604
 51
163.1885945799308
  0
ARC
  5
26ED
330
253D
100
AcDbEntity
  8
1
 62
     7
100
AcDbCircle
 10
327.6575587807428
 20
216.0240310845298
 30
0.0
 40
3.935000000000295
100
AcDbArc
 50
22.0471744255256
 51
96.33906826612731
  0
ARC
  5
26EE
330
253D
100
AcDbEntity
  8
1
 62
     7
100
AcDbCircle
 10
358.4538575810289
 20
200.066675250825
 30
0.0
 40
32.26499999999941
100
AcDbArc
 50
142.2727772177618
 51
147.2924401735409
  0
ARC
  5
26EF
330
253D
100
AcDbEntity
  8
1
 62
     7
100
AcDbCircle
 10
333.1048121600419
 20
223.741031023364
 30
0.0
 40
3.934999999999615
100
AcDbArc
 50
193.2261491251786
 51
267.518042965792
  0
ARC
  5
26F0
330
253D
100
AcDbEntity
  8
1
 62
     7
100
AcDbCircle
 10
358.4538575810289
 20
200.066675250825
 30
0.0
 40
37.01499999999996
100
AcDbArc
 50
142.0287967244165
 51
147.5364206668874
  0
ARC
  5
26F1
330
253D
100
AcDbEntity
  8
1
 62
     7
100
AcDbCircle
 10
333.1048121600419
 20
223.741031023364
 30
0.0
 40
3.935000000000211
100
AcDbArc
 50
6.395000512482892
 51
80.68689435308083
  0
ARC
  5
26F2
330
253D
100
AcDbEntity
  8
1
 62
     7
100
AcDbCircle
 10
358.4538575810289
 20
200.066675250825
 30
0.0
 40
32.26499999999973
100
AcDbArc
 50
126.6206033047194
 51
131.640266260498
  0
ARC
  5
26F3
330
253D
100
AcDbEntity
  8
1
 62
     7
100
AcDbCircle
 10
340.4320882740498
 20
229.7022122975199
 30
0.0
 40
3.935000000000078
100
AcDbArc
 50
177.5739752121338
 51
251.8658690527426
  0
ARC
  5
26F4
330
253D
100
AcDbEntity
  8
1
 62
     7
100
AcDbCircle
 10
358.4538575810289
 20
200.066675250825
 30
0.0
 40
37.0150000000002
100
AcDbArc
 50
126.376622811374
 51
131.8842467538447
  0
ARC
  5
26F5
330
253D
100
AcDbEntity
  8
1
 62
     7
100
AcDbCircle
 10
340.4320882740498
 20
229.7022122975199
 30
0.0
 40
3.934999999999993
100
AcDbArc
 50
350.7428265994381
 51
65.0347204400384
  0
ARC
  5
26F6
330
253D
100
AcDbEntity
  8
1
 62
     7
100
AcDbCircle
 10
358.4538575810289
 20
200.066675250825
 30
0.0
 40
32.26499999999996
100
AcDbArc
 50
110.968429391676
 51
115.9880923474545
  0
ARC
  5
26F7
330
253D
100
AcDbEntity
  8
1
 62
     7
100
AcDbCircle
 10
349.0959565734477
 20
233.4654613624834
 30
0.0
 40
3.934999999999663
100
AcDbArc
 50
161.9218012990874
 51
236.2136951396884
  0
ARC
  5
26F8
330
253D
100
AcDbEntity
  8
1
 62
     7
100
AcDbCircle
 10
358.4538575810289
 20
200.066675250825
 30
0.0
 40
37.01499999999983
100
AcDbArc
 50
110.7244488983283
 51
116.2320728408003
  0
ARC
  5
26F9
330
253D
100
AcDbEntity
  8
1
 62
     7
100
AcDbCircle
 10
349.0959565734477
 20
233.4654613624834
 30
0.0
 40
3.935000000000214
100
AcDbArc
 50
335.0906526863971
 51
49.38254652700087
  0
ARC
  5
26FA
330
253D
100
AcDbEntity
  8
1
 62
     7
100
AcDbCircle
 10
358.4538575810289
 20
200.066675250825
 30
0.0
 40
32.26499999999992
100
AcDbArc
 50
95.31625547863141
 51
100.3359184344104
  0
ARC
  5
26FB
330
253D
100
AcDbEntity
  8
1
 62
     7
100
AcDbCircle
 10
358.4538575810289
 20
234.751675250825
 30
0.0
 40
3.934999999999948
100
AcDbArc
 50
146.2696273860476
 51
220.5615212266521
  0
ARC
  5
26FC
330
253D
100
AcDbEntity
  8
1
 62
     7
100
AcDbCircle
 10
358.4538575810289
 20
200.066675250825
 30
0.0
 40
37.01499999999996
100
AcDbArc
 50
95.0722749852871
 51
100.579898927758
  0
ARC
  5
26FD
330
253D
100
AcDbEntity
  8
1
 62
     7
100
AcDbCircle
 10
358.4538575810289
 20
200.066675250825
 30
0.0
 40
32.26499999999989
100
AcDbArc
 50
267.4901685221111
 51
272.5098314778903
  0
ARC
  5
26FE
330
253D
100
AcDbEntity
  8
1
 62
     7
100
AcDbCircle
 10
363.1767978049328
 20
165.7047332125549
 30
0.0
 40
3.93499999999992
100
AcDbArc
 50
147.2645657298729
 51
221.5564595704748
  0
ARC
  5
26FF
330
253D
100
AcDbEntity
  8
1
 62
     7
100
AcDbCircle
 10
358.4538575810289
 20
200.066675250825
 30
0.0
 40
37.01499999999993
100
AcDbArc
 50
267.2461880287654
 51
272.753811971236
  0
ARC
  5
2700
330
253D
100
AcDbEntity
  8
1
 62
     7
100
AcDbCircle
 10
363.1767978049328
 20
165.7047332125549
 30
0.0
 40
3.935000000000004
100
AcDbArc
 50
334.0957143425697
 51
48.38760818317535
  0
ARC
  5
2701
330
253D
100
AcDbEntity
  8
1
 62
     7
100
AcDbCircle
 10
358.4538575810289
 20
200.066675250825
 30
0.0
 40
32.26499999999996
100
AcDbArc
 50
283.1423424351545
 51
288.1620053909338
  0
ARC
  5
2702
330
253D
100
AcDbEntity
  8
1
 62
     7
100
AcDbCircle
 10
372.2723993823456
 20
168.2532012581084
 30
0.0
 40
3.934999999999348
100
AcDbArc
 50
162.9167396429149
 51
237.2086334835219
  0
ARC
  5
2703
330
253D
100
AcDbEntity
  8
1
 62
     7
100
AcDbCircle
 10
358.4538575810289
 20
200.066675250825
 30
0.0
 40
37.01500000000001
100
AcDbArc
 50
282.8983619418082
 51
288.4059858842805
  0
ARC
  5
2704
330
253D
100
AcDbEntity
  8
1
 62
     7
100
AcDbCircle
 10
372.2723993823456
 20
168.2532012581084
 30
0.0
 40
3.935000000000406
100
AcDbArc
 50
349.7478882556137
 51
64.03978209621309
  0
ARC
  5
2705
330
253D
100
AcDbEntity
  8
1
 62
     7
100
AcDbCircle
 10
358.4538575810289
 20
200.066675250825
 30
0.0
 40
32.26500000000002
100
AcDbArc
 50
298.7945163481969
 51
303.814179303976
  0
ARC
  5
2706
330
253D
100
AcDbEntity
  8
1
 62
     7
100
AcDbCircle
 10
380.3431429299788
 20
173.1611291327418
 30
0.0
 40
3.93500000000029
100
AcDbArc
 50
178.5689135559618
 51
252.8608073965584
  0
ARC
  5
2707
330
253D
100
AcDbEntity
  8
1
 62
     7
100
AcDbCircle
 10
358.4538575810289
 20
200.066675250825
 30
0.0
 40
37.0150000000002
100
AcDbArc
 50
298.5505358548532
 51
304.058159797323
  0
ARC
  5
2708
330
253D
100
AcDbEntity
  8
1
 62
     7
100
AcDbCircle
 10
380.3431429299788
 20
173.1611291327418
 30
0.0
 40
3.934999999999963
100
AcDbArc
 50
5.400062168656329
 51
79.69195600925758
  0
ARC
  5
2709
330
253D
100
AcDbEntity
  8
1
 62
     7
100
AcDbCircle
 10
358.4538575810289
 20
200.066675250825
 30
0.0
 40
32.26500000000041
100
AcDbArc
 50
314.4466902612423
 51
319.4663532170203
  0
ARC
  5
270A
330
253D
100
AcDbEntity
  8
1
 62
     7
100
AcDbCircle
 10
386.7904583200969
 20
180.0645182782709
 30
0.0
 40
3.935000000000122
100
AcDbArc
 50
194.2210874690044
 51
268.5129813096044
  0
ARC
  5
270B
330
253D
100
AcDbEntity
  8
1
 62
     7
100
AcDbCircle
 10
358.4538575810289
 20
200.066675250825
 30
0.0
 40
37.01500000000047
100
AcDbArc
 50
314.2027097678957
 51
319.710333710367
  0
ARC
  5
270C
330
253D
100
AcDbEntity
  8
1
 62
     7
100
AcDbCircle
 10
386.7904583200969
 20
180.0645182782709
 30
0.0
 40
3.934999999999663
100
AcDbArc
 50
21.05223608170113
 51
95.34412992230363
  0
ARC
  5
270D
330
253D
100
AcDbEntity
  8
1
 62
     7
100
AcDbCircle
 10
358.4538575810289
 20
200.066675250825
 30
0.0
 40
32.26500000000046
100
AcDbArc
 50
330.0988641742857
 51
335.118527130063
  0
ARC
  5
270E
330
253D
100
AcDbEntity
  8
1
 62
     7
100
AcDbCircle
 10
391.1361776647208
 20
188.4513759026744
 30
0.0
 40
3.935000000000279
100
AcDbArc
 50
209.873261382046
 51
284.1651552226498
  0
ARC
  5
270F
330
253D
100
AcDbEntity
  8
1
 62
     7
100
AcDbCircle
 10
358.4538575810289
 20
200.066675250825
 30
0.0
 40
37.01500000000033
100
AcDbArc
 50
329.8548836809383
 51
335.3625076234099
  0
ARC
  5
2710
330
253D
100
AcDbEntity
  8
1
 62
     7
100
AcDbCircle
 10
391.1361776647208
 20
188.4513759026744
 30
0.0
 40
3.934999999999599
100
AcDbArc
 50
36.70440999474593
 51
110.9963038353455
  0
ARC
  5
2711
330
253D
100
AcDbEntity
  8
1
 62
     7
100
AcDbCircle
 10
358.4538575810289
 20
200.066675250825
 30
0.0
 40
32.26500000000029
100
AcDbArc
 50
345.751038087328
 51
350.7707010431068
  0
ARC
  5
2712
330
253D
100
AcDbEntity
  8
1
 62
     7
100
AcDbCircle
 10
393.0579988404029
 20
197.6996871432714
 30
0.0
 40
3.934999999999528
100
AcDbArc
 50
225.5254352950974
 51
299.8173291356954
  0
ARC
  5
2713
330
253D
100
AcDbEntity
  8
1
 62
     7
100
AcDbCircle
 10
358.4538575810289
 20
200.066675250825
 30
0.0
 40
37.01500000000007
100
AcDbArc
 50
345.5070575939821
 51
351.0146815364523
  0
ARC
  5
2714
330
253D
100
AcDbEntity
  8
1
 62
     7
100
AcDbCircle
 10
393.0579988404029
 20
197.6996871432714
 30
0.0
 40
3.935000000000322
100
AcDbArc
 50
52.35658390778
 51
126.6484777483781
  0
ARC
  5
2715
330
253D
100
AcDbEntity
  8
1
 62
     7
100
AcDbCircle
 10
358.4538575810289
 20
200.066675250825
 30
0.0
 40
32.26500000000073
100
AcDbArc
 50
1.403212000372001
 51
6.422874956149749
  0
ARC
  5
2716
330
253D
100
AcDbEntity
  8
1
 62
     7
100
AcDbCircle
 10
392.4133891622908
 20
207.1235470635556
 30
0.0
 40
3.93500000000012
100
AcDbArc
 50
241.1776092081311
 51
315.469503048726
  0
ARC
  5
2717
330
253D
100
AcDbEntity
  8
1
 62
     7
100
AcDbCircle
 10
358.4538575810289
 20
200.066675250825
 30
0.0
 40
37.01500000000047
100
AcDbArc
 50
1.159231507025173
 51
6.666855449496035
  0
ARC
  5
2718
330
253D
100
AcDbEntity
  8
1
 62
     7
100
AcDbCircle
 10
392.4133891622908
 20
207.1235470635556
 30
0.0
 40
3.934999999999848
100
AcDbArc
 50
68.00875782083726
 51
142.3006516614333
  0
ARC
  5
2719
330
253D
100
AcDbEntity
  8
1
 62
     7
100
AcDbCircle
 10
358.4538575810289
 20
200.066675250825
 30
0.0
 40
32.26500000000013
100
AcDbArc
 50
17.0553859134151
 51
22.07504886919428
  0
ARC
  5
271A
330
253D
100
AcDbEntity
  8
1
 62
     7
100
AcDbCircle
 10
389.2501563813153
 20
216.0240310845298
 30
0.0
 40
3.935000000000131
100
AcDbArc
 50
256.8297831211721
 51
331.1216769617761
  0
ARC
  5
271B
330
253D
100
AcDbEntity
  8
1
 62
     7
100
AcDbCircle
 10
358.4538575810289
 20
200.066675250825
 30
0.0
 40
37.01500000000001
100
AcDbArc
 50
16.81140542006913
 51
22.31902936253955
  0
ARC
  5
271C
330
253D
100
AcDbEntity
  8
1
 62
     7
100
AcDbCircle
 10
389.2501563813153
 20
216.0240310845298
 30
0.0
 40
3.935000000000044
100
AcDbArc
 50
83.66093173387268
 51
157.9528255744739
  0
ARC
  5
271D
330
253D
100
AcDbEntity
  8
1
 62
     7
100
AcDbCircle
 10
358.4538575810289
 20
200.066675250825
 30
0.0
 40
32.26500000000019
100
AcDbArc
 50
32.70755982645896
 51
37.72722278223582
  0
ARC
  5
271E
330
253D
100
AcDbEntity
  8
1
 62
     7
100
AcDbCircle
 10
383.8029030020158
 20
223.741031023364
 30
0.0
 40
3.934999999999993
100
AcDbArc
 50
272.4819570342205
 51
346.7738508748211
  0
ARC
  5
271F
330
253D
100
AcDbEntity
  8
1
 62
     7
100
AcDbCircle
 10
358.4538575810289
 20
200.066675250825
 30
0.0
 40
37.01500000000049
100
AcDbArc
 50
32.46357933311251
 51
37.97120327558335
  0
ARC
  5
2720
330
253D
100
AcDbEntity
  8
1
 62
     7
100
AcDbCircle
 10
383.8029030020158
 20
223.741031023364
 30
0.0
 40
3.935000000000008
100
AcDbArc
 50
99.31310564691912
 51
173.604999487517
  0
ARC
  5
2721
330
253D
100
AcDbEntity
  8
1
 62
     7
100
AcDbCircle
 10
358.4538575810289
 20
200.066675250825
 30
0.0
 40
32.26499999999992
100
AcDbArc
 50
48.35973373950192
 51
53.37939669528047
  0
ARC
  5
2722
330
253D
100
AcDbEntity
  8
1
 62
     7
100
AcDbCircle
 10
376.4756268880077
 20
229.7022122975199
 30
0.0
 40
3.935000000000131
100
AcDbArc
 50
288.1341309472691
 51
2.42602478786615
  0
ARC
  5
2723
330
253D
100
AcDbEntity
  8
1
 62
     7
100
AcDbCircle
 10
358.4538575810289
 20
200.066675250825
 30
0.0
 40
37.0149999999999
100
AcDbArc
 50
48.1157532461563
 51
53.62337718862695
  0
ARC
  5
2724
330
253D
100
AcDbEntity
  8
1
 62
     7
100
AcDbCircle
 10
376.4756268880077
 20
229.7022122975199
 30
0.0
 40
3.935000000000036
100
AcDbArc
 50
114.965279559963
 51
189.2571734005616
  0
ARC
  5
2725
330
253D
100
AcDbEntity
  8
1
 62
     7
100
AcDbCircle
 10
358.4538575810289
 20
200.066675250825
 30
0.0
 40
32.26499999999999
100
AcDbArc
 50
64.0119076525453
 51
69.03157060832396
  0
ARC
  5
2726
330
253D
100
AcDbEntity
  8
1
 62
     7
100
AcDbCircle
 10
367.8117585886108
 20
233.4654613624834
 30
0.0
 40
3.934999999999707
100
AcDbArc
 50
303.7863048603034
 51
18.07819870091039
  0
ARC
  5
2727
330
253D
100
AcDbEntity
  8
1
 62
     7
100
AcDbCircle
 10
358.4538575810289
 20
200.066675250825
 30
0.0
 40
37.01499999999996
100
AcDbArc
 50
63.76792715919935
 51
69.27555110167012
  0
ARC
  5
2728
330
253D
100
AcDbEntity
  8
1
 62
     7
100
AcDbCircle
 10
367.8117585886108
 20
233.4654613624834
 30
0.0
 40
3.93500000000029
100
AcDbArc
 50
130.6174534730095
 51
204.9093473136028
  0
ARC
  5
2729
330
253D
100
AcDbEntity
  8
1
 62
     7
100
AcDbCircle
 10
358.4538575810289
 20
200.066675250825
 30
0.0
 40
32.26500000000001
100
AcDbArc
 50
79.66408156558945
 51
84.68374452136693
  0
ARC
  5
272A
330
253D
100
AcDbEntity
  8
1
 62
     7
100
AcDbCircle
 10
358.4538575810289
 20
234.751675250825
 30
0.0
 40
3.935000000000314
100
AcDbArc
 50
319.438478773356
 51
33.7303726139536
  0
ARC
  5
272B
330
253D
100
AcDbEntity
  8
1
 62
     7
100
AcDbCircle
 10
358.4538575810289
 20
200.066675250825
 30
0.0
 40
37.01499999999996
100
AcDbArc
 50
79.42010107224342
 51
84.92772501471451
  0
ARC
  5
272C
330
253D
100
AcDbEntity
  8
1
 62
     7
100
AcDbCircle
 10
213.3952628295088
 20
234.7476752508076
 30
0.0
 40
3.571874999999975
100
AcDbArc
 50
90.0
 51
115.4597972369334
  0
ARC
  5
272D
330
253D
100
AcDbEntity
  8
1
 62
     7
100
AcDbCircle
 10
213.3952628295088
 20
234.7476752508076
 30
0.0
 40
3.571874999999946
100
AcDbArc
 50
115.4597972369334
 51
270.0
  0
ARC
  5
272E
330
253D
100
AcDbEntity
  8
1
 62
     7
100
AcDbCircle
 10
213.3952628295088
 20
234.7476752508076
 30
0.0
 40
3.571875000000027
100
AcDbArc
 50
270.0
 51
297.6141371293897
  0
ARC
  5
272F
330
253D
100
AcDbEntity
  8
1
 62
     7
100
AcDbCircle
 10
213.3952628295088
 20
234.7476752508076
 30
0.0
 40
3.571875000000038
100
AcDbArc
 50
297.6141371293897
 51
64.5402027630666
  0
ARC
  5
2730
330
253D
100
AcDbEntity
  8
1
 62
     7
100
AcDbCircle
 10
213.3952628295088
 20
234.7476752508076
 30
0.0
 40
3.571874999999946
100
AcDbArc
 50
64.5402027630666
 51
90.0
  0
ARC
  5
2731
330
253D
100
AcDbEntity
  8
1
 62
     7
100
AcDbCircle
 10
213.3952628295088
 20
165.3776752508077
 30
0.0
 40
3.571874999999975
100
AcDbArc
 50
270.0
 51
295.4597972369333
  0
ARC
  5
2732
330
253D
100
AcDbEntity
  8
1
 62
     7
100
AcDbCircle
 10
213.3952628295088
 20
165.3776752508077
 30
0.0
 40
3.571874999999978
100
AcDbArc
 50
295.4597972369333
 51
62.38586287061
  0
ARC
  5
2733
330
253D
100
AcDbEntity
  8
1
 62
     7
100
AcDbCircle
 10
213.3952628295088
 20
165.3776752508077
 30
0.0
 40
3.571875000000038
100
AcDbArc
 50
62.38586287061
 51
90.0
  0
ARC
  5
2734
330
253D
100
AcDbEntity
  8
1
 62
     7
100
AcDbCircle
 10
213.3952628295088
 20
165.3776752508077
 30
0.0
 40
3.571874999999999
100
AcDbArc
 50
90.0
 51
244.5402027630664
  0
ARC
  5
2735
330
253D
100
AcDbEntity
  8
1
 62
     7
100
AcDbCircle
 10
213.3952628295088
 20
165.3776752508077
 30
0.0
 40
3.571874999999978
100
AcDbArc
 50
244.5402027630664
 51
270.0
  0
CIRCLE
  5
2736
330
253D
100
AcDbEntity
  8
0
 62
     7
100
AcDbCircle
 10
360.7505197828008
 20
185.8966754636906
 30
0.0
 40
0.866666653646007
  0
CIRCLE
  5
2737
330
253D
100
AcDbEntity
  8
0
 62
     7
100
AcDbCircle
 10
356.1571865184828
 20
185.8966754636906
 30
0.0
 40
0.8666666536418999
  0
CIRCLE
  5
2738
330
253D
100
AcDbEntity
  8
1
 62
     7
100
AcDbCircle
 10
358.4538531506388
 20
200.0666752508077
 30
0.0
 40
17.49999973736
  0
CIRCLE
  5
2739
330
253D
100
AcDbEntity
  8
1
 62
     7
100
AcDbCircle
 10
358.4538531506388
 20
200.0666752508077
 30
0.0
 40
12.99999980496121
  0
CIRCLE
  5
273A
330
253D
100
AcDbEntity
  8
1
 62
     7
100
AcDbCircle
 10
358.4538575810289
 20
250.0666752508354
 30
0.0
 40
2.75
  0
CIRCLE
  5
273B
330
253D
100
AcDbEntity
  8
1
 62
     7
100
AcDbCircle
 10
358.4538575810298
 20
150.0666752508356
 30
0.0
 40
2.75
  0
CIRCLE
  5
273C
330
253D
100
AcDbEntity
  8
1
 62
     7
100
AcDbCircle
 10
383.4538575810296
 20
156.7654050616136
 30
0.0
 40
2.750000000000646
  0
CIRCLE
  5
273D
330
253D
100
AcDbEntity
  8
1
 62
     7
100
AcDbCircle
 10
401.7551277702508
 20
175.0666752508356
 30
0.0
 40
2.749999999999979
  0
CIRCLE
  5
273E
330
253D
100
AcDbEntity
  8
1
 62
     7
100
AcDbCircle
 10
408.4538575810289
 20
200.0666752508354
 30
0.0
 40
2.74999999999992
  0
CIRCLE
  5
273F
330
253D
100
AcDbEntity
  8
1
 62
     7
100
AcDbCircle
 10
401.7551277702508
 20
225.0666752508354
 30
0.0
 40
2.749999999999979
  0
CIRCLE
  5
2740
330
253D
100
AcDbEntity
  8
1
 62
     7
100
AcDbCircle
 10
383.4538575810288
 20
243.3679454400575
 30
0.0
 40
2.750000000000519
  0
CIRCLE
  5
2741
330
253D
100
AcDbEntity
  8
1
 62
     3
100
AcDbCircle
 10
345.5129053259028
 20
248.3629665652888
 30
0.0
 40
2.500000000000043
  0
CIRCLE
  5
2742
330
253D
100
AcDbEntity
  8
1
 62
     7
100
AcDbCircle
 10
345.5129053259028
 20
248.3629665652888
 30
0.0
 40
2.0
  0
CIRCLE
  5
2743
330
253D
100
AcDbEntity
  8
1
 62
     7
100
AcDbCircle
 10
371.3948098361556
 20
151.7703839363823
 30
0.0
 40
2.0
  0
CIRCLE
  5
2744
330
253D
100
AcDbEntity
  8
1
 62
     3
100
AcDbCircle
 10
371.3948098361556
 20
151.7703839363823
 30
0.0
 40
2.5
  0
CIRCLE
  5
2745
330
253D
100
AcDbEntity
  8
1
 62
     7
100
AcDbCircle
 10
345.5129053259028
 20
248.3629665652888
 30
0.0
 40
2.750000000000043
  0
CIRCLE
  5
2746
330
253D
100
AcDbEntity
  8
1
 62
     7
100
AcDbCircle
 10
371.3948098361556
 20
151.7703839363823
 30
0.0
 40
2.75
  0
CIRCLE
  5
2747
330
253D
100
AcDbEntity
  8
1
 62
     7
100
AcDbCircle
 10
35.34073666078838
 20
200.0666752508077
 30
0.0
 40
66.99999999999997
  0
CIRCLE
  5
2748
330
253D
100
AcDbEntity
  8
1
 62
     7
100
AcDbCircle
 10
35.34073666078838
 20
200.0666752508077
 30
0.0
 40
56.99999999999997
  0
CIRCLE
  5
2749
330
253D
100
AcDbEntity
  8
1
  6
CENTER
 62
     3
100
AcDbCircle
 10
35.34073666078838
 20
200.0666752508077
 30
0.0
 40
61.99999999999997
  0
CIRCLE
  5
274A
330
253D
100
AcDbEntity
  8
1
 62
     7
100
AcDbCircle
 10
35.34073666078838
 20
262.0666752508077
 30
0.0
 40
2.75
  0
CIRCLE
  5
274B
330
253D
100
AcDbEntity
  8
1
 62
     7
100
AcDbCircle
 10
4.340736660788389
 20
253.7602502854428
 30
0.0
 40
2.749999999999904
  0
CIRCLE
  5
274C
330
253D
100
AcDbEntity
  8
1
 62
     7
100
AcDbCircle
 10
-18.35283837384689
 20
231.0666752508077
 30
0.0
 40
2.74999999999997
  0
CIRCLE
  5
274D
330
253D
100
AcDbEntity
  8
1
 62
     7
100
AcDbCircle
 10
-26.6592633392116
 20
200.0666752508077
 30
0.0
 40
2.75
  0
CIRCLE
  5
274E
330
253D
100
AcDbEntity
  8
1
 62
     7
100
AcDbCircle
 10
-18.35283837384679
 20
169.0666752508074
 30
0.0
 40
2.75
  0
CIRCLE
  5
274F
330
253D
100
AcDbEntity
  8
1
 62
     7
100
AcDbCircle
 10
4.340736660788389
 20
146.3731002161725
 30
0.0
 40
2.750000000000078
  0
CIRCLE
  5
2750
330
253D
100
AcDbEntity
  8
1
 62
     7
100
AcDbCircle
 10
35.34073666078838
 20
138.0666752508074
 30
0.0
 40
2.75
  0
CIRCLE
  5
2751
330
253D
100
AcDbEntity
  8
1
 62
     7
100
AcDbCircle
 10
66.34073666078832
 20
146.3731002161725
 30
0.0
 40
2.750000000000078
  0
CIRCLE
  5
2752
330
253D
100
AcDbEntity
  8
1
 62
     7
100
AcDbCircle
 10
89.03431169542351
 20
169.0666752508074
 30
0.0
 40
2.750000000000003
  0
CIRCLE
  5
2753
330
253D
100
AcDbEntity
  8
1
 62
     7
100
AcDbCircle
 10
97.34073666078836
 20
200.0666752508077
 30
0.0
 40
2.749999999999963
  0
CIRCLE
  5
2754
330
253D
100
AcDbEntity
  8
1
 62
     7
100
AcDbCircle
 10
89.03431169542342
 20
231.0666752508077
 30
0.0
 40
2.750000000000031
  0
CIRCLE
  5
2755
330
253D
100
AcDbEntity
  8
1
 62
     7
100
AcDbCircle
 10
66.34073666078832
 20
253.7602502854428
 30
0.0
 40
2.749999999999988
  0
CIRCLE
  5
2756
330
253D
100
AcDbEntity
  8
1
 62
     7
100
AcDbCircle
 10
35.34073666078838
 20
200.0666752508077
 30
0.0
 40
39.87400000000004
  0
CIRCLE
  5
2757
330
253D
100
AcDbEntity
  8
1
 62
     7
100
AcDbCircle
 10
358.4538575810289
 20
200.0666752508077
 30
0.0
 40
54.99999917401675
  0
CIRCLE
  5
2758
330
253D
100
AcDbEntity
  8
1
 62
     7
100
AcDbCircle
 10
358.4538575810289
 20
200.0666752508077
 30
0.0
 40
40.46499999996544
  0
CIRCLE
  5
2759
330
253D
100
AcDbEntity
  8
1
 62
     7
100
AcDbCircle
 10
358.4538575810289
 20
200.0666752508077
 30
0.0
 40
41.60899999996545
  0
CIRCLE
  5
275A
330
253D
100
AcDbEntity
  8
1
  6
CENTER
 62
     3
100
AcDbCircle
 10
358.4538575810289
 20
200.066675250825
 30
0.0
 40
49.99999999998939
  0
CIRCLE
  5
275B
330
253D
100
AcDbEntity
  8
1
 62
     7
100
AcDbCircle
 10
333.4538569874698
 20
243.3679476552528
 30
0.0
 40
2.749999999999928
  0
CIRCLE
  5
275C
330
253D
100
AcDbEntity
  8
1
 62
     7
100
AcDbCircle
 10
315.1525851766139
 20
225.0666790876671
 30
0.0
 40
2.750000000000028
  0
CIRCLE
  5
275D
330
253D
100
AcDbEntity
  8
1
 62
     7
100
AcDbCircle
 10
308.4538531506408
 20
200.0666796812275
 30
0.0
 40
2.75
  0
CIRCLE
  5
275E
330
253D
100
AcDbEntity
  8
1
 62
     7
100
AcDbCircle
 10
315.152580746223
 20
175.066679087668
 30
0.0
 40
2.749999999999995
  0
CIRCLE
  5
275F
330
253D
100
AcDbEntity
  8
1
 62
     7
100
AcDbCircle
 10
333.4538569874698
 20
243.3679476552528
 30
0.0
 40
2.749999999999928
  0
CIRCLE
  5
2760
330
253D
100
AcDbEntity
  8
1
 62
     7
100
AcDbCircle
 10
333.4538493138087
 20
156.7654072768118
 30
0.0
 40
2.749999999999731
  0
CIRCLE
  5
2761
330
253D
100
AcDbEntity
  8
1
 62
     7
100
AcDbCircle
 10
358.4538575810289
 20
200.0666752508077
 30
0.0
 40
39.87799999998281
  0
CIRCLE
  5
2762
330
253D
100
AcDbEntity
  8
1
 62
     7
100
AcDbCircle
 10
358.4538575810289
 20
200.0666752508077
 30
0.0
 40
37.91021515173225
  0
CIRCLE
  5
2763
330
253D
100
AcDbEntity
  8
1
 62
     7
100
AcDbCircle
 10
358.4538575810289
 20
200.0666752508077
 30
0.0
 40
31.51999999998276
  0
CIRCLE
  5
2764
330
253D
100
AcDbEntity
  8
1
 62
     7
100
AcDbCircle
 10
358.4538575810289
 20
200.0666752508077
 30
0.0
 40
29.46399999998282
  0
ARC
  5
2765
330
253D
100
AcDbEntity
  8
1
 62
     7
100
AcDbCircle
 10
183.6472628295088
 20
242.3466752508077
 30
0.0
 40
2.4065194784169
100
AcDbArc
 50
181.1905139987839
 51
271.1905139987824
  0
ARC
  5
2766
330
253D
100
AcDbEntity
  8
1
 62
     7
100
AcDbCircle
 10
180.8662628295088
 20
256.6916752508077
 30
0.0
 40
0.3783186487605963
100
AcDbArc
 50
7.594643368600268
 51
97.59464336859034
  0
ARC
  5
2767
330
253D
100
AcDbEntity
  8
1
 62
     7
100
AcDbCircle
 10
183.780262829509
 20
242.4796752508076
 30
0.0
 40
1.950640920313117
100
AcDbArc
 50
181.468800714388
 51
271.4688007143864
  0
ARC
  5
2768
330
253D
100
AcDbEntity
  8
1
 62
     7
100
AcDbCircle
 10
183.6472628295088
 20
157.7866752508074
 30
0.0
 40
2.406519478416962
100
AcDbArc
 50
88.80948600121755
 51
178.8094860012159
  0
ARC
  5
2769
330
253D
100
AcDbEntity
  8
1
 62
     7
100
AcDbCircle
 10
180.9162628295089
 20
143.3916752508078
 30
0.0
 40
0.3250000000000455
100
AcDbArc
 50
270.0
 51
0.0
  0
ARC
  5
276A
330
253D
100
AcDbEntity
  8
1
 62
     7
100
AcDbCircle
 10
183.780262829509
 20
157.6536752508076
 30
0.0
 40
1.950640920313174
100
AcDbArc
 50
88.53119928561353
 51
178.5311992856116
  0
ARC
  5
276B
330
253D
100
AcDbEntity
  8
1
 62
     7
100
AcDbCircle
 10
208.0624761454175
 20
232.6276752508077
 30
0.0
 40
0.2999999999998231
100
AcDbArc
 50
173.0000000000087
 51
270.0
  0
ARC
  5
276C
330
253D
100
AcDbEntity
  8
1
 62
     7
100
AcDbCircle
 10
208.3433878295088
 20
236.7776752508076
 30
0.0
 40
0.3000000000000256
100
AcDbArc
 50
90.0
 51
180.0
  0
ARC
  5
276D
330
253D
100
AcDbEntity
  8
1
 62
     7
100
AcDbCircle
 10
208.3433878295088
 20
163.3476752508077
 30
0.0
 40
0.2999999999999541
100
AcDbArc
 50
180.0
 51
270.0
  0
ARC
  5
276E
330
253D
100
AcDbEntity
  8
1
 62
     7
100
AcDbCircle
 10
208.0624761454175
 20
167.4976752508069
 30
0.0
 40
0.3000000000000043
100
AcDbArc
 50
90.0
 51
187.0000000000123
  0
TEXT
  5
2774
330
253D
100
AcDbEntity
  8
1
 62
     0
100
AcDbText
 10
129.3241806946401
 20
96.8605213616396
 30
0.0
 40
4.853768349242372
  1
REMARKS:  M.H.C = MINIMUM HOUSING CLEARANCE
 41
0.9
 72
     1
 11
192.6767786310389
 21
99.28740553626079
 31
0.0
100
AcDbText
 73
     2
  0
TEXT
  5
2778
330
253D
100
AcDbEntity
  8
1
 62
     3
100
AcDbText
 10
11.6692657436071
 20
49.56897899195841
 30
0.0
 40
2.9
  1
 
 41
0.9
100
AcDbText
  0
TEXT
  5
2788
330
253D
100
AcDbEntity
  8
1
 62
     0
100
AcDbText
 10
320.8012974686582
 20
101.8402340027637
 30
0.0
 40
6.535852212714416
  1
SHF-32-XXX-2A-GR.dxf
 41
0.9
100
AcDbText
  0
TEXT
  5
2789
330
253D
100
AcDbEntity
  8
1
 62
     0
100
AcDbText
 10
350.0618787862828
 20
87.1306005561694
 30
0.0
 40
6.535852212714416
  1
2002/3
 41
0.9
 72
     1
 11
362.4617789426146
 21
90.39852666252661
 31
0.0
100
AcDbText
 73
     2
  0
INSERT
  5
279D
330
253D
100
AcDbEntity
  8
AM_0
 62
     0
100
AcDbBlockReference
  2
Harmonic Drive LLC
 10
379.4265277035939
 20
50.42642836512754
 30
0.0
 41
2.0
 42
2.0
  0
INSERT
  5
281B
330
253D
100
AcDbEntity
  8
0
100
AcDbBlockReference
  2
HD Logo
 10
272.7844203964914
 20
40.12629964687787
 30
0.0
  0
INSERT
  5
2B78
330
253D
100
AcDbEntity
  8
0
100
AcDbBlockReference
  2
NTC
 10
10.1707098945889
 20
91.4613772670302
 30
0.0
 41
0.6912000000000002
 42
0.6912000000000002
 43
0.6912000000000002
  0
ENDSEC
  0
SECTION
  2
OBJECTS
  0
DICTIONARY
  5
252B
330
0
100
AcDbDictionary
281
     1
  3
ACAD_GROUP
350
252C
  3
ACAD_LAYOUT
350
2538
  3
ACAD_MLINESTYLE
350
2535
  3
ACAD_PLOTSETTINGS
350
2537
  3
ACAD_PLOTSTYLENAME
350
252D
  3
AcDbVariableDictionary
350
279F
  0
DICTIONARY
  5
252C
102
{ACAD_REACTORS
330
252B
102
}
330
252B
100
AcDbDictionary
281
     1
  0
DICTIONARY
  5
2538
102
{ACAD_REACTORS
330
252B
102
}
330
252B
100
AcDbDictionary
281
     1
  3
Layout1
350
253C
  3
Model
350
2540
  0
DICTIONARY
  5
2535
102
{ACAD_REACTORS
330
252B
102
}
330
252B
100
AcDbDictionary
281
     1
  3
Standard
350
2536
  0
DICTIONARY
  5
2537
102
{ACAD_REACTORS
330
252B
102
}
330
252B
100
AcDbDictionary
281
     1
  0
ACDBDICTIONARYWDFLT
  5
252D
102
{ACAD_REACTORS
330
252B
102
}
330
252B
100
AcDbDictionary
281
     1
  3
Normal
350
252E
100
AcDbDictionaryWithDefault
340
252E
  0
DICTIONARY
  5
279F
102
{ACAD_REACTORS
330
252B
102
}
330
252B
100
AcDbDictionary
281
     1
  3
DIMASSOC
350
27A0
  0
LAYOUT
  5
253C
102
{ACAD_REACTORS
330
2538
102
}
330
2538
100
AcDbPlotSettings
  1

  2
\\SERVER9\HP LaserJet 5100 PCL 5e
  4

  6

 40
0.0
 41
0.0
 42
0.0
 43
0.0
 44
0.0
 45
0.0
 46
0.0
 47
0.0
 48
0.0
 49
0.0
140
0.0
141
0.0
142
1.0
143
1.0
 70
   688
 72
     0
 73
     0
 74
     5
  7

 75
    16
147
1.0
148
0.0
149
0.0
100
AcDbLayout
  1
Layout1
 70
     1
 71
     1
 10
0.0
 20
0.0
 11
420.0
 21
297.0
 12
0.0
 22
0.0
 32
0.0
 14
1.000000000000000E+20
 24
1.000000000000000E+20
 34
1.000000000000000E+20
 15
-1.000000000000000E+20
 25
-1.000000000000000E+20
 35
-1.000000000000000E+20
146
0.0
 13
0.0
 23
0.0
 33
0.0
 16
1.0
 26
0.0
 36
0.0
 17
0.0
 27
1.0
 37
0.0
 76
     0
330
2539
  0
LAYOUT
  5
2540
102
{ACAD_REACTORS
330
2538
102
}
330
2538
100
AcDbPlotSettings
  1

  2
\\SERVER9\HP LaserJet 5100 PCL 5e
  4

  6

 40
0.0
 41
0.0
 42
0.0
 43
0.0
 44
0.0
 45
0.0
 46
0.0
 47
0.0
 48
0.0
 49
0.0
140
0.0
141
0.0
142
1.0
143
1.0
 70
  1712
 72
     0
 73
     0
 74
     0
  7

 75
     0
147
1.0
148
0.0
149
0.0
100
AcDbLayout
  1
Model
 70
     1
 71
     0
 10
0.0
 20
0.0
 11
12.0
 21
9.0
 12
0.0
 22
0.0
 32
0.0
 14
0.0
 24
0.0
 34
0.0
 15
0.0
 25
0.0
 35
0.0
146
0.0
 13
0.0
 23
0.0
 33
0.0
 16
1.0
 26
0.0
 36
0.0
 17
0.0
 27
1.0
 37
0.0
 76
     0
330
253D
  0
MLINESTYLE
  5
2536
102
{ACAD_REACTORS
330
2535
102
}
330
2535
100
AcDbMlineStyle
  2
STANDARD
 70
     0
  3

 62
   256
 51
90.0
 52
90.0
 71
     2
 49
0.5
 62
   256
  6
BYLAYER
 49
-0.5
 62
   256
  6
BYLAYER
  0
ACDBPLACEHOLDER
  5
252E
102
{ACAD_REACTORS
330
252D
102
}
330
252D
  0
DICTIONARYVAR
  5
27A0
102
{ACAD_REACTORS
330
279F
102
}
330
279F
100
DictionaryVariables
280
     0
  1
1
  0
ENDSEC
  0
EOF
