  0
SECTION
  2
HEADER
  9
$ACADVER
  1
AC1015
  9
$ACADMAINTVER
 70
    13
  9
$DWGCODEPAGE
  3
ANSI_1252
  9
$INSBASE
 10
0.0
 20
0.0
 30
0.0
  9
$EXTMIN
 10
-201.9496594870071
 20
-212.2875142571646
 30
0.0
  9
$EXTMAX
 10
913.1829032858048
 20
963.8179142283169
 30
0.0
  9
$LIMMIN
 10
0.0
 20
0.0
  9
$LIMMAX
 10
420.0
 20
297.0
  9
$ORTHOMODE
 70
     0
  9
$REGENMODE
 70
     1
  9
$FILLMODE
 70
     1
  9
$QTEXTMODE
 70
     0
  9
$MIRRTEXT
 70
     1
  9
$LTSCALE
 40
1.0
  9
$ATTMODE
 70
     1
  9
$TEXTSIZE
 40
2.5
  9
$TRACEWID
 40
1.0
  9
$TEXTSTYLE
  7
STANDARD
  9
$CLAYER
  8
AM_0
  9
$CELTYPE
  6
ByLayer
  9
$CECOLOR
 62
   256
  9
$CELTSCALE
 40
1.0
  9
$DISPSILH
 70
     0
  9
$DIMSCALE
 40
1.0
  9
$DIMASZ
 40
2.5
  9
$DIMEXO
 40
0.625
  9
$DIMDLI
 40
3.75
  9
$DIMRND
 40
0.0
  9
$DIMDLE
 40
0.0
  9
$DIMEXE
 40
1.25
  9
$DIMTP
 40
0.0
  9
$DIMTM
 40
0.0
  9
$DIMTXT
 40
2.5
  9
$DIMCEN
 40
2.5
  9
$DIMTSZ
 40
0.0
  9
$DIMTOL
 70
     0
  9
$DIMLIM
 70
     0
  9
$DIMTIH
 70
     0
  9
$DIMTOH
 70
     0
  9
$DIMSE1
 70
     0
  9
$DIMSE2
 70
     0
  9
$DIMTAD
 70
     1
  9
$DIMZIN
 70
     8
  9
$DIMBLK
  1

  9
$DIMASO
 70
     1
  9
$DIMSHO
 70
     1
  9
$DIMPOST
  1

  9
$DIMAPOST
  1

  9
$DIMALT
 70
     0
  9
$DIMALTD
 70
     3
  9
$DIMALTF
 40
0.03937007874016
  9
$DIMLFAC
 40
1.0
  9
$DIMTOFL
 70
     1
  9
$DIMTVP
 40
0.0
  9
$DIMTIX
 70
     0
  9
$DIMSOXD
 70
     0
  9
$DIMSAH
 70
     0
  9
$DIMBLK1
  1

  9
$DIMBLK2
  1

  9
$DIMSTYLE
  2
ISO-25
  9
$DIMCLRD
 70
     0
  9
$DIMCLRE
 70
     0
  9
$DIMCLRT
 70
     0
  9
$DIMTFAC
 40
1.0
  9
$DIMGAP
 40
0.625
  9
$DIMJUST
 70
     0
  9
$DIMSD1
 70
     0
  9
$DIMSD2
 70
     0
  9
$DIMTOLJ
 70
     1
  9
$DIMTZIN
 70
     0
  9
$DIMALTZ
 70
     0
  9
$DIMALTTZ
 70
     0
  9
$DIMUPT
 70
     0
  9
$DIMDEC
 70
     4
  9
$DIMTDEC
 70
     4
  9
$DIMALTU
 70
     2
  9
$DIMALTTD
 70
     2
  9
$DIMTXSTY
  7
STANDARD
  9
$DIMAUNIT
 70
     0
  9
$DIMADEC
 70
     0
  9
$DIMALTRND
 40
0.0
  9
$DIMAZIN
 70
     0
  9
$DIMDSEP
 70
    46
  9
$DIMATFIT
 70
     3
  9
$DIMFRAC
 70
     0
  9
$DIMLDRBLK
  1

  9
$DIMLUNIT
 70
     2
  9
$DIMLWD
 70
    -2
  9
$DIMLWE
 70
    -2
  9
$DIMTMOVE
 70
     0
  9
$LUNITS
 70
     2
  9
$LUPREC
 70
     2
  9
$SKETCHINC
 40
1.0
  9
$FILLETRAD
 40
2.5
  9
$AUNITS
 70
     0
  9
$AUPREC
 70
     0
  9
$MENU
  1
.
  9
$ELEVATION
 40
0.0
  9
$PELEVATION
 40
0.0
  9
$THICKNESS
 40
0.0
  9
$LIMCHECK
 70
     0
  9
$CHAMFERA
 40
2.5
  9
$CHAMFERB
 40
2.5
  9
$CHAMFERC
 40
0.0
  9
$CHAMFERD
 40
0.0
  9
$SKPOLY
 70
     0
  9
$TDCREATE
 40
2452801.937007372
  9
$TDUCREATE
 40
2452802.103674039
  9
$TDUPDATE
 40
2453865.652256759
  9
$TDUUPDATE
 40
2453865.818923425
  9
$TDINDWG
 40
0.0322905787
  9
$TDUSRTIMER
 40
0.0322903935
  9
$USRTIMER
 70
     1
  9
$ANGBASE
 50
0.0
  9
$ANGDIR
 70
     0
  9
$PDMODE
 70
     0
  9
$PDSIZE
 40
0.0
  9
$PLINEWID
 40
0.0
  9
$SPLFRAME
 70
     0
  9
$SPLINETYPE
 70
     6
  9
$SPLINESEGS
 70
     8
  9
$HANDSEED
  5
2BE5
  9
$SURFTAB1
 70
     6
  9
$SURFTAB2
 70
     6
  9
$SURFTYPE
 70
     6
  9
$SURFU
 70
     6
  9
$SURFV
 70
     6
  9
$UCSBASE
  2

  9
$UCSNAME
  2

  9
$UCSORG
 10
0.0
 20
0.0
 30
0.0
  9
$UCSXDIR
 10
1.0
 20
0.0
 30
0.0
  9
$UCSYDIR
 10
0.0
 20
1.0
 30
0.0
  9
$UCSORTHOREF
  2

  9
$UCSORTHOVIEW
 70
     0
  9
$UCSORGTOP
 10
0.0
 20
0.0
 30
0.0
  9
$UCSORGBOTTOM
 10
0.0
 20
0.0
 30
0.0
  9
$UCSORGLEFT
 10
0.0
 20
0.0
 30
0.0
  9
$UCSORGRIGHT
 10
0.0
 20
0.0
 30
0.0
  9
$UCSORGFRONT
 10
0.0
 20
0.0
 30
0.0
  9
$UCSORGBACK
 10
0.0
 20
0.0
 30
0.0
  9
$PUCSBASE
  2

  9
$PUCSNAME
  2

  9
$PUCSORG
 10
0.0
 20
0.0
 30
0.0
  9
$PUCSXDIR
 10
1.0
 20
0.0
 30
0.0
  9
$PUCSYDIR
 10
0.0
 20
1.0
 30
0.0
  9
$PUCSORTHOREF
  2

  9
$PUCSORTHOVIEW
 70
     0
  9
$PUCSORGTOP
 10
0.0
 20
0.0
 30
0.0
  9
$PUCSORGBOTTOM
 10
0.0
 20
0.0
 30
0.0
  9
$PUCSORGLEFT
 10
0.0
 20
0.0
 30
0.0
  9
$PUCSORGRIGHT
 10
0.0
 20
0.0
 30
0.0
  9
$PUCSORGFRONT
 10
0.0
 20
0.0
 30
0.0
  9
$PUCSORGBACK
 10
0.0
 20
0.0
 30
0.0
  9
$USERI1
 70
     0
  9
$USERI2
 70
     0
  9
$USERI3
 70
     0
  9
$USERI4
 70
     0
  9
$USERI5
 70
     0
  9
$USERR1
 40
0.0
  9
$USERR2
 40
0.0
  9
$USERR3
 40
0.0
  9
$USERR4
 40
0.0
  9
$USERR5
 40
0.0
  9
$WORLDVIEW
 70
     1
  9
$SHADEDGE
 70
     3
  9
$SHADEDIF
 70
    70
  9
$TILEMODE
 70
     1
  9
$MAXACTVP
 70
    64
  9
$PINSBASE
 10
0.0
 20
0.0
 30
0.0
  9
$PLIMCHECK
 70
     0
  9
$PEXTMIN
 10
1.000000000000000E+20
 20
1.000000000000000E+20
 30
1.000000000000000E+20
  9
$PEXTMAX
 10
-1.000000000000000E+20
 20
-1.000000000000000E+20
 30
-1.000000000000000E+20
  9
$PLIMMIN
 10
0.0
 20
0.0
  9
$PLIMMAX
 10
420.0
 20
297.0
  9
$UNITMODE
 70
     0
  9
$VISRETAIN
 70
     1
  9
$PLINEGEN
 70
     0
  9
$PSLTSCALE
 70
     1
  9
$TREEDEPTH
 70
  3020
  9
$CMLSTYLE
  2
Standard
  9
$CMLJUST
 70
     0
  9
$CMLSCALE
 40
1.0
  9
$PROXYGRAPHICS
 70
     1
  9
$MEASUREMENT
 70
     0
  9
$CELWEIGHT
370
    -1
  9
$ENDCAPS
280
     0
  9
$JOINSTYLE
280
     0
  9
$LWDISPLAY
290
     0
  9
$INSUNITS
 70
     0
  9
$HYPERLINKBASE
  1

  9
$STYLESHEET
  1

  9
$XEDIT
290
     1
  9
$CEPSNTYPE
380
     0
  9
$PSTYLEMODE
290
     1
  9
$FINGERPRINTGUID
  2
{809F8650-AAC3-4C12-9A6A-338A391A4FC1}
  9
$VERSIONGUID
  2
{F6194B4D-F584-4497-A815-25A3D8A61807}
  9
$EXTNAMES
290
     1
  9
$PSVPSCALE
 40
0.0
  9
$OLESTARTUP
290
     0
  0
ENDSEC
  0
SECTION
  2
CLASSES
  0
CLASS
  1
ACDBDICTIONARYWDFLT
  2
AcDbDictionaryWithDefault
  3
AutoCAD 2000
 90
        0
280
     0
281
     0
  0
CLASS
  1
ACDBPLACEHOLDER
  2
AcDbPlaceHolder
  3
AutoCAD 2000
 90
        0
280
     0
281
     0
  0
CLASS
  1
LAYOUT
  2
AcDbLayout
  3
AutoCAD 2000
 90
        0
280
     0
281
     0
  0
CLASS
  1
DICTIONARYVAR
  2
AcDbDictionaryVar
  3
AutoCAD 2000
 90
        0
280
     0
281
     0
  0
ENDSEC
  0
SECTION
  2
TABLES
  0
TABLE
  2
VPORT
  5
24B5
330
0
100
AcDbSymbolTable
 70
     3
  0
VPORT
  5
2BE4
330
24B5
100
AcDbSymbolTableRecord
100
AcDbViewportTableRecord
  2
*Active
 70
     0
 10
0.0
 20
0.0
 11
1.0
 21
1.0
 12
506.6311410051042
 22
669.0513180096631
 13
0.0
 23
0.0
 14
2.5
 24
2.5
 15
10.0
 25
10.0
 16
0.0
 26
0.0
 36
1.0
 17
0.0
 27
0.0
 37
0.0
 40
812.4247031080303
 41
1.182835820895522
 42
50.0
 43
0.0
 44
0.0
 50
0.0
 51
0.0
 71
     0
 72
   100
 73
     1
 74
     3
 75
     0
 76
     0
 77
     0
 78
     0
281
     0
 65
     1
110
0.0
120
0.0
130
0.0
111
1.0
121
0.0
131
0.0
112
0.0
122
1.0
132
0.0
 79
     0
146
0.0
  0
ENDTAB
  0
TABLE
  2
LTYPE
  5
24B2
330
0
100
AcDbSymbolTable
 70
     4
  0
LTYPE
  5
24C0
330
24B2
100
AcDbSymbolTableRecord
100
AcDbLinetypeTableRecord
  2
ByBlock
 70
     0
  3

 72
    65
 73
     0
 40
0.0
  0
LTYPE
  5
24C1
330
24B2
100
AcDbSymbolTableRecord
100
AcDbLinetypeTableRecord
  2
ByLayer
 70
     0
  3

 72
    65
 73
     0
 40
0.0
  0
LTYPE
  5
24C2
330
24B2
100
AcDbSymbolTableRecord
100
AcDbLinetypeTableRecord
  2
CONTINUOUS
 70
     0
  3
Solid line
 72
    65
 73
     0
 40
0.0
  0
LTYPE
  5
24D1
330
24B2
100
AcDbSymbolTableRecord
100
AcDbLinetypeTableRecord
  2
CENTER
 70
     0
  3
Center ____ _ ____ _ ____ _ ____ _ ____ _ ____
 72
    65
 73
     4
 40
50.8
 49
31.75
 74
     0
 49
-6.349999999999997
 74
     0
 49
6.349999999999997
 74
     0
 49
-6.349999999999997
 74
     0
  0
LTYPE
  5
24D2
330
24B2
100
AcDbSymbolTableRecord
100
AcDbLinetypeTableRecord
  2
DIVIDE
 70
     0
  3
__ . . __ . . 
 72
    65
 73
     6
 40
20.49021522214029
 49
8.196086088856111
 74
     0
 49
-4.098043044428055
 74
     0
 49
0.0
 74
     0
 49
-4.098043044428055
 74
     0
 49
0.0
 74
     0
 49
-4.098043044428055
 74
     0
  0
LTYPE
  5
24D3
330
24B2
100
AcDbSymbolTableRecord
100
AcDbLinetypeTableRecord
  2
PHANTOM
 70
     0
  3
_____ _ _ _____ _ _ 
 72
    65
 73
     6
 40
40.98043044428059
 49
20.49021522214029
 74
     0
 49
-4.098043044428055
 74
     0
 49
4.098043044428055
 74
     0
 49
-4.098043044428055
 74
     0
 49
4.098043044428055
 74
     0
 49
-4.098043044428055
 74
     0
  0
ENDTAB
  0
TABLE
  2
LAYER
  5
24AF
330
0
100
AcDbSymbolTable
 70
     5
  0
LAYER
  5
24BD
330
24AF
100
AcDbSymbolTableRecord
100
AcDbLayerTableRecord
  2
0
 70
     0
 62
     7
  6
CONTINUOUS
370
    -3
390
24BC
  0
LAYER
  5
24CF
330
24AF
100
AcDbSymbolTableRecord
100
AcDbLayerTableRecord
  2
AM_0
 70
     0
 62
     7
  6
CONTINUOUS
370
    -3
390
24BC
  0
LAYER
  5
24D4
330
24AF
100
AcDbSymbolTableRecord
100
AcDbLayerTableRecord
  2
1
 70
     0
 62
     7
  6
CONTINUOUS
370
    -3
390
24BC
  0
LAYER
  5
24D5
330
24AF
100
AcDbSymbolTableRecord
100
AcDbLayerTableRecord
  2
2
 70
     0
 62
     7
  6
CONTINUOUS
370
    -3
390
24BC
  0
LAYER
  5
277F
330
24AF
100
AcDbSymbolTableRecord
100
AcDbLayerTableRecord
  2
LAYER_1
 70
     0
 62
     5
  6
CONTINUOUS
370
    -3
390
24BC
  0
ENDTAB
  0
TABLE
  2
STYLE
  5
24B0
330
0
100
AcDbSymbolTable
 70
     1
  0
STYLE
  5
24BE
330
24B0
100
AcDbSymbolTableRecord
100
AcDbTextStyleTableRecord
  2
STANDARD
 70
     0
 40
0.0
 41
1.0
 50
0.0
 71
     0
 42
2.5
  3
ISOCP.SHX
  4

  0
ENDTAB
  0
TABLE
  2
VIEW
  5
24B3
330
0
100
AcDbSymbolTable
 70
     0
  0
ENDTAB
  0
TABLE
  2
UCS
  5
24B4
330
0
100
AcDbSymbolTable
 70
     0
  0
ENDTAB
  0
TABLE
  2
APPID
  5
24B6
330
0
100
AcDbSymbolTable
 70
    13
  0
APPID
  5
24BF
330
24B6
100
AcDbSymbolTableRecord
100
AcDbRegAppTableRecord
  2
ACAD
 70
     0
  0
APPID
  5
24D6
330
24B6
100
AcDbSymbolTableRecord
100
AcDbRegAppTableRecord
  2
GENIUS_GENDIM_13
 70
     0
  0
APPID
  5
24D7
330
24B6
100
AcDbSymbolTableRecord
100
AcDbRegAppTableRecord
  2
GENIUS_GENDTOL_13
 70
     0
  0
APPID
  5
24D8
330
24B6
100
AcDbSymbolTableRecord
100
AcDbRegAppTableRecord
  2
GENIUS_GE3DTOL_13
 70
     0
  0
APPID
  5
24D9
330
24B6
100
AcDbSymbolTableRecord
100
AcDbRegAppTableRecord
  2
MCAD_NO_VIS
 70
     0
  0
APPID
  5
24DA
330
24B6
100
AcDbSymbolTableRecord
100
AcDbRegAppTableRecord
  2
ACAD_TEMP_GRAPHIC
 70
     0
  0
APPID
  5
24DB
330
24B6
100
AcDbSymbolTableRecord
100
AcDbRegAppTableRecord
  2
AD_DRAW
 70
     0
  0
APPID
  5
24DC
330
24B6
100
AcDbSymbolTableRecord
100
AcDbRegAppTableRecord
  2
ACATTRIBSERVICES
 70
     0
  0
APPID
  5
24DD
330
24B6
100
AcDbSymbolTableRecord
100
AcDbRegAppTableRecord
  2
ASURF_PCURVE_APPNAME
 70
     0
  0
APPID
  5
24DE
330
24B6
100
AcDbSymbolTableRecord
100
AcDbRegAppTableRecord
  2
DESIGNERASSEMBLIES
 70
     0
  0
APPID
  5
24DF
330
24B6
100
AcDbSymbolTableRecord
100
AcDbRegAppTableRecord
  2
ACADM_DIM_EDIT
 70
     0
  0
APPID
  5
24E0
330
24B6
100
AcDbSymbolTableRecord
100
AcDbRegAppTableRecord
  2
G3V_ENTHND
 70
     0
  0
APPID
  5
24E1
330
24B6
100
AcDbSymbolTableRecord
100
AcDbRegAppTableRecord
  2
GENIUS_GENDIMSH_14
 70
     0
  0
ENDTAB
  0
TABLE
  2
DIMSTYLE
  5
24B7
330
0
100
AcDbSymbolTable
 70
     2
100
AcDbDimStyleTable
 71
     0
  0
DIMSTYLE
105
24E2
330
24B7
100
AcDbSymbolTableRecord
100
AcDbDimStyleTableRecord
  2
ISO-25
 70
     0
 41
2.5
 42
0.625
 43
3.75
 44
1.25
 73
     0
 74
     0
 77
     1
 78
     8
140
2.5
141
2.5
143
0.03937007874016
147
0.625
171
     3
172
     1
271
     2
272
     2
274
     3
279
     2
284
     8
285
     8
286
     8
340
24BE
  0
DIMSTYLE
105
2780
330
24B7
100
AcDbSymbolTableRecord
100
AcDbDimStyleTableRecord
  2
Standard
 70
     0
340
24BE
  0
ENDTAB
  0
TABLE
  2
BLOCK_RECORD
  5
24AE
330
0
100
AcDbSymbolTable
 70
    25
  0
BLOCK_RECORD
  5
24CB
330
24AE
100
AcDbSymbolTableRecord
100
AcDbBlockTableRecord
  2
*Model_Space
340
24CE
  0
BLOCK_RECORD
  5
24C7
330
24AE
100
AcDbSymbolTableRecord
100
AcDbBlockTableRecord
  2
*Paper_Space
340
24CA
  0
BLOCK_RECORD
  5
24E4
330
24AE
100
AcDbSymbolTableRecord
100
AcDbBlockTableRecord
  2
$MODEL_SPACE
340
0
  0
BLOCK_RECORD
  5
24E7
330
24AE
100
AcDbSymbolTableRecord
100
AcDbBlockTableRecord
  2
$PAPER_SPACE
340
0
  0
BLOCK_RECORD
  5
2713
330
24AE
100
AcDbSymbolTableRecord
100
AcDbBlockTableRecord
  2
AI9-BLK14
340
0
310
2800000020000000200000000100080000000000000400000000000000000000000000000000000000000000000080000080000000808000800000008000800080800000C0C0C000C0DCC000F0CAA6000020400000206000002080000020A0000020C0000020E00000400000004020000040400000406000004080000040A0
310
000040C0000040E00000600000006020000060400000606000006080000060A0000060C0000060E00000800000008020000080400000806000008080000080A0000080C0000080E00000A0000000A0200000A0400000A0600000A0800000A0A00000A0C00000A0E00000C0000000C0200000C0400000C0600000C0800000C0
310
A00000C0C00000C0E00000E0000000E0200000E0400000E0600000E0800000E0A00000E0C00000E0E00040000000400020004000400040006000400080004000A0004000C0004000E00040200000402020004020400040206000402080004020A0004020C0004020E000404000004040200040404000404060004040800040
310
40A0004040C0004040E00040600000406020004060400040606000406080004060A0004060C0004060E00040800000408020004080400040806000408080004080A0004080C0004080E00040A0000040A0200040A0400040A0600040A0800040A0A00040A0C00040A0E00040C0000040C0200040C0400040C0600040C08000
310
40C0A00040C0C00040C0E00040E0000040E0200040E0400040E0600040E0800040E0A00040E0C00040E0E00080000000800020008000400080006000800080008000A0008000C0008000E00080200000802020008020400080206000802080008020A0008020C0008020E00080400000804020008040400080406000804080
310
008040A0008040C0008040E00080600000806020008060400080606000806080008060A0008060C0008060E00080800000808020008080400080806000808080008080A0008080C0008080E00080A0000080A0200080A0400080A0600080A0800080A0A00080A0C00080A0E00080C0000080C0200080C0400080C0600080C0
310
800080C0A00080C0C00080C0E00080E0000080E0200080E0400080E0600080E0800080E0A00080E0C00080E0E000C0000000C0002000C0004000C0006000C0008000C000A000C000C000C000E000C0200000C0202000C0204000C0206000C0208000C020A000C020C000C020E000C0400000C0402000C0404000C0406000C0
310
408000C040A000C040C000C040E000C0600000C0602000C0604000C0606000C0608000C060A000C060C000C060E000C0800000C0802000C0804000C0806000C0808000C080A000C080C000C080E000C0A00000C0A02000C0A04000C0A06000C0A08000C0A0A000C0A0C000C0A0E000C0C00000C0C02000C0C04000C0C06000
310
C0C08000C0C0A000F0FBFF00A4A0A000808080000000FF0000FF000000FFFF00FF000000FF00FF00FFFF0000FFFFFF00FF00FFFFFFFF00FFFFFFFFFFFFFFFFFFFFFFFFFFFFFFFFFFFFFFFFFFFFFFFFFFFF00FFFFFFFF00FFFFFFFFFFFFFFFFFFFFFFFFFFFFFFFFFFFFFFFFFFFFFFFFFFFF00FFFFFFFF00FFFFFFFFFFFFFFFF
310
FFFFFFFFFFFFFFFFFFFFFFFFFFFFFFFFFFFF00FFFFFFFF00FFFFFFFFFFFFFFFFFFFFFFFFFFFFFFFFFFFFFFFFFFFFFFFFFFFF00FFFFFFFF00FFFFFFFFFFFFFFFFFFFFFFFFFFFFFFFFFFFFFFFFFFFFFFFFFFFF00FFFFFFFF00FFFFFFFFFFFFFFFFFFFFFFFFFFFFFFFFFFFFFFFFFFFFFFFFFFFF00FFFFFFFF00FFFFFFFFFFFFFF
310
FFFFFFFFFFFFFFFFFFFFFFFFFFFFFFFFFFFFFF00FFFFFFFF00FFFFFFFFFFFFFFFFFFFFFFFFFFFFFFFFFFFFFFFFFFFFFFFFFFFF00FFFFFFFF00FFFFFFFFFFFFFFFFFFFFFFFFFFFFFFFFFFFFFFFFFFFFFFFFFFFF00FFFFFFFF00FFFFFFFFFFFFFFFFFFFFFFFFFFFFFFFFFFFFFFFFFFFFFFFFFFFF00FFFFFFFF00FFFFFFFFFFFF
310
FFFFFFFFFFFFFFFFFFFFFFFFFFFFFFFFFFFFFFFF00FFFFFFFF00FFFFFFFFFFFFFFFFFFFFFFFFFFFFFFFFFFFFFFFFFFFFFFFFFFFF00FFFFFFFF00FFFFFFFFFFFFFFFFFFFFFFFFFFFFFFFFFFFFFFFFFFFFFFFFFFFF00FFFFFFFF0000000000000000000000000000000000000000000000000000FF00FFFFFFFFFFFFFFFFFFFF
310
FFFFFFFFFFFFFFFFFFFFFFFFFFFFFFFFFFFFFFFFFF00FFFFFFFFFFFFFFFFFFFFFFFFFFFFFFFFFFFFFFFFFFFFFFFFFFFFFFFFFFFFFF00FFFFFFFFFFFFFFFFFFFFFFFFFFFFFFFFFFFFFFFFFFFFFFFFFFFFFFFFFFFFFF00FFFFFFFFFFFFFFFFFFFFFFFFFFFFFFFFFFFFFFFFFFFFFFFFFFFFFFFFFF00FF00000000000000000000
310
0000000000000000000000000000000000000000FFFFFFFFFFFFFFFFFFFFFFFFFFFFFFFFFFFFFFFFFFFFFFFFFFFFFFFFFFFFFFFFFFFFFFFFFFFFFFFFFFFFFFFFFFFFFFFFFFFFFFFFFFFFFFFFFFFFFFFFFFFFFFFFFFFFFFFFFFFFFFFFFFFFFFFFFFFFFFFFFFFFFFFFFFFFFFFFFFFFFFFFFFFFFFFFFFFFFFFFFFFFFFFFFFFFFF
310
FFFFFFFFFFFFFFFFFFFFFFFFFFFFFFFFFFFFFFFFFFFFFFFFFFFFFFFFFFFFFFFFFFFFFFFFFFFFFFFFFFFFFFFFFFFFFFFFFFFFFFFFFFFFFFFFFFFFFFFFFFFFFFFFFFFFFFFFFFFFFFFFFFFFFFFFFFFFFFFFFFFFFFFFFFFFFFFFFFFFFFFFFFFFFFFFFFFFFFFFFFFFFFFFFFFFFFFFFFFFFFFFFFFFFFFFFFFFFFFFFFFFFFFFFFFFFF
310
FFFFFFFFFFFFFFFFFFFFFFFFFFFFFFFFFFFFFFFFFFFFFFFFFFFFFFFFFFFFFFFFFFFFFFFFFFFFFFFFFFFFFFFFFFFFFFFFFFFFFFFFFFFFFFFFFFFFFFFFFFFFFFFFFFFFFFFFFFFFFFFFFFFFFFFFFFFFFFFFFFFFFFFFFFFFFFFFFFFFFFFFFFFFFFFFFFFFFFFFFFFFFFFFFFFFFFFFFFFFFFFFFFFFFFFFFFFFFFFFFFFFFFFFFFFFFF
310
FFFFFFFFFFFFFFFFFFFFFFFFFFFFFFFFFFFFFFFFFFFFFFFFFFFFFFFFFFFFFFFFFFFFFFFFFFFFFFFFFFFFFFFFFFFFFFFFFFFFFFFFFFFFFFFF
102
{BLKREFS
331
2754
102
}
  0
BLOCK_RECORD
  5
2718
330
24AE
100
AcDbSymbolTableRecord
100
AcDbBlockTableRecord
  2
AI9-BLK13
340
0
310
2800000020000000200000000100080000000000000400000000000000000000000000000000000000000000000080000080000000808000800000008000800080800000C0C0C000C0DCC000F0CAA6000020400000206000002080000020A0000020C0000020E00000400000004020000040400000406000004080000040A0
310
000040C0000040E00000600000006020000060400000606000006080000060A0000060C0000060E00000800000008020000080400000806000008080000080A0000080C0000080E00000A0000000A0200000A0400000A0600000A0800000A0A00000A0C00000A0E00000C0000000C0200000C0400000C0600000C0800000C0
310
A00000C0C00000C0E00000E0000000E0200000E0400000E0600000E0800000E0A00000E0C00000E0E00040000000400020004000400040006000400080004000A0004000C0004000E00040200000402020004020400040206000402080004020A0004020C0004020E000404000004040200040404000404060004040800040
310
40A0004040C0004040E00040600000406020004060400040606000406080004060A0004060C0004060E00040800000408020004080400040806000408080004080A0004080C0004080E00040A0000040A0200040A0400040A0600040A0800040A0A00040A0C00040A0E00040C0000040C0200040C0400040C0600040C08000
310
40C0A00040C0C00040C0E00040E0000040E0200040E0400040E0600040E0800040E0A00040E0C00040E0E00080000000800020008000400080006000800080008000A0008000C0008000E00080200000802020008020400080206000802080008020A0008020C0008020E00080400000804020008040400080406000804080
310
008040A0008040C0008040E00080600000806020008060400080606000806080008060A0008060C0008060E00080800000808020008080400080806000808080008080A0008080C0008080E00080A0000080A0200080A0400080A0600080A0800080A0A00080A0C00080A0E00080C0000080C0200080C0400080C0600080C0
310
800080C0A00080C0C00080C0E00080E0000080E0200080E0400080E0600080E0800080E0A00080E0C00080E0E000C0000000C0002000C0004000C0006000C0008000C000A000C000C000C000E000C0200000C0202000C0204000C0206000C0208000C020A000C020C000C020E000C0400000C0402000C0404000C0406000C0
310
408000C040A000C040C000C040E000C0600000C0602000C0604000C0606000C0608000C060A000C060C000C060E000C0800000C0802000C0804000C0806000C0808000C080A000C080C000C080E000C0A00000C0A02000C0A04000C0A06000C0A08000C0A0A000C0A0C000C0A0E000C0C00000C0C02000C0C04000C0C06000
310
C0C08000C0C0A000F0FBFF00A4A0A000808080000000FF0000FF000000FFFF00FF000000FF00FF00FFFF0000FFFFFF00FFFFFFFFFFFFFFFFFFFFFFFFFFFFFFFFFFFFFFFFFFFFFFFFFFFFFFFFFFFFFFFFFFFFFFFFFFFFFFFFFFFFFF0000FFFFFFFFFFFF0000FFFFFFFFFFFFFFFFFFFFFFFFFFFFFFFFFFFFFFFFFFFF0000FFFF
310
FFFFFFFF0000FFFFFFFFFFFFFFFFFFFFFFFFFFFFFFFFFFFFFFFFFFFF0000FFFFFFFFFFFF0000FFFFFFFFFFFFFFFFFFFFFFFFFFFFFFFFFFFFFFFFFFFF0000FFFFFFFFFFFF0000FFFFFFFFFFFFFFFFFFFFFFFFFFFFFFFFFFFFFFFFFFFF0000FFFFFFFFFFFF0000FFFFFFFFFFFFFFFFFFFFFFFFFFFFFFFFFFFFFFFFFFFF0000FF
310
FFFFFFFFFF0000FFFFFFFFFFFFFFFFFFFFFFFFFFFFFFFFFFFFFFFFFFFF0000FFFFFFFFFFFF0000FFFFFFFFFFFFFFFFFFFFFFFFFFFFFFFFFFFFFFFFFFFF0000FFFFFFFFFFFF0000FFFFFFFFFFFFFFFFFFFFFFFFFFFFFFFFFFFFFFFFFFFF0000FFFFFFFFFFFF0000FFFFFFFFFFFFFFFFFFFFFFFFFFFFFFFFFFFFFFFFFFFF0000
310
FFFFFFFFFFFF0000FFFFFFFFFFFFFFFFFFFFFFFFFFFFFFFFFFFFFFFFFFFF0000FFFFFFFFFFFF0000FFFFFFFFFFFFFFFFFFFFFFFFFFFFFFFFFFFFFFFFFFFF0000FFFFFFFFFFFF0000FFFFFFFFFFFFFFFFFFFFFFFFFFFFFFFFFFFFFFFFFFFF0000FFFFFFFFFFFF0000FFFFFFFFFFFFFFFFFFFFFFFFFFFFFFFFFFFFFFFFFFFF00
310
00FFFFFFFFFFFF0000FFFFFFFFFFFFFFFFFFFFFFFFFFFFFFFFFFFFFFFFFFFF00000000000000000000FFFFFFFFFFFFFFFFFFFFFFFFFFFFFFFFFFFFFFFFFFFF00FFFFFFFFFFFFFFFF00FFFFFFFFFFFFFFFFFFFFFFFFFFFFFFFFFFFFFFFFFFFF00FFFFFFFFFFFFFFFF00FFFFFFFFFFFFFFFFFFFFFFFFFFFFFFFFFFFFFFFFFFFF
310
00000000000000000000FFFFFFFFFFFFFFFFFFFFFFFFFFFFFFFFFFFFFFFFFFFF0000FFFFFFFFFFFF0000FFFFFFFFFFFFFFFFFFFFFFFFFFFFFFFFFFFFFFFFFFFF0000FFFFFFFFFFFF0000FFFFFFFFFFFFFFFFFFFFFFFFFFFFFFFFFFFFFFFFFFFF0000FFFFFFFFFFFF0000FFFFFFFFFFFFFFFFFFFFFFFFFFFFFFFFFFFFFFFFFF
310
FF0000FFFFFFFFFFFF0000FFFFFFFFFFFFFFFFFFFFFFFFFFFFFFFFFFFFFFFFFFFF0000FFFFFFFFFFFF0000FFFFFFFFFFFFFFFFFFFFFFFFFFFFFFFFFFFFFFFFFFFF0000FFFFFFFFFFFF0000FFFFFFFFFFFFFFFFFFFFFFFFFFFFFFFFFFFFFFFFFFFF0000FFFFFFFFFFFF0000FFFFFFFFFFFFFFFFFFFFFFFFFFFFFFFFFFFFFFFF
310
FFFF0000FFFFFFFFFFFF0000FFFFFFFFFFFFFFFFFFFFFFFFFFFFFFFFFFFFFFFFFFFF0000FFFFFFFFFFFF0000FFFFFFFFFFFFFFFFFFFFFFFFFFFFFFFFFFFFFFFFFFFF0000FFFFFFFFFFFF0000FFFFFFFFFFFFFFFFFFFFFFFFFFFFFFFFFFFFFFFFFFFF0000FFFFFFFFFFFF0000FFFFFFFFFFFFFFFFFFFFFFFFFFFFFFFFFFFFFF
310
FFFFFF0000FFFFFFFFFFFF0000FFFFFFFFFFFFFFFFFFFFFFFFFFFFFFFFFFFFFFFFFFFFFFFFFFFFFFFFFFFFFFFFFFFFFFFFFFFFFFFFFFFFFF
102
{BLKREFS
331
2755
102
}
  0
BLOCK_RECORD
  5
271D
330
24AE
100
AcDbSymbolTableRecord
100
AcDbBlockTableRecord
  2
AI9-BLK11
340
0
310
2800000020000000200000000100080000000000000400000000000000000000000000000000000000000000000080000080000000808000800000008000800080800000C0C0C000C0DCC000F0CAA6000020400000206000002080000020A0000020C0000020E00000400000004020000040400000406000004080000040A0
310
000040C0000040E00000600000006020000060400000606000006080000060A0000060C0000060E00000800000008020000080400000806000008080000080A0000080C0000080E00000A0000000A0200000A0400000A0600000A0800000A0A00000A0C00000A0E00000C0000000C0200000C0400000C0600000C0800000C0
310
A00000C0C00000C0E00000E0000000E0200000E0400000E0600000E0800000E0A00000E0C00000E0E00040000000400020004000400040006000400080004000A0004000C0004000E00040200000402020004020400040206000402080004020A0004020C0004020E000404000004040200040404000404060004040800040
310
40A0004040C0004040E00040600000406020004060400040606000406080004060A0004060C0004060E00040800000408020004080400040806000408080004080A0004080C0004080E00040A0000040A0200040A0400040A0600040A0800040A0A00040A0C00040A0E00040C0000040C0200040C0400040C0600040C08000
310
40C0A00040C0C00040C0E00040E0000040E0200040E0400040E0600040E0800040E0A00040E0C00040E0E00080000000800020008000400080006000800080008000A0008000C0008000E00080200000802020008020400080206000802080008020A0008020C0008020E00080400000804020008040400080406000804080
310
008040A0008040C0008040E00080600000806020008060400080606000806080008060A0008060C0008060E00080800000808020008080400080806000808080008080A0008080C0008080E00080A0000080A0200080A0400080A0600080A0800080A0A00080A0C00080A0E00080C0000080C0200080C0400080C0600080C0
310
800080C0A00080C0C00080C0E00080E0000080E0200080E0400080E0600080E0800080E0A00080E0C00080E0E000C0000000C0002000C0004000C0006000C0008000C000A000C000C000C000E000C0200000C0202000C0204000C0206000C0208000C020A000C020C000C020E000C0400000C0402000C0404000C0406000C0
310
408000C040A000C040C000C040E000C0600000C0602000C0604000C0606000C0608000C060A000C060C000C060E000C0800000C0802000C0804000C0806000C0808000C080A000C080C000C080E000C0A00000C0A02000C0A04000C0A06000C0A08000C0A0A000C0A0C000C0A0E000C0C00000C0C02000C0C04000C0C06000
310
C0C08000C0C0A000F0FBFF00A4A0A000808080000000FF0000FF000000FFFF00FF000000FF00FF00FFFF0000FFFFFF00FFFFFFFFFFFFFFFFFFFFFFFFFFFFFFFFFFFFFFFFFFFFFFFFFFFFFFFFFFFFFFFFFFFFFFFFFFFFFFFFFFFFFFFFFFFF00000000FFFFFFFFFFFFFFFFFFFFFF000000FFFFFFFFFFFFFFFFFFFFFFFFFFFF00
310
FFFF00FFFFFFFFFFFFFFFFFFFFFF00FFFFFFFFFFFFFFFFFFFFFFFFFFFFFFFF00FFFF00FFFFFFFFFFFFFFFFFFFFFF00FFFFFFFFFFFFFFFFFFFFFFFFFFFFFFFF00FFFF00FFFFFFFFFFFFFFFFFFFFFF00FFFFFFFFFFFFFFFFFFFFFFFFFFFFFFFF00FFFF00FFFFFFFFFFFFFFFFFFFFFF00FFFFFFFFFFFFFFFFFFFFFFFFFFFFFFFF
310
00FFFF00FFFFFFFFFFFFFFFFFFFFFF00FFFFFFFFFFFFFFFFFFFFFFFFFFFFFFFF00FFFF00FFFFFFFFFFFFFFFFFFFFFF00FFFFFFFFFFFFFFFFFFFFFFFFFFFFFFFF00FFFF00FFFFFFFFFFFFFFFFFFFFFF00FFFFFFFFFFFFFFFFFFFFFFFFFFFFFFFF00FFFF00FFFFFFFFFFFFFFFFFFFFFF00FFFFFFFFFFFFFFFFFFFFFFFFFFFFFF
310
FF00FFFF00FFFFFFFFFFFFFFFFFFFFFF00FFFFFFFFFFFFFFFFFFFFFFFFFFFFFFFF00FFFF00FFFFFFFFFFFFFFFFFFFFFF00FFFFFFFFFFFFFFFFFFFFFFFFFFFFFFFF00FFFF00FFFFFFFFFFFFFFFFFFFFFF00FFFFFFFFFFFFFFFFFFFFFFFFFFFFFFFF00FFFF00FFFFFFFFFFFFFFFFFFFFFF00FFFFFFFFFFFFFFFFFFFFFFFFFFFF
310
FFFF00FFFF00FFFFFFFFFFFFFFFFFFFFFF00FFFFFFFFFFFFFFFFFFFFFFFFFFFFFFFF00FFFF00FFFFFFFFFFFFFFFFFFFFFF00FFFFFFFFFFFFFFFFFFFFFFFFFFFFFFFF00FFFF00FFFFFFFFFFFFFFFFFFFFFF00FFFFFFFFFFFFFFFFFFFFFFFFFFFFFFFF00FFFF00FFFFFFFFFFFFFFFFFFFF00FFFFFFFFFFFFFFFFFFFFFFFFFFFF
310
FFFFFF00FFFF00FFFFFFFFFFFFFFFFFFFF00FFFFFFFFFFFFFFFFFFFFFFFFFFFFFFFFFF00FFFF00FFFFFFFFFFFFFFFFFFFF00FFFFFFFFFFFFFFFFFFFFFFFFFFFFFFFFFF00FFFF00FFFFFFFFFFFFFFFFFFFF00FFFFFFFFFFFFFFFFFFFFFFFFFFFFFFFFFF00FFFF00FFFFFFFFFFFFFFFFFFFF00FFFFFFFFFFFFFFFFFFFFFFFFFF
310
FFFFFFFF00FFFF00FFFFFFFFFFFFFFFFFF0000FFFF00FFFFFFFFFFFFFFFFFFFFFFFFFFFF00FFFF00FFFFFFFFFFFFFFFF0000FFFFFF00FFFFFFFFFFFFFFFFFFFFFFFFFFFF00FFFF00000000000000000000FFFFFFFF00FFFFFFFFFFFFFFFFFFFFFFFFFFFF00FFFFFFFFFFFFFFFFFFFFFFFFFFFFFF00FFFFFFFFFFFFFFFFFFFF
310
FFFFFFFFFF00FFFFFFFFFFFFFFFFFFFFFFFFFFFF00FFFFFFFFFFFFFFFFFFFFFFFFFFFFFFFF00FFFFFFFFFFFFFFFFFFFFFFFFFFFF00FFFFFFFFFFFFFFFFFFFFFFFFFFFFFFFF00FFFFFFFFFFFFFFFFFFFFFFFFFFFFFF00FFFFFFFFFFFFFFFFFFFFFFFFFFFFFF00FFFFFFFFFFFFFFFFFFFFFFFFFFFFFF00FFFFFFFFFFFFFFFFFF
310
FFFFFFFFFFFF00FFFF00000000000000000000FFFFFFFF00FFFFFFFFFFFFFFFFFFFFFFFFFFFF00FFFF00FFFFFFFFFFFFFFFFFF0000FFFF00
102
{BLKREFS
331
2756
102
}
  0
BLOCK_RECORD
  5
2722
330
24AE
100
AcDbSymbolTableRecord
100
AcDbBlockTableRecord
  2
AI9-BLK10
340
0
310
2800000020000000200000000100080000000000000400000000000000000000000000000000000000000000000080000080000000808000800000008000800080800000C0C0C000C0DCC000F0CAA6000020400000206000002080000020A0000020C0000020E00000400000004020000040400000406000004080000040A0
310
000040C0000040E00000600000006020000060400000606000006080000060A0000060C0000060E00000800000008020000080400000806000008080000080A0000080C0000080E00000A0000000A0200000A0400000A0600000A0800000A0A00000A0C00000A0E00000C0000000C0200000C0400000C0600000C0800000C0
310
A00000C0C00000C0E00000E0000000E0200000E0400000E0600000E0800000E0A00000E0C00000E0E00040000000400020004000400040006000400080004000A0004000C0004000E00040200000402020004020400040206000402080004020A0004020C0004020E000404000004040200040404000404060004040800040
310
40A0004040C0004040E00040600000406020004060400040606000406080004060A0004060C0004060E00040800000408020004080400040806000408080004080A0004080C0004080E00040A0000040A0200040A0400040A0600040A0800040A0A00040A0C00040A0E00040C0000040C0200040C0400040C0600040C08000
310
40C0A00040C0C00040C0E00040E0000040E0200040E0400040E0600040E0800040E0A00040E0C00040E0E00080000000800020008000400080006000800080008000A0008000C0008000E00080200000802020008020400080206000802080008020A0008020C0008020E00080400000804020008040400080406000804080
310
008040A0008040C0008040E00080600000806020008060400080606000806080008060A0008060C0008060E00080800000808020008080400080806000808080008080A0008080C0008080E00080A0000080A0200080A0400080A0600080A0800080A0A00080A0C00080A0E00080C0000080C0200080C0400080C0600080C0
310
800080C0A00080C0C00080C0E00080E0000080E0200080E0400080E0600080E0800080E0A00080E0C00080E0E000C0000000C0002000C0004000C0006000C0008000C000A000C000C000C000E000C0200000C0202000C0204000C0206000C0208000C020A000C020C000C020E000C0400000C0402000C0404000C0406000C0
310
408000C040A000C040C000C040E000C0600000C0602000C0604000C0606000C0608000C060A000C060C000C060E000C0800000C0802000C0804000C0806000C0808000C080A000C080C000C080E000C0A00000C0A02000C0A04000C0A06000C0A08000C0A0A000C0A0C000C0A0E000C0C00000C0C02000C0C04000C0C06000
310
C0C08000C0C0A000F0FBFF00A4A0A000808080000000FF0000FF000000FFFF00FF000000FF00FF00FFFF0000FFFFFF00FFFFFFFFFFFFFFFFFFFFFFFFFFFFFFFF00FFFFFFFFFFFFFFFFFFFFFFFF00FFFFFFFFFFFFFFFFFFFFFFFFFFFFFFFFFFFF00FFFFFFFFFFFFFFFFFFFFFF00FFFFFFFFFFFFFFFFFFFFFFFFFFFFFFFFFFFF
310
FF00FFFFFFFFFFFFFFFFFFFFFF00FFFFFFFFFFFFFFFFFFFFFFFFFFFFFFFFFFFFFF00FFFFFFFFFFFFFFFFFFFFFF00FFFFFFFFFFFFFFFFFFFFFFFFFFFFFFFFFFFFFF00FFFFFFFFFFFFFFFFFFFFFF00FFFFFFFFFFFFFFFFFFFFFFFFFFFFFFFFFFFFFF00FFFFFFFFFFFFFFFFFFFFFF00FFFFFFFFFFFFFFFFFFFFFFFFFFFFFFFFFF
310
FFFF00FFFFFFFFFFFFFFFFFFFFFF00FFFFFFFFFFFFFFFFFFFFFFFFFFFFFFFFFFFFFF00FFFFFFFFFFFFFFFFFFFF00FFFFFFFFFFFFFFFFFFFFFFFFFFFFFFFFFFFFFFFF00FFFFFFFFFFFFFFFFFFFF00FFFFFFFFFFFFFFFFFFFFFFFFFFFFFFFFFFFFFFFF00FFFFFFFFFFFFFFFFFFFF00FFFFFFFFFFFFFFFFFFFFFFFFFFFFFFFFFF
310
FFFFFF00FFFFFFFFFFFFFFFFFFFF00FFFFFFFFFFFFFFFFFFFFFFFFFFFFFFFFFFFFFFFF00FFFFFFFFFFFFFFFFFFFF00FFFFFFFFFFFFFFFFFFFFFFFFFFFFFFFFFFFFFFFF00FFFFFFFFFFFFFFFFFFFF00FFFFFFFFFFFFFFFFFFFFFFFFFFFFFFFFFFFFFFFF00FFFFFFFFFFFFFFFFFF00FFFFFFFFFFFFFFFFFFFFFFFFFFFFFFFFFF
310
FFFFFFFF00FFFFFFFFFFFFFFFFFF00FFFFFFFFFFFFFFFFFFFFFFFFFFFFFFFFFFFFFFFFFF00FFFFFFFFFFFFFFFFFF00FFFFFFFFFFFFFFFFFFFFFFFFFFFFFFFFFFFFFFFFFF0000000000000000000000FFFFFFFFFFFFFFFFFFFFFFFFFFFFFFFFFFFFFFFFFFFFFFFFFFFFFFFFFFFFFFFFFFFFFFFFFFFFFFFFFFFFFFFFFFFFFFFF
310
FFFFFFFFFFFFFFFFFFFFFFFFFFFFFFFFFFFFFFFFFFFFFFFFFFFFFFFFFFFFFFFFFFFFFFFFFFFFFFFFFFFFFFFFFFFFFFFFFFFFFFFFFFFFFFFFFFFFFFFFFFFFFFFFFFFFFFFFFFFFFFFFFFFFFFFFFFFFFFFFFFFFFFFFFFFFFFFFFFFFFFFFFFFFFFFFFFFFFFFFFFFFFFFFFFFFFFFFFFFFFFFFFFFFFFFFFFFFFFFFFFFFFFFFFFFFFF
310
FFFFFFFFFFFFFFFFFFFFFFFFFFFFFFFFFFFFFFFFFFFFFFFFFFFFFFFFFFFFFFFFFFFFFFFFFFFFFFFFFFFFFFFFFFFFFFFFFFFFFFFFFFFFFFFFFFFFFFFFFFFFFFFFFFFFFFFFFFFFFFFFFFFFFFFFFFFFFFFFFFFFFFFFFFFFFFFFFFFFFFFFFFFFFFFFFFFFFFFFFFFFFFFFFFFFFFFFFFFFFFFFFFFFFFFFFFFFFFFFFFFFFFFFFFFFFF
310
FFFFFFFFFFFFFFFFFFFFFFFFFFFFFFFFFFFFFFFFFFFFFFFFFFFFFFFFFFFFFFFFFFFFFFFFFFFFFFFFFFFFFFFFFFFFFFFFFFFFFFFFFFFFFFFFFFFFFFFFFFFFFFFFFFFFFFFFFFFFFFFFFFFFFFFFFFFFFFFFFFFFFFFFFFFFFFFFFFFFFFFFFFFFFFFFFFFFFFFFFFFFFFFFFFFFFFFFFFFFFFFFFFFFFFFFFFFFFFFFFFFFFFFFFFFFFF
310
FFFFFFFFFFFFFFFFFFFFFFFFFFFFFFFFFFFFFFFFFFFFFFFFFFFFFFFFFFFFFFFFFFFFFFFFFFFFFFFFFFFFFFFFFFFFFFFFFFFFFFFFFFFFFFFF
102
{BLKREFS
331
2757
102
}
  0
BLOCK_RECORD
  5
2726
330
24AE
100
AcDbSymbolTableRecord
100
AcDbBlockTableRecord
  2
AI9-BLK9
340
0
310
2800000020000000200000000100080000000000000400000000000000000000000000000000000000000000000080000080000000808000800000008000800080800000C0C0C000C0DCC000F0CAA6000020400000206000002080000020A0000020C0000020E00000400000004020000040400000406000004080000040A0
310
000040C0000040E00000600000006020000060400000606000006080000060A0000060C0000060E00000800000008020000080400000806000008080000080A0000080C0000080E00000A0000000A0200000A0400000A0600000A0800000A0A00000A0C00000A0E00000C0000000C0200000C0400000C0600000C0800000C0
310
A00000C0C00000C0E00000E0000000E0200000E0400000E0600000E0800000E0A00000E0C00000E0E00040000000400020004000400040006000400080004000A0004000C0004000E00040200000402020004020400040206000402080004020A0004020C0004020E000404000004040200040404000404060004040800040
310
40A0004040C0004040E00040600000406020004060400040606000406080004060A0004060C0004060E00040800000408020004080400040806000408080004080A0004080C0004080E00040A0000040A0200040A0400040A0600040A0800040A0A00040A0C00040A0E00040C0000040C0200040C0400040C0600040C08000
310
40C0A00040C0C00040C0E00040E0000040E0200040E0400040E0600040E0800040E0A00040E0C00040E0E00080000000800020008000400080006000800080008000A0008000C0008000E00080200000802020008020400080206000802080008020A0008020C0008020E00080400000804020008040400080406000804080
310
008040A0008040C0008040E00080600000806020008060400080606000806080008060A0008060C0008060E00080800000808020008080400080806000808080008080A0008080C0008080E00080A0000080A0200080A0400080A0600080A0800080A0A00080A0C00080A0E00080C0000080C0200080C0400080C0600080C0
310
800080C0A00080C0C00080C0E00080E0000080E0200080E0400080E0600080E0800080E0A00080E0C00080E0E000C0000000C0002000C0004000C0006000C0008000C000A000C000C000C000E000C0200000C0202000C0204000C0206000C0208000C020A000C020C000C020E000C0400000C0402000C0404000C0406000C0
310
408000C040A000C040C000C040E000C0600000C0602000C0604000C0606000C0608000C060A000C060C000C060E000C0800000C0802000C0804000C0806000C0808000C080A000C080C000C080E000C0A00000C0A02000C0A04000C0A06000C0A08000C0A0A000C0A0C000C0A0E000C0C00000C0C02000C0C04000C0C06000
310
C0C08000C0C0A000F0FBFF00A4A0A000808080000000FF0000FF000000FFFF00FF000000FF00FF00FFFF0000FFFFFF00FFFFFFFFFFFFFFFFFFFFFFFFFFFFFFFFFFFFFFFFFFFFFFFFFFFFFFFFFFFFFFFFFFFFFFFFFFFFFFFFFFFFFFFFFFFFFF0000FFFFFFFFFFFFFFFFFFFFFFFFFFFFFFFFFFFFFFFFFFFFFFFFFFFFFFFF0000
310
FF0000FFFFFFFFFFFFFFFFFFFFFFFFFFFFFFFFFFFFFFFFFFFFFFFFFFFFFF00FFFFFF0000FFFFFFFFFFFFFFFFFFFFFFFFFFFFFFFFFFFFFFFFFFFFFFFFFFFF00FFFFFFFF0000FFFFFFFFFFFFFFFFFFFFFFFFFFFFFFFFFFFFFFFFFFFFFFFF00FF00000000FF00FFFFFFFFFFFFFFFFFFFFFFFFFFFFFFFFFFFFFFFFFFFFFFFF0000
310
00FFFF00FF00FFFFFFFFFFFFFFFFFFFFFFFFFFFFFFFFFFFFFFFFFFFFFFFF0000FFFFFFFF0000FFFFFFFFFFFFFFFFFFFFFFFFFFFFFFFFFFFFFFFFFFFFFFFF0000FFFFFFFF0000FFFFFFFFFFFFFFFFFFFFFFFFFFFFFFFFFFFFFFFFFFFFFF00FF00FFFFFFFF00FF00FFFFFFFFFFFFFFFFFFFFFFFFFFFFFFFFFFFFFFFFFFFF0000
310
FFFFFFFFFF00FF00FFFFFFFFFFFFFFFFFFFFFFFFFFFFFFFFFFFFFFFFFFFF0000FFFFFFFFFFFF0000FFFFFFFFFFFFFFFFFFFFFFFFFFFFFFFFFFFFFFFFFFFF0000FFFFFFFFFFFF0000FFFFFFFFFFFFFFFFFFFFFFFFFFFFFFFFFFFFFFFFFFFF0000FFFFFFFFFFFF0000FFFFFFFFFFFFFFFFFFFFFFFFFFFFFFFFFFFFFFFFFFFF00
310
00FFFFFFFFFFFF0000FFFFFFFFFFFFFFFFFFFFFFFFFFFFFFFFFFFFFFFFFFFF0000FFFFFFFFFFFF0000FFFFFFFFFFFFFFFFFFFFFFFFFFFFFFFFFFFFFFFFFFFF0000FFFFFFFFFFFF0000FFFFFFFFFFFFFFFFFFFFFFFFFFFFFFFFFFFFFFFFFFFF0000FFFFFFFFFFFF0000FFFFFFFFFFFFFFFFFFFFFFFFFFFFFFFFFFFFFFFFFFFF
310
0000FFFFFFFFFFFF0000FFFFFFFFFFFFFFFFFFFFFFFFFFFFFFFFFFFFFFFFFFFF0000FFFFFFFFFFFF0000FFFFFFFFFFFFFFFFFFFFFFFFFFFFFFFFFFFFFFFFFFFF0000FFFFFFFFFFFF0000FFFFFFFFFFFFFFFFFFFFFFFFFFFFFFFFFFFFFFFFFFFF00FF00FFFFFFFF00FF00FFFFFFFFFFFFFFFFFFFFFFFFFFFFFFFFFFFFFFFFFF
310
FF00FF00FFFFFFFF00FF00FFFFFFFFFFFFFFFFFFFFFFFFFFFFFFFFFFFFFFFFFFFF00FF00FFFFFFFF00FF00FFFFFFFFFFFFFFFFFFFFFFFFFFFFFFFFFFFFFFFFFFFFFF0000FFFFFFFF0000FFFFFFFFFFFFFFFFFFFFFFFFFFFFFFFFFFFFFFFFFFFFFFFF00FF00FFFF00FF00FFFFFFFFFFFFFFFFFFFFFFFFFFFFFFFFFFFFFFFFFF
310
FFFFFF00FF00000000FF00FFFFFFFFFFFFFFFFFFFFFFFFFFFFFFFFFFFFFFFFFFFFFFFFFF00FFFFFFFF0000FFFFFFFFFFFFFFFFFFFFFFFFFFFFFFFFFFFFFFFFFFFFFFFFFF00FFFFFFFF00FFFFFFFFFFFFFFFFFFFFFFFFFFFFFFFFFFFFFFFFFFFFFFFFFFFFFF00000000FFFFFFFFFFFFFFFFFFFFFFFFFFFFFFFFFFFFFFFFFFFF
310
FFFFFFFFFFFFFF0000FFFFFFFFFFFFFFFFFFFFFFFFFFFFFFFFFFFFFFFFFFFFFFFFFFFFFFFFFFFFFFFFFFFFFFFFFFFFFFFFFFFFFFFFFFFFFF
102
{BLKREFS
331
2758
102
}
  0
BLOCK_RECORD
  5
272B
330
24AE
100
AcDbSymbolTableRecord
100
AcDbBlockTableRecord
  2
AI9-BLK8
340
0
310
2800000020000000200000000100080000000000000400000000000000000000000000000000000000000000000080000080000000808000800000008000800080800000C0C0C000C0DCC000F0CAA6000020400000206000002080000020A0000020C0000020E00000400000004020000040400000406000004080000040A0
310
000040C0000040E00000600000006020000060400000606000006080000060A0000060C0000060E00000800000008020000080400000806000008080000080A0000080C0000080E00000A0000000A0200000A0400000A0600000A0800000A0A00000A0C00000A0E00000C0000000C0200000C0400000C0600000C0800000C0
310
A00000C0C00000C0E00000E0000000E0200000E0400000E0600000E0800000E0A00000E0C00000E0E00040000000400020004000400040006000400080004000A0004000C0004000E00040200000402020004020400040206000402080004020A0004020C0004020E000404000004040200040404000404060004040800040
310
40A0004040C0004040E00040600000406020004060400040606000406080004060A0004060C0004060E00040800000408020004080400040806000408080004080A0004080C0004080E00040A0000040A0200040A0400040A0600040A0800040A0A00040A0C00040A0E00040C0000040C0200040C0400040C0600040C08000
310
40C0A00040C0C00040C0E00040E0000040E0200040E0400040E0600040E0800040E0A00040E0C00040E0E00080000000800020008000400080006000800080008000A0008000C0008000E00080200000802020008020400080206000802080008020A0008020C0008020E00080400000804020008040400080406000804080
310
008040A0008040C0008040E00080600000806020008060400080606000806080008060A0008060C0008060E00080800000808020008080400080806000808080008080A0008080C0008080E00080A0000080A0200080A0400080A0600080A0800080A0A00080A0C00080A0E00080C0000080C0200080C0400080C0600080C0
310
800080C0A00080C0C00080C0E00080E0000080E0200080E0400080E0600080E0800080E0A00080E0C00080E0E000C0000000C0002000C0004000C0006000C0008000C000A000C000C000C000E000C0200000C0202000C0204000C0206000C0208000C020A000C020C000C020E000C0400000C0402000C0404000C0406000C0
310
408000C040A000C040C000C040E000C0600000C0602000C0604000C0606000C0608000C060A000C060C000C060E000C0800000C0802000C0804000C0806000C0808000C080A000C080C000C080E000C0A00000C0A02000C0A04000C0A06000C0A08000C0A0A000C0A0C000C0A0E000C0C00000C0C02000C0C04000C0C06000
310
C0C08000C0C0A000F0FBFF00A4A0A000808080000000FF0000FF000000FFFF00FF000000FF00FF00FFFF0000FFFFFF00FFFFFFFFFFFFFFFFFFFFFFFFFFFFFFFFFFFFFFFFFFFFFFFFFFFFFFFFFFFFFFFFFFFFFFFFFFFFFFFFFFFFFF0000FFFFFFFFFFFF0000FFFFFFFFFFFFFFFFFFFFFFFFFFFFFFFFFFFFFFFFFFFF0000FFFF
310
FFFFFFFF0000FFFFFFFFFFFFFFFFFFFFFFFFFFFFFFFFFFFFFFFFFFFF0000FFFFFFFFFF00FF00FFFFFFFFFFFFFFFFFFFFFFFFFFFFFFFFFFFFFFFFFFFF0000FFFFFFFFFF00FF00FFFFFFFFFFFFFFFFFFFFFFFFFFFFFFFFFFFFFFFFFFFF0000FFFFFFFFFF00FF00FFFFFFFFFFFFFFFFFFFFFFFFFFFFFFFFFFFFFFFFFFFF0000FF
310
FFFFFF00FFFF00FFFFFFFFFFFFFFFFFFFFFFFFFFFFFFFFFFFFFFFFFFFF0000FFFFFFFF00FF0000FFFFFFFFFFFFFFFFFFFFFFFFFFFFFFFFFFFFFFFFFFFF0000FFFFFFFF00FF0000FFFFFFFFFFFFFFFFFFFFFFFFFFFFFFFFFFFFFFFFFFFF0000FFFFFFFF00000000FFFFFFFFFFFFFFFFFFFFFFFFFFFFFFFFFFFFFFFFFFFF0000
310
FFFFFF00FF000000FFFFFFFFFFFFFFFFFFFFFFFFFFFFFFFFFFFFFFFFFFFF0000FFFFFF00FF000000FFFFFFFFFFFFFFFFFFFFFFFFFFFFFFFFFFFFFFFFFFFF0000FFFFFF00FF000000FFFFFFFFFFFFFFFFFFFFFFFFFFFFFFFFFFFFFFFFFFFF0000FFFF00FF00FF0000FFFFFFFFFFFFFFFFFFFFFFFFFFFFFFFFFFFFFFFFFFFF00
310
00FFFF00FF00FF0000FFFFFFFFFFFFFFFFFFFFFFFFFFFFFFFFFFFFFFFFFFFF0000FFFF00FF00FF0000FFFFFFFFFFFFFFFFFFFFFFFFFFFFFFFFFFFFFFFFFFFF0000FF00FFFF00FF0000FFFFFFFFFFFFFFFFFFFFFFFFFFFFFFFFFFFFFFFFFFFF0000FF00FF00FFFF0000FFFFFFFFFFFFFFFFFFFFFFFFFFFFFFFFFFFFFFFFFFFF
310
0000FF00FF00FFFF0000FFFFFFFFFFFFFFFFFFFFFFFFFFFFFFFFFFFFFFFFFFFF0000FF00FF00FFFF0000FFFFFFFFFFFFFFFFFFFFFFFFFFFFFFFFFFFFFFFFFFFF000000FFFF00FFFF0000FFFFFFFFFFFFFFFFFFFFFFFFFFFFFFFFFFFFFFFFFFFF000000FF00FFFFFF0000FFFFFFFFFFFFFFFFFFFFFFFFFFFFFFFFFFFFFFFFFF
310
FF000000FF00FFFFFF0000FFFFFFFFFFFFFFFFFFFFFFFFFFFFFFFFFFFFFFFFFFFF0000FFFF00FFFFFF0000FFFFFFFFFFFFFFFFFFFFFFFFFFFFFFFFFFFFFFFFFFFF0000FFFF00FFFFFF0000FFFFFFFFFFFFFFFFFFFFFFFFFFFFFFFFFFFFFFFFFFFF00FFFF00FFFFFFFF0000FFFFFFFFFFFFFFFFFFFFFFFFFFFFFFFFFFFFFFFF
310
FFFF00FFFF00FFFFFFFF0000FFFFFFFFFFFFFFFFFFFFFFFFFFFFFFFFFFFFFFFFFFFF00FFFF00FFFFFFFF0000FFFFFFFFFFFFFFFFFFFFFFFFFFFFFFFFFFFFFFFFFFFF00FFFF00FFFFFFFF0000FFFFFFFFFFFFFFFFFFFFFFFFFFFFFFFFFFFFFFFFFFFF00FF00FFFFFFFFFF0000FFFFFFFFFFFFFFFFFFFFFFFFFFFFFFFFFFFFFF
310
FFFFFF000000FFFFFFFFFF0000FFFFFFFFFFFFFFFFFFFFFFFFFFFFFFFFFFFFFFFFFFFFFFFFFFFFFFFFFFFFFFFFFFFFFFFFFFFFFFFFFFFFFF
102
{BLKREFS
331
2759
102
}
  0
BLOCK_RECORD
  5
2730
330
24AE
100
AcDbSymbolTableRecord
100
AcDbBlockTableRecord
  2
AI9-BLK7
340
0
310
2800000020000000200000000100080000000000000400000000000000000000000000000000000000000000000080000080000000808000800000008000800080800000C0C0C000C0DCC000F0CAA6000020400000206000002080000020A0000020C0000020E00000400000004020000040400000406000004080000040A0
310
000040C0000040E00000600000006020000060400000606000006080000060A0000060C0000060E00000800000008020000080400000806000008080000080A0000080C0000080E00000A0000000A0200000A0400000A0600000A0800000A0A00000A0C00000A0E00000C0000000C0200000C0400000C0600000C0800000C0
310
A00000C0C00000C0E00000E0000000E0200000E0400000E0600000E0800000E0A00000E0C00000E0E00040000000400020004000400040006000400080004000A0004000C0004000E00040200000402020004020400040206000402080004020A0004020C0004020E000404000004040200040404000404060004040800040
310
40A0004040C0004040E00040600000406020004060400040606000406080004060A0004060C0004060E00040800000408020004080400040806000408080004080A0004080C0004080E00040A0000040A0200040A0400040A0600040A0800040A0A00040A0C00040A0E00040C0000040C0200040C0400040C0600040C08000
310
40C0A00040C0C00040C0E00040E0000040E0200040E0400040E0600040E0800040E0A00040E0C00040E0E00080000000800020008000400080006000800080008000A0008000C0008000E00080200000802020008020400080206000802080008020A0008020C0008020E00080400000804020008040400080406000804080
310
008040A0008040C0008040E00080600000806020008060400080606000806080008060A0008060C0008060E00080800000808020008080400080806000808080008080A0008080C0008080E00080A0000080A0200080A0400080A0600080A0800080A0A00080A0C00080A0E00080C0000080C0200080C0400080C0600080C0
310
800080C0A00080C0C00080C0E00080E0000080E0200080E0400080E0600080E0800080E0A00080E0C00080E0E000C0000000C0002000C0004000C0006000C0008000C000A000C000C000C000E000C0200000C0202000C0204000C0206000C0208000C020A000C020C000C020E000C0400000C0402000C0404000C0406000C0
310
408000C040A000C040C000C040E000C0600000C0602000C0604000C0606000C0608000C060A000C060C000C060E000C0800000C0802000C0804000C0806000C0808000C080A000C080C000C080E000C0A00000C0A02000C0A04000C0A06000C0A08000C0A0A000C0A0C000C0A0E000C0C00000C0C02000C0C04000C0C06000
310
C0C08000C0C0A000F0FBFF00A4A0A000808080000000FF0000FF000000FFFF00FF000000FF00FF00FFFF0000FFFFFF00FFFFFFFFFFFFFFFFFFFFFFFFFFFFFFFFFFFFFFFFFFFFFFFFFFFFFFFFFFFFFFFFFFFFFFFFFFFFFFFFFFFFFFFFFFFFFF0000FFFFFFFFFFFFFFFFFFFFFFFFFFFFFFFFFFFFFFFFFFFFFFFFFFFFFFFFFFFF
310
0000FFFFFFFFFFFFFFFFFFFFFFFFFFFFFFFFFFFFFFFFFFFFFFFFFFFFFFFFFFFF0000FFFFFFFFFFFFFFFFFFFFFFFFFFFFFFFFFFFFFFFFFFFFFFFFFFFFFFFFFFFF0000FFFFFFFFFFFFFFFFFFFFFFFFFFFFFFFFFFFFFFFFFFFFFFFFFFFFFFFFFFFF0000FFFFFFFFFFFFFFFFFFFFFFFFFFFFFFFFFFFFFFFFFFFFFFFFFFFFFFFFFF
310
FF0000FFFFFFFFFFFFFFFFFFFFFFFFFFFFFFFFFFFFFFFFFFFFFFFFFFFFFFFFFFFF0000FFFFFFFFFFFFFFFFFFFFFFFFFFFFFFFFFFFFFFFFFFFFFFFFFFFFFFFFFFFF0000FFFFFFFFFFFFFFFFFFFFFFFFFFFFFFFFFFFFFFFFFFFFFFFFFFFFFFFFFFFF0000FFFFFFFFFFFFFFFFFFFFFFFFFFFFFFFFFFFFFFFFFFFFFFFFFFFFFFFF
310
FFFF0000FFFFFFFFFFFFFFFFFFFFFFFFFFFFFFFFFFFFFFFFFFFFFFFFFFFFFFFFFFFF0000FFFFFFFFFFFFFFFFFFFFFFFFFFFFFFFFFFFFFFFFFFFFFFFFFFFFFFFFFFFF0000FFFFFFFFFFFFFFFFFFFFFFFFFFFFFFFFFFFFFFFFFFFFFFFFFFFFFFFFFFFF0000FFFFFFFFFFFFFFFFFFFFFFFFFFFFFFFFFFFFFFFFFFFFFFFFFFFFFF
310
FFFFFF0000FFFFFFFFFFFFFFFFFFFFFFFFFFFFFFFFFFFFFFFFFFFFFFFFFFFFFFFFFFFF0000FFFFFFFFFFFFFFFFFFFFFFFFFFFFFFFFFFFFFFFFFFFFFFFFFFFFFFFFFFFF0000FFFFFFFFFFFFFFFFFFFFFFFFFFFFFFFFFFFFFFFFFFFFFFFFFFFFFFFFFFFF0000FFFFFFFFFFFFFFFFFFFFFFFFFFFFFFFFFFFFFFFFFFFFFFFFFFFF
310
FFFFFFFF0000FFFFFFFFFFFFFFFFFFFFFFFFFFFFFFFFFFFFFFFFFFFFFFFFFFFFFFFFFFFF0000FFFFFFFFFFFFFFFFFFFFFFFFFFFFFFFFFFFFFFFFFFFFFFFFFFFFFFFFFFFF0000FFFFFFFFFFFFFFFFFFFFFFFFFFFFFFFFFFFFFFFFFFFFFFFFFFFFFFFFFFFF0000FFFFFFFFFFFFFFFFFFFFFFFFFFFFFFFFFFFFFFFFFFFFFFFFFF
310
FFFFFFFFFF0000FFFFFFFFFFFFFFFFFFFFFFFFFFFFFFFFFFFFFFFFFFFFFFFFFFFFFFFFFFFF0000FFFFFFFFFFFFFFFFFFFFFFFFFFFFFFFFFFFFFFFFFFFFFFFFFFFFFFFFFFFF0000FFFFFFFFFFFFFFFFFFFFFFFFFFFFFFFFFFFFFFFFFFFFFFFFFFFFFFFFFFFF0000FFFFFFFFFFFFFFFFFFFFFFFFFFFFFFFFFFFFFFFFFFFFFFFF
310
FFFFFFFFFFFF0000FFFFFFFFFFFFFFFFFFFFFFFFFFFFFFFFFFFFFFFFFFFFFFFFFFFFFFFFFFFF0000FFFFFFFFFFFFFFFFFFFFFFFFFFFFFFFFFFFFFFFFFFFFFFFFFFFFFFFFFFFF0000FFFFFFFFFFFFFFFFFFFFFFFFFFFFFFFFFFFFFFFFFFFFFFFFFFFFFFFFFFFF0000FFFFFFFFFFFFFFFFFFFFFFFFFFFFFFFFFFFFFFFFFFFFFF
310
FFFFFFFFFFFFFF0000FFFFFFFFFFFFFFFFFFFFFFFFFFFFFFFFFFFFFFFFFFFFFFFFFFFFFFFFFFFFFFFFFFFFFFFFFFFFFFFFFFFFFFFFFFFFFF
102
{BLKREFS
331
275A
102
}
  0
BLOCK_RECORD
  5
2735
330
24AE
100
AcDbSymbolTableRecord
100
AcDbBlockTableRecord
  2
AI9-BLK6
340
0
310
2800000020000000200000000100080000000000000400000000000000000000000000000000000000000000000080000080000000808000800000008000800080800000C0C0C000C0DCC000F0CAA6000020400000206000002080000020A0000020C0000020E00000400000004020000040400000406000004080000040A0
310
000040C0000040E00000600000006020000060400000606000006080000060A0000060C0000060E00000800000008020000080400000806000008080000080A0000080C0000080E00000A0000000A0200000A0400000A0600000A0800000A0A00000A0C00000A0E00000C0000000C0200000C0400000C0600000C0800000C0
310
A00000C0C00000C0E00000E0000000E0200000E0400000E0600000E0800000E0A00000E0C00000E0E00040000000400020004000400040006000400080004000A0004000C0004000E00040200000402020004020400040206000402080004020A0004020C0004020E000404000004040200040404000404060004040800040
310
40A0004040C0004040E00040600000406020004060400040606000406080004060A0004060C0004060E00040800000408020004080400040806000408080004080A0004080C0004080E00040A0000040A0200040A0400040A0600040A0800040A0A00040A0C00040A0E00040C0000040C0200040C0400040C0600040C08000
310
40C0A00040C0C00040C0E00040E0000040E0200040E0400040E0600040E0800040E0A00040E0C00040E0E00080000000800020008000400080006000800080008000A0008000C0008000E00080200000802020008020400080206000802080008020A0008020C0008020E00080400000804020008040400080406000804080
310
008040A0008040C0008040E00080600000806020008060400080606000806080008060A0008060C0008060E00080800000808020008080400080806000808080008080A0008080C0008080E00080A0000080A0200080A0400080A0600080A0800080A0A00080A0C00080A0E00080C0000080C0200080C0400080C0600080C0
310
800080C0A00080C0C00080C0E00080E0000080E0200080E0400080E0600080E0800080E0A00080E0C00080E0E000C0000000C0002000C0004000C0006000C0008000C000A000C000C000C000E000C0200000C0202000C0204000C0206000C0208000C020A000C020C000C020E000C0400000C0402000C0404000C0406000C0
310
408000C040A000C040C000C040E000C0600000C0602000C0604000C0606000C0608000C060A000C060C000C060E000C0800000C0802000C0804000C0806000C0808000C080A000C080C000C080E000C0A00000C0A02000C0A04000C0A06000C0A08000C0A0A000C0A0C000C0A0E000C0C00000C0C02000C0C04000C0C06000
310
C0C08000C0C0A000F0FBFF00A4A0A000808080000000FF0000FF000000FFFF00FF000000FF00FF00FFFF0000FFFFFF00FFFFFFFFFFFFFFFFFFFFFFFF00FFFFFFFFFFFFFF00FFFFFFFFFFFFFFFFFFFFFFFFFFFFFFFFFFFFFFFFFFFFFF00FFFFFFFFFFFFFF00FFFFFFFFFFFFFFFFFFFFFFFFFFFFFFFFFFFFFFFFFFFFFF00FFFF
310
FFFFFFFFFF00FFFFFFFFFFFFFFFFFFFFFFFFFFFFFFFFFFFFFFFFFFFF00FFFFFFFFFFFFFFFF00FFFFFFFFFFFFFFFFFFFFFFFFFFFFFFFFFFFFFFFFFFFF00FFFFFFFFFFFFFF00FFFFFFFFFFFFFFFFFFFFFFFFFFFFFFFFFFFFFFFFFFFFFF00FFFFFFFFFFFFFF00FFFFFFFFFFFFFFFFFFFFFFFFFFFFFFFFFFFFFFFFFFFF00FFFFFF
310
FFFFFFFFFF00FFFFFFFFFFFFFFFFFFFFFFFFFFFFFFFFFFFFFFFFFFFF00FFFFFFFFFFFFFF00FFFFFFFFFFFFFFFFFFFFFFFFFFFFFFFFFFFFFFFFFFFF00FFFFFFFFFFFFFFFF00FFFFFFFFFFFFFFFFFFFFFFFFFFFFFFFFFFFFFFFFFF00FFFFFFFFFFFFFFFFFF00FFFFFFFFFFFFFFFFFFFFFFFFFFFFFFFFFFFFFFFF00FFFFFFFFFF
310
FFFFFFFFFF00FFFFFFFFFFFFFFFFFFFFFFFFFFFFFFFFFFFFFF00FFFFFFFFFFFFFFFFFFFF00FFFFFFFFFFFFFFFFFFFFFFFFFFFFFFFFFFFF0000FFFFFFFFFFFFFFFFFFFFFF00FFFFFFFFFFFFFFFFFFFFFFFFFFFF00000000FFFFFFFFFFFFFFFFFFFFFFFFFF00FFFFFFFFFFFFFFFFFFFFFFFFFFFFFFFFFFFFFFFFFFFFFFFFFFFF
310
FFFFFFFF00FFFFFFFFFFFFFFFFFFFFFFFFFFFFFFFFFFFFFFFFFFFFFFFFFFFFFFFFFFFFFF00FFFFFFFFFFFFFFFFFFFFFFFFFFFFFFFFFFFFFFFFFFFFFFFFFFFFFFFFFFFFFF00FFFFFFFFFFFFFFFFFFFFFFFFFFFFFFFFFFFFFFFFFFFFFFFFFFFFFFFFFFFF00FFFFFFFFFFFFFFFFFFFFFFFFFFFFFFFFFFFFFFFFFFFFFFFFFFFFFF
310
FFFFFFFF00FFFFFFFFFFFFFFFFFFFFFFFFFFFFFFFFFFFFFFFFFFFFFFFFFFFFFFFFFFFF00FFFFFFFFFFFFFFFFFFFFFFFFFFFFFFFFFFFFFFFFFFFFFFFFFFFFFFFFFFFF00FFFFFFFFFFFFFFFFFFFFFFFFFFFFFFFFFFFFFFFFFFFFFFFFFFFFFFFFFFFF00FFFFFFFFFFFFFFFFFFFFFFFFFFFFFFFFFFFFFFFFFFFFFFFFFFFFFFFFFF
310
FF00FFFFFFFFFFFFFFFFFFFFFFFFFFFFFFFFFFFFFFFFFFFFFFFFFFFFFFFFFFFFFF00FFFFFFFFFFFFFFFFFFFFFFFFFFFFFFFFFFFFFFFFFFFFFFFFFFFFFFFFFFFF00FFFFFFFFFFFFFFFFFFFFFFFFFFFFFFFFFFFFFFFFFFFFFFFFFFFFFFFFFF0000FFFFFFFFFFFFFFFFFFFFFFFFFFFFFFFFFFFFFFFFFFFFFFFFFFFFFFFF0000FF
310
FFFFFFFFFFFFFFFFFFFFFFFFFFFFFFFFFFFFFFFFFFFFFFFFFF00000000FFFFFFFFFFFFFFFFFFFFFFFFFFFFFFFFFFFFFFFFFFFFFFFFFFFF0000FFFFFFFFFFFFFFFFFFFFFFFFFFFFFFFFFFFFFFFFFFFFFFFFFFFFFFFFFFFFFFFFFFFFFFFFFFFFFFFFFFFFFFFFFFFFFFFFFFFFFFFFFFFFFFFFFFFFFFFFFFFFFFFFFFFFFFFFFFFF
310
FFFFFFFFFFFFFFFFFFFFFFFFFFFFFFFFFFFFFFFFFFFFFFFFFFFFFFFFFFFFFFFFFFFFFFFFFFFFFFFFFFFFFFFFFFFFFFFFFFFFFFFFFFFFFFFF
102
{BLKREFS
331
275B
102
}
  0
BLOCK_RECORD
  5
2739
330
24AE
100
AcDbSymbolTableRecord
100
AcDbBlockTableRecord
  2
AI9-BLK5
340
0
310
2800000020000000200000000100080000000000000400000000000000000000000000000000000000000000000080000080000000808000800000008000800080800000C0C0C000C0DCC000F0CAA6000020400000206000002080000020A0000020C0000020E00000400000004020000040400000406000004080000040A0
310
000040C0000040E00000600000006020000060400000606000006080000060A0000060C0000060E00000800000008020000080400000806000008080000080A0000080C0000080E00000A0000000A0200000A0400000A0600000A0800000A0A00000A0C00000A0E00000C0000000C0200000C0400000C0600000C0800000C0
310
A00000C0C00000C0E00000E0000000E0200000E0400000E0600000E0800000E0A00000E0C00000E0E00040000000400020004000400040006000400080004000A0004000C0004000E00040200000402020004020400040206000402080004020A0004020C0004020E000404000004040200040404000404060004040800040
310
40A0004040C0004040E00040600000406020004060400040606000406080004060A0004060C0004060E00040800000408020004080400040806000408080004080A0004080C0004080E00040A0000040A0200040A0400040A0600040A0800040A0A00040A0C00040A0E00040C0000040C0200040C0400040C0600040C08000
310
40C0A00040C0C00040C0E00040E0000040E0200040E0400040E0600040E0800040E0A00040E0C00040E0E00080000000800020008000400080006000800080008000A0008000C0008000E00080200000802020008020400080206000802080008020A0008020C0008020E00080400000804020008040400080406000804080
310
008040A0008040C0008040E00080600000806020008060400080606000806080008060A0008060C0008060E00080800000808020008080400080806000808080008080A0008080C0008080E00080A0000080A0200080A0400080A0600080A0800080A0A00080A0C00080A0E00080C0000080C0200080C0400080C0600080C0
310
800080C0A00080C0C00080C0E00080E0000080E0200080E0400080E0600080E0800080E0A00080E0C00080E0E000C0000000C0002000C0004000C0006000C0008000C000A000C000C000C000E000C0200000C0202000C0204000C0206000C0208000C020A000C020C000C020E000C0400000C0402000C0404000C0406000C0
310
408000C040A000C040C000C040E000C0600000C0602000C0604000C0606000C0608000C060A000C060C000C060E000C0800000C0802000C0804000C0806000C0808000C080A000C080C000C080E000C0A00000C0A02000C0A04000C0A06000C0A08000C0A0A000C0A0C000C0A0E000C0C00000C0C02000C0C04000C0C06000
310
C0C08000C0C0A000F0FBFF00A4A0A000808080000000FF0000FF000000FFFF00FF000000FF00FF00FFFF0000FFFFFF00FFFFFFFFFFFFFFFFFFFFFFFFFFFFFFFFFFFFFFFFFFFFFFFFFFFFFFFFFFFFFFFFFFFFFFFFFFFFFFFF000000000000000000000000000000000000000000000000FFFFFFFFFFFFFFFF00FFFFFFFFFFFF
310
FFFFFFFFFFFFFFFFFFFFFFFFFFFFFFFFFFFFFFFFFFFFFFFFFF00FFFFFFFFFFFFFFFFFFFFFFFFFFFFFFFFFFFFFFFFFFFFFFFFFFFFFFFFFFFFFF00FFFFFFFFFFFFFFFFFFFFFFFFFFFFFFFFFFFFFFFFFFFFFFFFFFFFFFFFFFFFFF00FFFFFFFFFFFFFFFFFFFFFFFFFFFFFFFFFFFFFFFFFFFFFFFFFFFFFFFFFFFFFF00FFFFFFFFFF
310
FFFFFFFFFFFFFFFFFFFFFFFFFFFFFFFFFFFFFFFFFFFFFFFFFFFF00FFFFFFFFFFFFFFFFFFFFFFFFFFFFFFFFFFFFFFFFFFFFFFFFFFFFFFFFFFFFFF00FFFFFFFFFFFFFFFFFFFFFFFFFFFFFFFFFFFFFFFFFFFFFFFFFFFFFFFFFFFFFF00FFFFFFFFFFFFFFFFFFFFFFFFFFFFFFFFFFFFFFFFFFFFFFFFFFFFFFFFFFFFFF00FFFFFFFF
310
FFFFFFFFFFFFFFFFFFFFFFFFFFFFFFFFFFFFFFFFFFFFFFFFFFFFFF00FFFFFFFFFFFFFFFFFFFFFFFFFFFFFFFFFFFFFFFFFFFFFFFFFFFFFFFFFFFFFF00FFFFFFFFFFFFFFFFFFFFFFFFFFFFFFFFFFFFFFFFFFFFFFFFFFFFFFFFFFFFFF00FFFFFFFFFFFFFFFFFFFFFFFFFFFFFFFFFFFFFFFFFFFFFFFFFFFFFFFFFFFFFF00FFFFFF
310
FFFFFFFFFFFFFFFFFFFFFFFFFFFFFFFFFFFFFFFFFFFFFFFFFFFFFFFF00FFFFFFFFFFFFFFFFFFFFFFFFFFFFFFFFFFFFFFFFFFFFFFFFFFFFFFFFFFFFFF00FFFFFFFFFFFFFFFFFFFFFFFFFFFFFFFFFFFFFFFFFFFFFFFFFFFFFFFFFFFFFF00FFFFFFFFFFFFFFFFFFFFFFFFFFFFFFFFFFFFFFFFFFFFFFFFFFFFFFFFFFFFFF00FFFF
310
FFFFFFFFFFFFFFFFFFFFFFFFFFFFFFFFFFFFFFFFFFFFFFFFFFFFFFFFFF00FFFFFFFFFFFFFFFFFFFFFFFFFFFFFFFFFFFFFFFFFFFFFFFFFFFFFFFFFFFFFF00FFFFFFFFFFFFFFFFFFFFFFFFFFFFFFFFFFFFFFFFFFFFFFFFFFFFFFFFFFFFFF00FFFFFFFFFFFFFFFFFFFFFFFFFFFFFFFFFFFFFFFFFFFFFFFFFFFFFFFFFFFFFF00FF
310
FFFFFFFFFFFFFFFFFFFFFFFFFFFFFFFFFFFFFFFFFFFFFFFFFFFFFFFFFFFF00FFFFFFFFFFFFFFFFFFFFFFFFFFFFFFFFFFFFFFFFFFFFFFFFFFFFFFFFFFFFFF00FFFFFFFFFFFFFFFFFFFFFFFFFFFFFFFFFFFFFFFFFFFFFFFFFFFFFFFFFFFFFF00FFFFFFFFFFFFFFFFFFFFFFFFFFFFFFFFFFFFFFFFFFFFFFFFFFFFFFFFFFFFFF00
310
FFFFFFFFFFFFFFFFFFFFFFFFFFFFFFFFFFFFFFFFFFFFFFFFFFFFFFFFFFFFFF00FFFFFFFFFFFFFFFFFFFFFFFFFFFFFFFFFFFFFFFFFFFFFFFFFFFFFFFFFFFFFF00FFFFFFFFFFFFFFFFFFFFFFFFFFFFFFFFFFFFFFFFFFFFFFFFFFFFFFFFFFFFFF00FFFFFFFFFFFFFFFFFFFFFFFFFFFFFFFFFFFFFFFFFFFFFFFFFFFFFFFFFFFFFF
310
00FFFFFFFFFFFFFFFFFFFFFFFFFFFF000000000000000000FFFFFFFFFFFFFFFF00FFFFFFFFFFFFFFFFFFFFFFFFFFFF00FFFFFFFFFFFFFFFF
102
{BLKREFS
331
275C
102
}
  0
BLOCK_RECORD
  5
273E
330
24AE
100
AcDbSymbolTableRecord
100
AcDbBlockTableRecord
  2
AI9-BLK4
340
0
310
2800000020000000200000000100080000000000000400000000000000000000000000000000000000000000000080000080000000808000800000008000800080800000C0C0C000C0DCC000F0CAA6000020400000206000002080000020A0000020C0000020E00000400000004020000040400000406000004080000040A0
310
000040C0000040E00000600000006020000060400000606000006080000060A0000060C0000060E00000800000008020000080400000806000008080000080A0000080C0000080E00000A0000000A0200000A0400000A0600000A0800000A0A00000A0C00000A0E00000C0000000C0200000C0400000C0600000C0800000C0
310
A00000C0C00000C0E00000E0000000E0200000E0400000E0600000E0800000E0A00000E0C00000E0E00040000000400020004000400040006000400080004000A0004000C0004000E00040200000402020004020400040206000402080004020A0004020C0004020E000404000004040200040404000404060004040800040
310
40A0004040C0004040E00040600000406020004060400040606000406080004060A0004060C0004060E00040800000408020004080400040806000408080004080A0004080C0004080E00040A0000040A0200040A0400040A0600040A0800040A0A00040A0C00040A0E00040C0000040C0200040C0400040C0600040C08000
310
40C0A00040C0C00040C0E00040E0000040E0200040E0400040E0600040E0800040E0A00040E0C00040E0E00080000000800020008000400080006000800080008000A0008000C0008000E00080200000802020008020400080206000802080008020A0008020C0008020E00080400000804020008040400080406000804080
310
008040A0008040C0008040E00080600000806020008060400080606000806080008060A0008060C0008060E00080800000808020008080400080806000808080008080A0008080C0008080E00080A0000080A0200080A0400080A0600080A0800080A0A00080A0C00080A0E00080C0000080C0200080C0400080C0600080C0
310
800080C0A00080C0C00080C0E00080E0000080E0200080E0400080E0600080E0800080E0A00080E0C00080E0E000C0000000C0002000C0004000C0006000C0008000C000A000C000C000C000E000C0200000C0202000C0204000C0206000C0208000C020A000C020C000C020E000C0400000C0402000C0404000C0406000C0
310
408000C040A000C040C000C040E000C0600000C0602000C0604000C0606000C0608000C060A000C060C000C060E000C0800000C0802000C0804000C0806000C0808000C080A000C080C000C080E000C0A00000C0A02000C0A04000C0A06000C0A08000C0A0A000C0A0C000C0A0E000C0C00000C0C02000C0C04000C0C06000
310
C0C08000C0C0A000F0FBFF00A4A0A000808080000000FF0000FF000000FFFF00FF000000FF00FF00FFFF0000FFFFFF00FFFFFFFFFFFFFFFFFFFFFFFFFFFFFFFFFFFFFFFFFFFFFFFFFFFFFFFFFFFFFFFFFFFFFFFFFFFFFFFFFFFFFFFFFFFF00000000FFFFFFFFFFFFFFFFFFFFFF000000FFFFFFFFFFFFFFFFFFFFFFFFFFFF00
310
FFFF00FFFFFFFFFFFFFFFFFFFFFF00FFFFFFFFFFFFFFFFFFFFFFFFFFFFFFFF00FFFF00FFFFFFFFFFFFFFFFFFFFFF00FFFFFFFFFFFFFFFFFFFFFFFFFFFFFFFF00FFFF00FFFFFFFFFFFFFFFFFFFFFF00FFFFFFFFFFFFFFFFFFFFFFFFFFFFFFFF00FFFF00FFFFFFFFFFFFFFFFFFFFFF00FFFFFFFFFFFFFFFFFFFFFFFFFFFFFFFF
310
00FFFF00FFFFFFFFFFFFFFFFFFFFFF00FFFFFFFFFFFFFFFFFFFFFFFFFFFFFFFF00FFFF00FFFFFFFFFFFFFFFFFFFFFF00FFFFFFFFFFFFFFFFFFFFFFFFFFFFFFFF00FFFF00FFFFFFFFFFFFFFFFFFFFFF00FFFFFFFFFFFFFFFFFFFFFFFFFFFFFFFF00FFFF00FFFFFFFFFFFFFFFFFFFFFF00FFFFFFFFFFFFFFFFFFFFFFFFFFFFFF
310
FF00FFFF00FFFFFFFFFFFFFFFFFFFFFF00FFFFFFFFFFFFFFFFFFFFFFFFFFFFFFFF00FFFF00FFFFFFFFFFFFFFFFFFFFFF00FFFFFFFFFFFFFFFFFFFFFFFFFFFFFFFF00FFFF00FFFFFFFFFFFFFFFFFFFFFF00FFFFFFFFFFFFFFFFFFFFFFFFFFFFFFFF00FFFF00FFFFFFFFFFFFFFFFFFFFFF00FFFFFFFFFFFFFFFFFFFFFFFFFFFF
310
FFFF00FFFF00FFFFFFFFFFFFFFFFFFFFFF00FFFFFFFFFFFFFFFFFFFFFFFFFFFFFFFF00FFFF00FFFFFFFFFFFFFFFFFFFFFF00FFFFFFFFFFFFFFFFFFFFFFFFFFFFFFFF00FFFF00FFFFFFFFFFFFFFFFFFFFFF00FFFFFFFFFFFFFFFFFFFFFFFFFFFFFFFF00FFFF00FFFFFFFFFFFFFFFFFFFF00FFFFFFFFFFFFFFFFFFFFFFFFFFFF
310
FFFFFF00FFFF00FFFFFFFFFFFFFFFFFFFF00FFFFFFFFFFFFFFFFFFFFFFFFFFFFFFFFFF00FFFF00FFFFFFFFFFFFFFFFFFFF00FFFFFFFFFFFFFFFFFFFFFFFFFFFFFFFFFF00FFFF00FFFFFFFFFFFFFFFFFFFF00FFFFFFFFFFFFFFFFFFFFFFFFFFFFFFFFFF00FFFF00FFFFFFFFFFFFFFFFFFFF00FFFFFFFFFFFFFFFFFFFFFFFFFF
310
FFFFFFFF00FFFF00FFFFFFFFFFFFFFFFFF0000FFFF00FFFFFFFFFFFFFFFFFFFFFFFFFFFF00FFFF00FFFFFFFFFFFFFFFF0000FFFFFF00FFFFFFFFFFFFFFFFFFFFFFFFFFFF00FFFF00000000000000000000FFFFFFFF00FFFFFFFFFFFFFFFFFFFFFFFFFFFF00FFFFFFFFFFFFFFFFFFFFFFFFFFFFFF00FFFFFFFFFFFFFFFFFFFF
310
FFFFFFFFFF00FFFFFFFFFFFFFFFFFFFFFFFFFFFF00FFFFFFFFFFFFFFFFFFFFFFFFFFFFFFFF00FFFFFFFFFFFFFFFFFFFFFFFFFFFF00FFFFFFFFFFFFFFFFFFFFFFFFFFFFFFFF00FFFFFFFFFFFFFFFFFFFFFFFFFFFFFF00FFFFFFFFFFFFFFFFFFFFFFFFFFFFFF00FFFFFFFFFFFFFFFFFFFFFFFFFFFFFF00FFFFFFFFFFFFFFFFFF
310
FFFFFFFFFFFF00FFFF00000000000000000000FFFFFFFF00FFFFFFFFFFFFFFFFFFFFFFFFFFFF00FFFF00FFFFFFFFFFFFFFFFFF0000FFFF00
102
{BLKREFS
331
275D
102
}
  0
BLOCK_RECORD
  5
2743
330
24AE
100
AcDbSymbolTableRecord
100
AcDbBlockTableRecord
  2
AI9-BLK3
340
0
310
2800000020000000200000000100080000000000000400000000000000000000000000000000000000000000000080000080000000808000800000008000800080800000C0C0C000C0DCC000F0CAA6000020400000206000002080000020A0000020C0000020E00000400000004020000040400000406000004080000040A0
310
000040C0000040E00000600000006020000060400000606000006080000060A0000060C0000060E00000800000008020000080400000806000008080000080A0000080C0000080E00000A0000000A0200000A0400000A0600000A0800000A0A00000A0C00000A0E00000C0000000C0200000C0400000C0600000C0800000C0
310
A00000C0C00000C0E00000E0000000E0200000E0400000E0600000E0800000E0A00000E0C00000E0E00040000000400020004000400040006000400080004000A0004000C0004000E00040200000402020004020400040206000402080004020A0004020C0004020E000404000004040200040404000404060004040800040
310
40A0004040C0004040E00040600000406020004060400040606000406080004060A0004060C0004060E00040800000408020004080400040806000408080004080A0004080C0004080E00040A0000040A0200040A0400040A0600040A0800040A0A00040A0C00040A0E00040C0000040C0200040C0400040C0600040C08000
310
40C0A00040C0C00040C0E00040E0000040E0200040E0400040E0600040E0800040E0A00040E0C00040E0E00080000000800020008000400080006000800080008000A0008000C0008000E00080200000802020008020400080206000802080008020A0008020C0008020E00080400000804020008040400080406000804080
310
008040A0008040C0008040E00080600000806020008060400080606000806080008060A0008060C0008060E00080800000808020008080400080806000808080008080A0008080C0008080E00080A0000080A0200080A0400080A0600080A0800080A0A00080A0C00080A0E00080C0000080C0200080C0400080C0600080C0
310
800080C0A00080C0C00080C0E00080E0000080E0200080E0400080E0600080E0800080E0A00080E0C00080E0E000C0000000C0002000C0004000C0006000C0008000C000A000C000C000C000E000C0200000C0202000C0204000C0206000C0208000C020A000C020C000C020E000C0400000C0402000C0404000C0406000C0
310
408000C040A000C040C000C040E000C0600000C0602000C0604000C0606000C0608000C060A000C060C000C060E000C0800000C0802000C0804000C0806000C0808000C080A000C080C000C080E000C0A00000C0A02000C0A04000C0A06000C0A08000C0A0A000C0A0C000C0A0E000C0C00000C0C02000C0C04000C0C06000
310
C0C08000C0C0A000F0FBFF00A4A0A000808080000000FF0000FF000000FFFF00FF000000FF00FF00FFFF0000FFFFFF00FFFFFFFFFFFFFFFFFFFFFFFFFFFFFFFFFFFFFFFFFFFFFFFFFFFFFFFFFFFFFFFFFFFFFFFFFFFFFFFFFFFFFFFFFFFFFF0000FFFFFFFFFFFFFFFFFFFFFFFFFFFFFFFFFFFFFFFFFFFFFFFFFFFFFFFFFFFF
310
0000FFFFFFFFFFFFFFFFFFFFFFFFFFFFFFFFFFFFFFFFFFFFFFFFFFFFFFFFFFFF0000FFFFFFFFFFFFFFFFFFFFFFFFFFFFFFFFFFFFFFFFFFFFFFFFFFFFFFFFFFFF0000FFFFFFFFFFFFFFFFFFFFFFFFFFFFFFFFFFFFFFFFFFFFFFFFFFFFFFFFFFFF0000FFFFFFFFFFFFFFFFFFFFFFFFFFFFFFFFFFFFFFFFFFFFFFFFFFFFFFFFFF
310
FF0000FFFFFFFFFFFFFFFFFFFFFFFFFFFFFFFFFFFFFFFFFFFFFFFFFFFFFFFFFFFF0000FFFFFFFFFFFFFFFFFFFFFFFFFFFFFFFFFFFFFFFFFFFFFFFFFFFFFFFFFFFF0000FFFFFFFFFFFFFFFFFFFFFFFFFFFFFFFFFFFFFFFFFFFFFFFFFFFFFFFFFFFF0000FFFFFFFFFFFFFFFFFFFFFFFFFFFFFFFFFFFFFFFFFFFFFFFFFFFFFFFF
310
FFFF0000FFFFFFFFFFFFFFFFFFFFFFFFFFFFFFFFFFFFFFFFFFFFFFFFFFFFFFFFFFFF0000FFFFFFFFFFFFFFFFFFFFFFFFFFFFFFFFFFFFFFFFFFFFFFFFFFFFFFFFFFFF0000FFFFFFFFFFFFFFFFFFFFFFFFFFFFFFFFFFFFFFFFFFFFFFFFFFFFFFFFFFFF0000FFFFFFFFFFFFFFFFFFFFFFFFFFFFFFFFFFFFFFFFFFFFFFFFFFFFFF
310
FFFFFF0000FFFFFFFFFFFFFFFFFFFFFFFFFFFFFFFFFFFFFFFFFFFFFFFFFFFFFFFFFFFF0000FFFFFFFFFFFFFFFFFFFFFFFFFFFFFFFFFFFFFFFFFFFFFFFFFFFFFFFFFFFF0000FFFFFFFFFFFFFFFFFFFFFFFFFFFFFFFFFFFFFFFFFFFFFFFFFFFFFFFFFFFF0000FFFFFFFFFFFFFFFFFFFFFFFFFFFFFFFFFFFFFFFFFFFFFFFFFFFF
310
FFFFFFFF0000FFFFFFFFFFFFFFFFFFFFFFFFFFFFFFFFFFFFFFFFFFFFFFFFFFFFFFFFFFFF0000FFFFFFFFFFFFFFFFFFFFFFFFFFFFFFFFFFFFFFFFFFFFFFFFFFFFFFFFFFFF0000FFFFFFFFFFFFFFFFFFFFFFFFFFFFFFFFFFFFFFFFFFFFFFFFFFFFFFFFFFFF0000FFFFFFFFFFFFFFFFFFFFFFFFFFFFFFFFFFFFFFFFFFFFFFFFFF
310
FFFFFFFFFF0000FFFFFFFFFFFFFFFFFFFFFFFFFFFFFFFFFFFFFFFFFFFFFFFFFFFFFFFFFFFF0000FFFFFFFFFFFFFFFFFFFFFFFFFFFFFFFFFFFFFFFFFFFFFFFFFFFFFFFFFFFF0000FFFFFFFFFFFFFFFFFFFFFFFFFFFFFFFFFFFFFFFFFFFFFFFFFFFFFFFFFFFF0000FFFFFFFFFFFFFFFFFFFFFFFFFFFFFFFFFFFFFFFFFFFFFFFF
310
FFFFFFFFFFFF0000FFFFFFFFFFFFFFFFFFFFFFFFFFFFFFFFFFFFFFFFFFFFFFFFFFFFFFFFFFFF0000FFFFFFFFFFFFFFFFFFFFFFFFFFFFFFFFFFFFFFFFFFFFFFFFFFFFFFFFFFFF0000FFFFFFFFFFFFFFFFFFFFFFFFFFFFFFFFFFFFFFFFFFFFFFFFFFFFFFFFFFFF0000FFFFFFFFFFFFFFFFFFFFFFFFFFFFFFFFFFFFFFFFFFFFFF
310
FFFFFFFFFFFFFF0000FFFFFFFFFFFFFFFFFFFFFFFFFFFFFFFFFFFFFFFFFFFFFFFFFFFFFFFFFFFFFFFFFFFFFFFFFFFFFFFFFFFFFFFFFFFFFF
102
{BLKREFS
331
275E
102
}
  0
BLOCK_RECORD
  5
2748
330
24AE
100
AcDbSymbolTableRecord
100
AcDbBlockTableRecord
  2
AI9-BLK2
340
0
310
2800000020000000200000000100080000000000000400000000000000000000000000000000000000000000000080000080000000808000800000008000800080800000C0C0C000C0DCC000F0CAA6000020400000206000002080000020A0000020C0000020E00000400000004020000040400000406000004080000040A0
310
000040C0000040E00000600000006020000060400000606000006080000060A0000060C0000060E00000800000008020000080400000806000008080000080A0000080C0000080E00000A0000000A0200000A0400000A0600000A0800000A0A00000A0C00000A0E00000C0000000C0200000C0400000C0600000C0800000C0
310
A00000C0C00000C0E00000E0000000E0200000E0400000E0600000E0800000E0A00000E0C00000E0E00040000000400020004000400040006000400080004000A0004000C0004000E00040200000402020004020400040206000402080004020A0004020C0004020E000404000004040200040404000404060004040800040
310
40A0004040C0004040E00040600000406020004060400040606000406080004060A0004060C0004060E00040800000408020004080400040806000408080004080A0004080C0004080E00040A0000040A0200040A0400040A0600040A0800040A0A00040A0C00040A0E00040C0000040C0200040C0400040C0600040C08000
310
40C0A00040C0C00040C0E00040E0000040E0200040E0400040E0600040E0800040E0A00040E0C00040E0E00080000000800020008000400080006000800080008000A0008000C0008000E00080200000802020008020400080206000802080008020A0008020C0008020E00080400000804020008040400080406000804080
310
008040A0008040C0008040E00080600000806020008060400080606000806080008060A0008060C0008060E00080800000808020008080400080806000808080008080A0008080C0008080E00080A0000080A0200080A0400080A0600080A0800080A0A00080A0C00080A0E00080C0000080C0200080C0400080C0600080C0
310
800080C0A00080C0C00080C0E00080E0000080E0200080E0400080E0600080E0800080E0A00080E0C00080E0E000C0000000C0002000C0004000C0006000C0008000C000A000C000C000C000E000C0200000C0202000C0204000C0206000C0208000C020A000C020C000C020E000C0400000C0402000C0404000C0406000C0
310
408000C040A000C040C000C040E000C0600000C0602000C0604000C0606000C0608000C060A000C060C000C060E000C0800000C0802000C0804000C0806000C0808000C080A000C080C000C080E000C0A00000C0A02000C0A04000C0A06000C0A08000C0A0A000C0A0C000C0A0E000C0C00000C0C02000C0C04000C0C06000
310
C0C08000C0C0A000F0FBFF00A4A0A000808080000000FF0000FF000000FFFF00FF000000FF00FF00FFFF0000FFFFFF00FFFFFFFFFFFFFFFFFFFFFFFFFFFFFFFFFFFFFFFFFFFFFFFFFFFFFFFFFFFFFFFFFFFFFFFFFFFFFFFFFFFFFFFFFFFFFF0000FFFFFFFFFFFFFFFFFFFFFFFFFFFFFFFFFFFFFFFFFFFFFFFFFFFFFFFFFFFF
310
0000FFFFFFFFFFFFFFFFFFFFFFFFFFFFFFFFFFFFFFFFFFFFFFFFFFFFFFFFFFFF0000FFFFFFFFFFFFFFFFFFFFFFFFFFFFFFFFFFFFFFFFFFFFFFFFFFFFFFFFFF00FFFF00FFFFFFFFFFFFFFFFFFFFFFFFFFFFFFFFFFFFFFFFFFFFFFFFFFFFFFFF00FFFF00FFFFFFFFFFFFFFFFFFFFFFFFFFFFFFFFFFFFFFFFFFFFFFFFFFFFFFFF
310
00FF0000FFFFFFFFFFFFFFFFFFFFFFFFFFFFFFFFFFFFFFFFFFFFFFFFFFFFFFFF00FF0000FFFFFFFFFFFFFFFFFFFFFFFFFFFFFFFFFFFFFFFFFFFFFFFFFFFFFFFF00FF0000FFFFFFFFFFFFFFFFFFFFFFFFFFFFFFFFFFFFFFFFFFFFFFFFFFFFFFFF00000000FFFFFFFFFFFFFFFFFFFFFFFFFFFFFFFFFFFFFFFFFFFFFFFFFFFFFF
310
00FF00FF0000FFFFFFFFFFFFFFFFFFFFFFFFFFFFFFFFFFFFFFFFFFFFFFFFFFFF00FF00FF0000FFFFFFFFFFFFFFFFFFFFFFFFFFFFFFFFFFFFFFFFFFFFFFFFFFFF00FF00FF0000FFFFFFFFFFFFFFFFFFFFFFFFFFFFFFFFFFFFFFFFFFFFFFFFFFFF00FF00FF0000FFFFFFFFFFFFFFFFFFFFFFFFFFFFFFFFFFFFFFFFFFFFFFFFFF
310
FF00FF00FF0000FFFFFFFFFFFFFFFFFFFFFFFFFFFFFFFFFFFFFFFFFFFFFFFFFFFF0000FFFF0000FFFFFFFFFFFFFFFFFFFFFFFFFFFFFFFFFFFFFFFFFFFFFFFFFF00FF00FFFF00FF00FFFFFFFFFFFFFFFFFFFFFFFFFFFFFFFFFFFFFFFFFFFFFFFF00FF00FFFF00FF00FFFFFFFFFFFFFFFFFFFFFFFFFFFFFFFFFFFFFFFFFFFFFF
310
FF00FF00FFFFFF0000FFFFFFFFFFFFFFFFFFFFFFFFFFFFFFFFFFFFFFFFFFFFFFFF00FF00FFFFFF0000FFFFFFFFFFFFFFFFFFFFFFFFFFFFFFFFFFFFFFFFFFFFFFFF00FF00FFFFFF0000FFFFFFFFFFFFFFFFFFFFFFFFFFFFFFFFFFFFFFFFFFFFFFFF0000FFFFFFFF0000FFFFFFFFFFFFFFFFFFFFFFFFFFFFFFFFFFFFFFFFFFFF
310
FF00FF00FFFFFFFF00FF00FFFFFFFFFFFFFFFFFFFFFFFFFFFFFFFFFFFFFFFFFFFF00FF00FFFFFFFF00FF00FFFFFFFFFFFFFFFFFFFFFFFFFFFFFFFFFFFFFFFFFFFF00FF00FFFFFFFF00FF00FFFFFFFFFFFFFFFFFFFFFFFFFFFFFFFFFFFFFFFFFFFF00FF00FFFFFFFF00FF00FFFFFFFFFFFFFFFFFFFFFFFFFFFFFFFFFFFFFFFF
310
FFFF00FF00FFFFFFFFFF0000FFFFFFFFFFFFFFFFFFFFFFFFFFFFFFFFFFFFFFFFFFFF0000FFFFFFFFFFFF0000FFFFFFFFFFFFFFFFFFFFFFFFFFFFFFFFFFFFFFFFFF00FF00FFFFFFFFFFFF00FF00FFFFFFFFFFFFFFFFFFFFFFFFFFFFFFFFFFFFFFFF00FF00FFFFFFFFFFFF00FF00FFFFFFFFFFFFFFFFFFFFFFFFFFFFFFFFFFFF
310
FFFF000000FFFFFFFFFFFF000000FFFFFFFFFFFFFFFFFFFFFFFFFFFFFFFFFFFFFFFFFFFFFFFFFFFFFFFFFFFFFFFFFFFFFFFFFFFFFFFFFFFF
102
{BLKREFS
331
275F
102
}
  0
BLOCK_RECORD
  5
274D
330
24AE
100
AcDbSymbolTableRecord
100
AcDbBlockTableRecord
  2
AI9-BLK1
340
0
310
2800000020000000200000000100080000000000000400000000000000000000000000000000000000000000000080000080000000808000800000008000800080800000C0C0C000C0DCC000F0CAA6000020400000206000002080000020A0000020C0000020E00000400000004020000040400000406000004080000040A0
310
000040C0000040E00000600000006020000060400000606000006080000060A0000060C0000060E00000800000008020000080400000806000008080000080A0000080C0000080E00000A0000000A0200000A0400000A0600000A0800000A0A00000A0C00000A0E00000C0000000C0200000C0400000C0600000C0800000C0
310
A00000C0C00000C0E00000E0000000E0200000E0400000E0600000E0800000E0A00000E0C00000E0E00040000000400020004000400040006000400080004000A0004000C0004000E00040200000402020004020400040206000402080004020A0004020C0004020E000404000004040200040404000404060004040800040
310
40A0004040C0004040E00040600000406020004060400040606000406080004060A0004060C0004060E00040800000408020004080400040806000408080004080A0004080C0004080E00040A0000040A0200040A0400040A0600040A0800040A0A00040A0C00040A0E00040C0000040C0200040C0400040C0600040C08000
310
40C0A00040C0C00040C0E00040E0000040E0200040E0400040E0600040E0800040E0A00040E0C00040E0E00080000000800020008000400080006000800080008000A0008000C0008000E00080200000802020008020400080206000802080008020A0008020C0008020E00080400000804020008040400080406000804080
310
008040A0008040C0008040E00080600000806020008060400080606000806080008060A0008060C0008060E00080800000808020008080400080806000808080008080A0008080C0008080E00080A0000080A0200080A0400080A0600080A0800080A0A00080A0C00080A0E00080C0000080C0200080C0400080C0600080C0
310
800080C0A00080C0C00080C0E00080E0000080E0200080E0400080E0600080E0800080E0A00080E0C00080E0E000C0000000C0002000C0004000C0006000C0008000C000A000C000C000C000E000C0200000C0202000C0204000C0206000C0208000C020A000C020C000C020E000C0400000C0402000C0404000C0406000C0
310
408000C040A000C040C000C040E000C0600000C0602000C0604000C0606000C0608000C060A000C060C000C060E000C0800000C0802000C0804000C0806000C0808000C080A000C080C000C080E000C0A00000C0A02000C0A04000C0A06000C0A08000C0A0A000C0A0C000C0A0E000C0C00000C0C02000C0C04000C0C06000
310
C0C08000C0C0A000F0FBFF00A4A0A000808080000000FF0000FF000000FFFF00FF000000FF00FF00FFFF0000FFFFFF00FFFFFFFFFFFFFFFFFFFFFFFFFFFFFFFFFFFFFFFFFFFFFFFFFFFFFFFFFFFFFFFFFFFFFFFFFFFFFFFFFFFFFF00000000000000000000FFFFFFFFFFFFFFFFFFFFFFFFFFFFFFFFFFFFFFFFFFFF00FFFFFF
310
FFFFFFFFFF00FFFFFFFFFFFFFFFFFFFFFFFFFFFFFFFFFFFFFFFFFFFF00FFFFFFFFFFFFFFFF00FFFFFFFFFFFFFFFFFFFFFFFFFFFFFFFFFFFFFFFFFFFF00FFFFFFFFFFFFFFFF00FFFFFFFFFFFFFFFFFFFFFFFFFFFFFFFFFFFFFFFFFFFF00FF0000000000000000FFFFFFFFFFFFFFFFFFFFFFFFFFFFFFFFFFFFFFFFFFFF00FF00
310
FFFFFFFFFFFFFFFFFFFFFFFFFFFFFFFFFFFFFFFFFFFFFFFFFFFFFFFFFF00FF00FFFFFFFFFFFFFFFFFFFFFFFFFFFFFFFFFFFFFFFFFFFFFFFFFFFFFFFFFF00FF00FFFFFFFFFFFFFFFFFFFFFFFFFFFFFFFFFFFFFFFFFFFFFFFFFFFFFFFFFF00FF00FFFFFFFFFFFFFFFFFFFFFFFFFFFFFFFFFFFFFFFFFFFFFFFFFFFFFFFFFF00FF
310
00FFFFFFFFFFFFFFFFFFFFFFFFFFFFFFFFFFFFFFFFFFFFFFFFFFFFFFFFFF00FF00FFFFFFFFFFFFFFFFFFFFFFFFFFFFFFFFFFFFFFFFFFFFFFFFFFFFFFFFFF00FF00FFFFFFFFFFFFFFFFFFFFFFFFFFFFFFFFFFFFFFFFFFFFFFFFFFFFFFFFFF00FF00FFFFFFFFFFFFFFFFFFFFFFFFFFFFFFFFFFFFFFFFFFFFFFFFFFFFFFFFFF00
310
FF00000000000000FFFFFFFFFFFFFFFFFFFFFFFFFFFFFFFFFFFFFFFFFFFFFF00FFFFFFFFFFFFFF00FFFFFFFFFFFFFFFFFFFFFFFFFFFFFFFFFFFFFFFFFFFFFF00FFFFFFFFFFFFFF00FFFFFFFFFFFFFFFFFFFFFFFFFFFFFFFFFFFFFFFFFFFFFF00FFFFFFFFFFFFFF00FFFFFFFFFFFFFFFFFFFFFFFFFFFFFFFFFFFFFFFFFFFFFF
310
00FF00000000000000FFFFFFFFFFFFFFFFFFFFFFFFFFFFFFFFFFFFFFFFFFFFFF00FF00FFFFFFFFFFFFFFFFFFFFFFFFFFFFFFFFFFFFFFFFFFFFFFFFFFFFFFFFFF00FF00FFFFFFFFFFFFFFFFFFFFFFFFFFFFFFFFFFFFFFFFFFFFFFFFFFFFFFFFFF00FF00FFFFFFFFFFFFFFFFFFFFFFFFFFFFFFFFFFFFFFFFFFFFFFFFFFFFFFFF
310
FF00FF00FFFFFFFFFFFFFFFFFFFFFFFFFFFFFFFFFFFFFFFFFFFFFFFFFFFFFFFFFF00FF00FFFFFFFFFFFFFFFFFFFFFFFFFFFFFFFFFFFFFFFFFFFFFFFFFFFFFFFFFF00FF00FFFFFFFFFFFFFFFFFFFFFFFFFFFFFFFFFFFFFFFFFFFFFFFFFFFFFFFFFF00FF00FFFFFFFFFFFFFFFFFFFFFFFFFFFFFFFFFFFFFFFFFFFFFFFFFFFFFF
310
FFFF00FF0000000000000000FFFFFFFFFFFFFFFFFFFFFFFFFFFFFFFFFFFFFFFFFFFF00FFFFFFFFFFFFFFFF00FFFFFFFFFFFFFFFFFFFFFFFFFFFFFFFFFFFFFFFFFFFF00FFFFFFFFFFFFFFFF00FFFFFFFFFFFFFFFFFFFFFFFFFFFFFFFFFFFFFFFFFFFF00FFFFFFFFFFFFFFFF00FFFFFFFFFFFFFFFFFFFFFFFFFFFFFFFFFFFFFF
310
FFFFFF00000000000000000000FFFFFFFFFFFFFFFFFFFFFFFFFFFFFFFFFFFFFFFFFFFFFFFFFFFFFFFFFFFFFFFFFFFFFFFFFFFFFFFFFFFFFF
102
{BLKREFS
331
2760
102
}
  0
BLOCK_RECORD
  5
2752
330
24AE
100
AcDbSymbolTableRecord
100
AcDbBlockTableRecord
  2
HD_LLC_logo_OT5
340
0
310
2800000020000000200000000100080000000000000400000000000000000000000000000000000000000000000080000080000000808000800000008000800080800000C0C0C000C0DCC000F0CAA6000020400000206000002080000020A0000020C0000020E00000400000004020000040400000406000004080000040A0
310
000040C0000040E00000600000006020000060400000606000006080000060A0000060C0000060E00000800000008020000080400000806000008080000080A0000080C0000080E00000A0000000A0200000A0400000A0600000A0800000A0A00000A0C00000A0E00000C0000000C0200000C0400000C0600000C0800000C0
310
A00000C0C00000C0E00000E0000000E0200000E0400000E0600000E0800000E0A00000E0C00000E0E00040000000400020004000400040006000400080004000A0004000C0004000E00040200000402020004020400040206000402080004020A0004020C0004020E000404000004040200040404000404060004040800040
310
40A0004040C0004040E00040600000406020004060400040606000406080004060A0004060C0004060E00040800000408020004080400040806000408080004080A0004080C0004080E00040A0000040A0200040A0400040A0600040A0800040A0A00040A0C00040A0E00040C0000040C0200040C0400040C0600040C08000
310
40C0A00040C0C00040C0E00040E0000040E0200040E0400040E0600040E0800040E0A00040E0C00040E0E00080000000800020008000400080006000800080008000A0008000C0008000E00080200000802020008020400080206000802080008020A0008020C0008020E00080400000804020008040400080406000804080
310
008040A0008040C0008040E00080600000806020008060400080606000806080008060A0008060C0008060E00080800000808020008080400080806000808080008080A0008080C0008080E00080A0000080A0200080A0400080A0600080A0800080A0A00080A0C00080A0E00080C0000080C0200080C0400080C0600080C0
310
800080C0A00080C0C00080C0E00080E0000080E0200080E0400080E0600080E0800080E0A00080E0C00080E0E000C0000000C0002000C0004000C0006000C0008000C000A000C000C000C000E000C0200000C0202000C0204000C0206000C0208000C020A000C020C000C020E000C0400000C0402000C0404000C0406000C0
310
408000C040A000C040C000C040E000C0600000C0602000C0604000C0606000C0608000C060A000C060C000C060E000C0800000C0802000C0804000C0806000C0808000C080A000C080C000C080E000C0A00000C0A02000C0A04000C0A06000C0A08000C0A0A000C0A0C000C0A0E000C0C00000C0C02000C0C04000C0C06000
310
C0C08000C0C0A000F0FBFF00A4A0A000808080000000FF0000FF000000FFFF00FF000000FF00FF00FFFF0000FFFFFF00FFFFFFFFFFFFFFFFFFFFFFFFFFFFFFFFFFFFFFFFFFFFFFFFFFFFFFFFFFFFFFFFFFFFFFFFFFFFFFFFFFFFFFFFFFFFFFFFFFFFFFFFFFFFFFFFFFFFFFFFFFFFFFFFFFFFFFFFFFFFFFFFFFFFFFFFFFFFFF
310
FFFFFFFFFFFFFFFFFFFFFFFFFFFFFFFFFFFFFFFFFFFFFFFFFFFFFFFFFFFFFFFFFFFFFFFFFFFFFFFFFFFFFFFFFFFFFFFFFFFFFFFFFFFFFFFFFFFFFFFFFFFFFFFFFFFFFFFFFFFFFFFFFFFFFFFFFFFFFFFFFFFFFFFFFFFFFFFFFFFFFFFFFFFFFFFFFFFFFFFFFFFFFFFFFFFFFFFFFFFFFFFFFFFFFFFFFFFFFFFFFFFFFFFFFFFFFF
310
FFFFFFFFFFFFFFFFFFFFFFFFFFFFFFFFFFFFFFFFFFFFFFFFFFFFFFFFFFFFFFFFFFFFFFFFFFFFFFFFFFFFFFFFFFFFFFFFFFFFFFFFFFFFFFFFFFFFFFFFFFFFFFFFFFFFFFFFFFFFFFFFFFFFFFFFFFFFFFFFFFFFFFFFFFFFFFFFFFFFFFFFFFFFFFFFFFFFFFFFFFFFFFFFFFFFFFFFFFFFFFFFFFFFFFFFFFFFFFFFFFFFFFFFFFFFFF
310
FFFFFFFFFFFFFFFFFFFFFFFFFFFFFFFFFFFFFFFFFFFFFFFFFFFFFFFFFFFFFFFFFFFFFFFFFFFFFFFFFFFFFFFFFFFFFFFFFFFFFFFF0000000000000000000000000000000000000000000000000000000000FFFFFF0000000000000000000000000000000000FFFFFFFFFFFFFFFFFFFF0000FFFFFF0000000000000000000000
310
00000000000000FFFFFFFFFFFFFFFFFFFF0000FFFF000000000000000000000000000000000000FFFFFF00000000FFFFFF0000FFFF00FFFFFFFFFFFF00FFFFFF00FFFFFFFFFF00FFFFFF0000000000FFFF0000FFFF00FFFFFFFFFFFF00FFFFFF00FFFFFFFFFF00FFFFFF00FFFF0000FFFF0000FFFF00FFFFFFFFFFFF00FFFF
310
00FFFFFFFFFFFF00FFFFFF00FFFF0000FFFF0000FFFF0000000000FFFF00000000FFFFFF00000000FFFFFF00000000FFFFFF0000FFFFFFFFFFFF00FFFFFFFFFFFFFFFFFF00FFFFFFFFFFFFFFFFFFFFFFFFFF0000FFFFFFFFFFFF00FFFFFFFFFFFFFFFFFF00FFFFFFFFFFFFFFFFFFFFFFFFFF0000FFFFFFFFFFFF00FFFFFFFF
310
FFFFFFFFFF00FFFFFFFFFFFFFFFFFFFFFFFF0000FFFFFF0000000000FFFF00000000FFFFFF0000000000000000000000000000FFFFFFFF00FFFFFFFFFFFF00FFFF00FFFFFFFFFFFF00FFFFFFFFFFFFFFFFFFFFFFFFFFFF00FFFFFFFFFFFF00FFFFFF00FFFFFFFFFF00FFFFFFFFFFFFFFFFFFFFFFFFFFFF0000000000000000
310
FFFFFF00000000000000FFFFFFFFFFFFFFFFFFFFFFFFFFFFFFFFFFFFFFFFFFFFFFFFFFFFFFFFFFFFFFFFFFFFFFFFFFFFFFFFFFFFFFFFFFFFFFFFFFFFFFFFFFFFFFFFFFFFFFFFFFFFFFFFFFFFFFFFFFFFFFFFFFFFFFFFFFFFFFFFFFFFFFFFFFFFFFFFFFFFFFFFFFFFFFFFFFFFFFFFFFFFFFFFFFFFFFFFFFFFFFFFFFFFFFFFFF
310
FFFFFFFFFFFFFFFFFFFFFFFFFFFFFFFFFFFFFFFFFFFFFFFFFFFFFFFFFFFFFFFFFFFFFFFFFFFFFFFFFFFFFFFFFFFFFFFFFFFFFFFFFFFFFFFF
102
{BLKREFS
331
2778
102
}
  0
BLOCK_RECORD
  5
2777
330
24AE
100
AcDbSymbolTableRecord
100
AcDbBlockTableRecord
  2
HD logo-new
340
0
310
2800000020000000200000000100080000000000000400000000000000000000000000000000000000000000000080000080000000808000800000008000800080800000C0C0C000C0DCC000F0CAA6000020400000206000002080000020A0000020C0000020E00000400000004020000040400000406000004080000040A0
310
000040C0000040E00000600000006020000060400000606000006080000060A0000060C0000060E00000800000008020000080400000806000008080000080A0000080C0000080E00000A0000000A0200000A0400000A0600000A0800000A0A00000A0C00000A0E00000C0000000C0200000C0400000C0600000C0800000C0
310
A00000C0C00000C0E00000E0000000E0200000E0400000E0600000E0800000E0A00000E0C00000E0E00040000000400020004000400040006000400080004000A0004000C0004000E00040200000402020004020400040206000402080004020A0004020C0004020E000404000004040200040404000404060004040800040
310
40A0004040C0004040E00040600000406020004060400040606000406080004060A0004060C0004060E00040800000408020004080400040806000408080004080A0004080C0004080E00040A0000040A0200040A0400040A0600040A0800040A0A00040A0C00040A0E00040C0000040C0200040C0400040C0600040C08000
310
40C0A00040C0C00040C0E00040E0000040E0200040E0400040E0600040E0800040E0A00040E0C00040E0E00080000000800020008000400080006000800080008000A0008000C0008000E00080200000802020008020400080206000802080008020A0008020C0008020E00080400000804020008040400080406000804080
310
008040A0008040C0008040E00080600000806020008060400080606000806080008060A0008060C0008060E00080800000808020008080400080806000808080008080A0008080C0008080E00080A0000080A0200080A0400080A0600080A0800080A0A00080A0C00080A0E00080C0000080C0200080C0400080C0600080C0
310
800080C0A00080C0C00080C0E00080E0000080E0200080E0400080E0600080E0800080E0A00080E0C00080E0E000C0000000C0002000C0004000C0006000C0008000C000A000C000C000C000E000C0200000C0202000C0204000C0206000C0208000C020A000C020C000C020E000C0400000C0402000C0404000C0406000C0
310
408000C040A000C040C000C040E000C0600000C0602000C0604000C0606000C0608000C060A000C060C000C060E000C0800000C0802000C0804000C0806000C0808000C080A000C080C000C080E000C0A00000C0A02000C0A04000C0A06000C0A08000C0A0A000C0A0C000C0A0E000C0C00000C0C02000C0C04000C0C06000
310
C0C08000C0C0A000F0FBFF00A4A0A000808080000000FF0000FF000000FFFF00FF000000FF00FF00FFFF0000FFFFFF00FFFFFFFFFFFFFFFFFFFFFFFFFFFFFFFFFFFFFFFFFFFFFFFFFFFFFFFFFFFFFFFFFFFFFFFFFFFFFFFFFFFFFFFFFFFFFFFFFFFFFFFFFFFFFFFFFFFFFFFFFFFFFFFFFFFFFFFFFFFFFFFFFFFFFFFFFFFFFF
310
FFFFFFFFFFFFFFFFFFFFFFFFFFFFFFFFFFFFFFFFFFFFFFFFFFFFFFFFFFFFFFFFFFFFFFFFFFFFFFFFFFFFFFFFFFFFFFFFFFFFFFFFFFFFFFFFFFFFFFFFFFFFFFFFFFFFFFFFFFFFFFFFFFFFFFFFFFFFFFFFFFFFFFFFFFFFFFFFFFFFFFFFFFFFFFFFFFFFFFFFFFFFFFFFFFFFFFFFFFFFFFFFFFFFFFFFFFFFFFFFFFFFFFFFFFFFFF
310
FFFFFFFFFFFFFFFFFFFFFFFFFFFFFFFFFFFFFFFFFFFFFFFFFFFFFFFFFFFFFFFFFFFFFFFFFFFFFFFFFFFFFFFFFFFFFFFFFFFFFFFFFFFFFFFFFFFFFFFFFFFFFFFFFFFFFFFFFFFFFFFFFFFFFFFFFFFFFFFFFFFFFFFFFFFFFFFFFFFFFFFFFFFFFFFFFFFFFFFFFFFFFFFFFFFFFFFFFFFFFFFFFFFFFFFFFFFFFFFFFFFFFFFFFFFFFF
310
FFFFFFFFFFFFFFFFFFFFFFFFFFFFFFFFFFFFFFFFFFFFFFFFFFFFFFFFFFFFFFFFFFFFFFFFFFFFFFFFFFFFFFFFFFFFFFFFFFFFFFFF0000000000000000000000000000000000000000000000000000000000FFFFFF0000000000000000000000000000000000FFFFFFFFFFFFFFFFFFFF0000FFFFFF0000000000000000000000
310
00000000000000FFFFFFFFFFFFFFFFFFFF0000FFFF000000000000000000000000000000000000FFFFFF00000000FFFFFF0000FFFF00FFFFFFFFFFFF00FFFFFF00FFFFFFFFFF00FFFFFF0000000000FFFF0000FFFF00FFFFFFFFFFFF00FFFFFF00FFFFFFFFFF00FFFFFF00FFFF0000FFFF0000FFFF00FFFFFFFFFFFF00FFFF
310
00FFFFFFFFFFFF00FFFFFF00FFFF0000FFFF0000FFFF0000000000FFFF00000000FFFFFF00000000FFFFFF00000000FFFFFF0000FFFFFFFFFFFF00FFFFFFFFFFFFFFFFFF00FFFFFFFFFFFFFFFFFFFFFFFFFF0000FFFFFFFFFFFF00FFFFFFFFFFFFFFFFFF00FFFFFFFFFFFFFFFFFFFFFFFFFF0000FFFFFFFFFFFF00FFFFFFFF
310
FFFFFFFFFF00FFFFFFFFFFFFFFFFFFFFFFFF0000FFFFFF0000000000FFFF00000000FFFFFF0000000000000000000000000000FFFFFFFF00FFFFFFFFFFFF00FFFF00FFFFFFFFFFFF00FFFFFFFFFFFFFFFFFFFFFFFFFFFF00FFFFFFFFFFFF00FFFFFF00FFFFFFFFFF00FFFFFFFFFFFFFFFFFFFFFFFFFFFF0000000000000000
310
FFFFFF00000000000000FFFFFFFFFFFFFFFFFFFFFFFFFFFFFFFFFFFFFFFFFFFFFFFFFFFFFFFFFFFFFFFFFFFFFFFFFFFFFFFFFFFFFFFFFFFFFFFFFFFFFFFFFFFFFFFFFFFFFFFFFFFFFFFFFFFFFFFFFFFFFFFFFFFFFFFFFFFFFFFFFFFFFFFFFFFFFFFFFFFFFFFFFFFFFFFFFFFFFFFFFFFFFFFFFFFFFFFFFFFFFFFFFFFFFFFFFF
310
FFFFFFFFFFFFFFFFFFFFFFFFFFFFFFFFFFFFFFFFFFFFFFFFFFFFFFFFFFFFFFFFFFFFFFFFFFFFFFFFFFFFFFFFFFFFFFFFFFFFFFFFFFFFFFFF
102
{BLKREFS
331
277C
331
2BD2
331
2BD6
102
}
  0
BLOCK_RECORD
  5
277B
330
24AE
100
AcDbSymbolTableRecord
100
AcDbBlockTableRecord
  2
HD Logo
340
0
310
2800000020000000200000000100080000000000000400000000000000000000000000000000000000000000000080000080000000808000800000008000800080800000C0C0C000C0DCC000F0CAA6000020400000206000002080000020A0000020C0000020E00000400000004020000040400000406000004080000040A0
310
000040C0000040E00000600000006020000060400000606000006080000060A0000060C0000060E00000800000008020000080400000806000008080000080A0000080C0000080E00000A0000000A0200000A0400000A0600000A0800000A0A00000A0C00000A0E00000C0000000C0200000C0400000C0600000C0800000C0
310
A00000C0C00000C0E00000E0000000E0200000E0400000E0600000E0800000E0A00000E0C00000E0E00040000000400020004000400040006000400080004000A0004000C0004000E00040200000402020004020400040206000402080004020A0004020C0004020E000404000004040200040404000404060004040800040
310
40A0004040C0004040E00040600000406020004060400040606000406080004060A0004060C0004060E00040800000408020004080400040806000408080004080A0004080C0004080E00040A0000040A0200040A0400040A0600040A0800040A0A00040A0C00040A0E00040C0000040C0200040C0400040C0600040C08000
310
40C0A00040C0C00040C0E00040E0000040E0200040E0400040E0600040E0800040E0A00040E0C00040E0E00080000000800020008000400080006000800080008000A0008000C0008000E00080200000802020008020400080206000802080008020A0008020C0008020E00080400000804020008040400080406000804080
310
008040A0008040C0008040E00080600000806020008060400080606000806080008060A0008060C0008060E00080800000808020008080400080806000808080008080A0008080C0008080E00080A0000080A0200080A0400080A0600080A0800080A0A00080A0C00080A0E00080C0000080C0200080C0400080C0600080C0
310
800080C0A00080C0C00080C0E00080E0000080E0200080E0400080E0600080E0800080E0A00080E0C00080E0E000C0000000C0002000C0004000C0006000C0008000C000A000C000C000C000E000C0200000C0202000C0204000C0206000C0208000C020A000C020C000C020E000C0400000C0402000C0404000C0406000C0
310
408000C040A000C040C000C040E000C0600000C0602000C0604000C0606000C0608000C060A000C060C000C060E000C0800000C0802000C0804000C0806000C0808000C080A000C080C000C080E000C0A00000C0A02000C0A04000C0A06000C0A08000C0A0A000C0A0C000C0A0E000C0C00000C0C02000C0C04000C0C06000
310
C0C08000C0C0A000F0FBFF00A4A0A000808080000000FF0000FF000000FFFF00FF000000FF00FF00FFFF0000FFFFFF00FFFFFFFFFFFFFFFFFFFFFFFFFFFFFFFFFFFFFFFFFFFFFFFFFFFFFFFFFFFFFFFFFFFFFFFFFFFFFFFFFFFFFFFFFFFFFFFFFFFFFFFFFFFFFFFFFFFFFFFFFFFFFFFFFFFFFFFFFFFFFFFFFFFFFFFFFFFFFF
310
FFFFFFFFFFFFFFFFFFFFFFFFFFFFFFFFFFFFFFFFFFFFFFFFFFFFFFFFFFFFFFFFFFFFFFFFFFFFFFFFFFFFFFFFFFFFFFFFFFFFFFFFFFFFFFFFFFFFFFFFFFFFFFFFFFFFFFFFFFFFFFFFFFFFFFFFFFFFFFFFFFFFFFFFFFFFFFFFFFFFFFFFFFFFFFFFFFFFFFFFFFFFFFFFFFFFFFFFFFFFFFFFFFFFFFFFFFFFFFFFFFFFFFFFFFFFFF
310
FFFFFFFFFFFFFFFFFFFFFFFFFFFFFFFFFFFFFFFFFFFFFFFFFFFFFFFFFFFFFFFFFFFFFFFFFFFFFFFFFFFFFFFFFFFFFFFFFFFFFFFFFFFFFFFFFFFFFFFFFFFFFFFFFFFFFFFFFFFFFFFFFFFFFFFFFFFFFFFFFFFFFFFFFFFFFFFFFFFFFFFFFFFFFFFFFFFFFFFFFFFFFFFFFFFFFFFFFFFFFFFFFFFFFFFFFFFFFFFFFFFFFFFFFFFFFF
310
FFFFFFFFFFFFFFFFFFFFFFFFFFFFFFFFFFFFFFFFFFFFFFFFFFFFFFFFFFFFFFFFFFFFFFFFFFFFFFFFFFFFFFFFFFFFFFFFFFFFFFFF0000000000000000000000000000000000000000000000000000000000FFFFFF0000000000000000000000000000000000FFFFFFFFFFFFFFFFFFFF0000FFFFFF0000000000000000000000
310
00000000000000FFFFFFFFFFFFFFFFFFFF0000FFFF000000000000000000000000000000000000FFFFFF00000000FFFFFF0000FFFF00FFFFFFFFFFFF00FFFFFF00FFFFFFFFFF00FFFFFF0000000000FFFF0000FFFF00FFFFFFFFFFFF00FFFFFF00FFFFFFFFFF00FFFFFF00FFFF0000FFFF0000FFFF00FFFFFFFFFFFF00FFFF
310
00FFFFFFFFFFFF00FFFFFF00FFFF0000FFFF0000FFFF0000000000FFFF00000000FFFFFF00000000FFFFFF00000000FFFFFF0000FFFFFFFFFFFF00FFFFFFFFFFFFFFFFFF00FFFFFFFFFFFFFFFFFFFFFFFFFF0000FFFFFFFFFFFF00FFFFFFFFFFFFFFFFFF00FFFFFFFFFFFFFFFFFFFFFFFFFF0000FFFFFFFFFFFF00FFFFFFFF
310
FFFFFFFFFF00FFFFFFFFFFFFFFFFFFFFFFFF0000FFFFFF0000000000FFFF00000000FFFFFF0000000000000000000000000000FFFFFFFF00FFFFFFFFFFFF00FFFF00FFFFFFFFFFFF00FFFFFFFFFFFFFFFFFFFFFFFFFFFF00FFFFFFFFFFFF00FFFFFF00FFFFFFFFFF00FFFFFFFFFFFFFFFFFFFFFFFFFFFF0000000000000000
310
FFFFFF00000000000000FFFFFFFFFFFFFFFFFFFFFFFFFFFFFFFFFFFFFFFFFFFFFFFFFFFFFFFFFFFFFFFFFFFFFFFFFFFFFFFFFFFFFFFFFFFFFFFFFFFFFFFFFFFFFFFFFFFFFFFFFFFFFFFFFFFFFFFFFFFFFFFFFFFFFFFFFFFFFFFFFFFFFFFFFFFFFFFFFFFFFFFFFFFFFFFFFFFFFFFFFFFFFFFFFFFFFFFFFFFFFFFFFFFFFFFFFF
310
FFFFFFFFFFFFFFFFFFFFFFFFFFFFFFFFFFFFFFFFFFFFFFFFFFFFFFFFFFFFFFFFFFFFFFFFFFFFFFFFFFFFFFFFFFFFFFFFFFFFFFFFFFFFFFFF
102
{BLKREFS
331
2782
331
2786
102
}
  0
BLOCK_RECORD
  5
2787
330
24AE
100
AcDbSymbolTableRecord
100
AcDbBlockTableRecord
  2
Harmonic Drive LLC
340
0
310
2800000020000000200000000100080000000000000400000000000000000000000000000000000000000000000080000080000000808000800000008000800080800000C0C0C000C0DCC000F0CAA6000020400000206000002080000020A0000020C0000020E00000400000004020000040400000406000004080000040A0
310
000040C0000040E00000600000006020000060400000606000006080000060A0000060C0000060E00000800000008020000080400000806000008080000080A0000080C0000080E00000A0000000A0200000A0400000A0600000A0800000A0A00000A0C00000A0E00000C0000000C0200000C0400000C0600000C0800000C0
310
A00000C0C00000C0E00000E0000000E0200000E0400000E0600000E0800000E0A00000E0C00000E0E00040000000400020004000400040006000400080004000A0004000C0004000E00040200000402020004020400040206000402080004020A0004020C0004020E000404000004040200040404000404060004040800040
310
40A0004040C0004040E00040600000406020004060400040606000406080004060A0004060C0004060E00040800000408020004080400040806000408080004080A0004080C0004080E00040A0000040A0200040A0400040A0600040A0800040A0A00040A0C00040A0E00040C0000040C0200040C0400040C0600040C08000
310
40C0A00040C0C00040C0E00040E0000040E0200040E0400040E0600040E0800040E0A00040E0C00040E0E00080000000800020008000400080006000800080008000A0008000C0008000E00080200000802020008020400080206000802080008020A0008020C0008020E00080400000804020008040400080406000804080
310
008040A0008040C0008040E00080600000806020008060400080606000806080008060A0008060C0008060E00080800000808020008080400080806000808080008080A0008080C0008080E00080A0000080A0200080A0400080A0600080A0800080A0A00080A0C00080A0E00080C0000080C0200080C0400080C0600080C0
310
800080C0A00080C0C00080C0E00080E0000080E0200080E0400080E0600080E0800080E0A00080E0C00080E0E000C0000000C0002000C0004000C0006000C0008000C000A000C000C000C000E000C0200000C0202000C0204000C0206000C0208000C020A000C020C000C020E000C0400000C0402000C0404000C0406000C0
310
408000C040A000C040C000C040E000C0600000C0602000C0604000C0606000C0608000C060A000C060C000C060E000C0800000C0802000C0804000C0806000C0808000C080A000C080C000C080E000C0A00000C0A02000C0A04000C0A06000C0A08000C0A0A000C0A0C000C0A0E000C0C00000C0C02000C0C04000C0C06000
310
C0C08000C0C0A000F0FBFF00A4A0A000808080000000FF0000FF000000FFFF00FF000000FF00FF00FFFF0000FFFFFF00FFFFFFFFFFFFFFFFFFFFFFFFFFFFFFFFFFFFFFFFFFFFFFFFFFFFFFFFFFFFFFFFFFFFFFFFFFFFFFFFFFFFFFFFFFFFFFFFFFFFFFFFFFFFFFFFFFFFFFFFFFFFFFFFFFFFFFFFFFFFFFFFFFFFFFFFFFFFFF
310
FFFFFFFFFFFFFFFFFFFFFFFFFFFFFFFFFFFFFFFFFFFFFFFFFFFFFFFFFFFFFFFFFFFFFFFFFFFFFFFFFFFFFFFFFFFFFFFFFFFFFFFFFFFFFFFFFFFFFFFFFFFFFFFFFFFFFFFFFFFFFFFFFFFFFFFFFFFFFFFFFFFFFFFFFFFFFFFFFFFFFFFFFFFFFFFFFFFFFFFFFFFFFFFFFFFFFFFFFFFFFFFFFFFFFFFFFFFFFFFFFFFFFFFFFFFFFF
310
FFFFFFFFFFFFFFFFFFFFFFFFFFFFFFFFFFFFFFFFFFFFFFFFFFFFFFFFFFFFFFFFFFFFFFFFFFFFFFFFFFFFFFFFFFFFFFFFFFFFFFFFFFFFFFFFFFFFFFFFFFFFFFFFFFFFFFFFFFFFFFFFFFFFFFFFFFFFFFFFFFFFFFFFFFFFFFFFFFFFFFFFFFFFFFFFFFFFFFFFFFFFFFFFFFFFFFFFFFFFFFFFFFFFFFFFFFFFFFFFFFFFFFFFFFFFFF
310
FFFFFFFFFFFFFFFFFFFFFFFFFFFFFFFFFFFFFFFFFFFFFFFFFFFFFFFFFFFFFFFFFFFFFFFFFFFFFFFFFFFFFFFFFFFFFFFFFFFFFFFFFFFFFFFFFFFFFFFFFFFFFFFFFFFFFFFFFFFFFFFFFFFFFFFFFFFFFFFFFFFFFFFFFFFFFF000000000000000000000000000000000000000000000000FFFFFFFFFFFFFFFF0000000000000000
310
00000000000000000000000000000000FFFFFFFFFFFFFFFFFFFFFFFF00000000FF00000000FF000000000000FFFFFFFFFFFFFFFFFFFFFFFFFFFFFFFF00000000000000000000000000000000FFFFFFFFFFFFFFFFFFFFFFFFFF00000000000000000000FF000000000000FF00000000FFFFFFFFFFFFFFFFFFFF000000000000
310
00000000FF000000000000FF00000000FFFFFFFFFFFFFFFFFFFFFFFFFFFFFFFFFFFFFFFFFFFFFFFFFFFFFFFFFFFFFFFFFFFFFFFFFFFFFFFFFFFFFFFFFFFFFFFFFFFFFFFFFFFFFFFFFFFFFFFFFFFFFFFFFFFFFFFFFFFFFFFFFFFFFFFFFFFFFFFFFFFFFFFFFFFFFFFFFFFFFFFFFFFFFFFFFFFFFFFFFFFFFFFFFFFFFFFFFFFFFF
310
FFFFFFFFFFFFFFFFFFFFFFFFFFFFFFFFFFFFFFFFFFFFFFFFFFFFFFFFFFFFFFFFFFFFFFFFFFFFFFFFFFFFFFFFFFFFFFFFFFFFFFFFFFFFFFFFFFFFFFFFFFFFFFFFFFFFFFFFFFFFFFFFFFFFFFFFFFFFFFFFFFFFFFFFFFFFFFFFFFFFFFFFFFFFFFFFFFFFFFFFFFFFFFFFFFFFFFFFFFFFFFFFFFFFFFFFFFFFFFFFFFFFFFFFFFFFFF
310
FFFFFFFFFFFFFFFFFFFFFFFFFFFFFFFFFFFFFFFFFFFFFFFFFFFFFFFFFFFFFFFFFFFFFFFFFFFFFFFFFFFFFFFFFFFFFFFFFFFFFFFFFFFFFFFFFFFFFFFFFFFFFFFFFFFFFFFFFFFFFFFFFFFFFFFFFFFFFFFFFFFFFFFFFFFFFFFFFFFFFFFFFFFFFFFFFFFFFFFFFFFFFFFFFFFFFFFFFFFFFFFFFFFFFFFFFFFFFFFFFFFFFFFFFFFFFF
310
FFFFFFFFFFFFFFFFFFFFFFFFFFFFFFFFFFFFFFFFFFFFFFFFFFFFFFFFFFFFFFFFFFFFFFFFFFFFFFFFFFFFFFFFFFFFFFFFFFFFFFFFFFFFFFFF
102
{BLKREFS
331
278C
331
2790
102
}
  0
BLOCK_RECORD
  5
2BC7
330
24AE
100
AcDbSymbolTableRecord
100
AcDbBlockTableRecord
  2
HD LLC
340
0
310
2800000020000000200000000100080000000000000400000000000000000000000000000000000000000000000080000080000000808000800000008000800080800000C0C0C000C0DCC000F0CAA6000020400000206000002080000020A0000020C0000020E00000400000004020000040400000406000004080000040A0
310
000040C0000040E00000600000006020000060400000606000006080000060A0000060C0000060E00000800000008020000080400000806000008080000080A0000080C0000080E00000A0000000A0200000A0400000A0600000A0800000A0A00000A0C00000A0E00000C0000000C0200000C0400000C0600000C0800000C0
310
A00000C0C00000C0E00000E0000000E0200000E0400000E0600000E0800000E0A00000E0C00000E0E00040000000400020004000400040006000400080004000A0004000C0004000E00040200000402020004020400040206000402080004020A0004020C0004020E000404000004040200040404000404060004040800040
310
40A0004040C0004040E00040600000406020004060400040606000406080004060A0004060C0004060E00040800000408020004080400040806000408080004080A0004080C0004080E00040A0000040A0200040A0400040A0600040A0800040A0A00040A0C00040A0E00040C0000040C0200040C0400040C0600040C08000
310
40C0A00040C0C00040C0E00040E0000040E0200040E0400040E0600040E0800040E0A00040E0C00040E0E00080000000800020008000400080006000800080008000A0008000C0008000E00080200000802020008020400080206000802080008020A0008020C0008020E00080400000804020008040400080406000804080
310
008040A0008040C0008040E00080600000806020008060400080606000806080008060A0008060C0008060E00080800000808020008080400080806000808080008080A0008080C0008080E00080A0000080A0200080A0400080A0600080A0800080A0A00080A0C00080A0E00080C0000080C0200080C0400080C0600080C0
310
800080C0A00080C0C00080C0E00080E0000080E0200080E0400080E0600080E0800080E0A00080E0C00080E0E000C0000000C0002000C0004000C0006000C0008000C000A000C000C000C000E000C0200000C0202000C0204000C0206000C0208000C020A000C020C000C020E000C0400000C0402000C0404000C0406000C0
310
408000C040A000C040C000C040E000C0600000C0602000C0604000C0606000C0608000C060A000C060C000C060E000C0800000C0802000C0804000C0806000C0808000C080A000C080C000C080E000C0A00000C0A02000C0A04000C0A06000C0A08000C0A0A000C0A0C000C0A0E000C0C00000C0C02000C0C04000C0C06000
310
C0C08000C0C0A000F0FBFF00A4A0A000808080000000FF0000FF000000FFFF00FF000000FF00FF00FFFF0000FFFFFF00FFFFFFFFFFFFFFFFFFFFFFFFFFFFFFFFFFFFFFFFFFFFFFFFFFFFFFFFFFFFFFFFFFFFFFFFFFFFFFFFFFFFFFFFFFFFFFFFFFFFFFFFFFFFFFFFFFFFFFFFFFFFFFFFFFFFFFFFFFFFFFFFFFFFFFFFFFFFFF
310
FFFFFFFFFFFFFFFFFFFFFFFFFFFFFFFFFFFFFFFFFFFFFFFFFFFFFFFFFFFFFFFFFFFFFFFFFFFFFFFFFFFFFFFFFFFFFFFFFFFFFFFFFFFFFFFFFFFFFFFFFFFFFFFFFFFFFFFFFFFFFFFFFFFFFFFFFFFFFFFFFFFFFFFFFFFFFFFFFFFFFFFFFFFFFFFFFFFFFFFFFFFFFFFFFFFFFFFFFFFFFFFFFFFFFFFFFFFFFFFFFFFFFFFFFFFFFF
310
FFFFFFFFFFFFFFFFFFFFFFFFFFFFFFFFFFFFFFFFFFFFFFFFFFFFFFFFFFFFFFFFFFFFFFFFFFFFFFFFFFFFFFFFFFFFFFFFFFFFFFFFFFFFFFFFFFFFFFFFFFFFFFFFFFFFFFFFFFFFFFFFFFFFFFFFFFFFFFFFFFFFFFFFFFFFFFFFFFFFFFFFFFFFFFFFFFFFFFFFFFFFFFFFFFFFFFFFFFFFFFFFFFFFFFFFFFFFFFFFFFFFFFFFFFFFFF
310
FFFFFFFFFFFFFFFFFFFFFFFFFFFFFFFFFFFFFFFFFFFFFFFFFFFFFFFFFFFFFFFFFFFFFFFFFFFFFFFFFFFFFFFFFFFFFFFFFFFFFFFFFFFFFFFFFFFFFFFFFFFFFFFFFFFFFFFFFFFFFFFFFFFFFFFFFFFFFFFFFFFFFFFFFFFFFFFFFFFFFFFFFFFFFFFFFFFFFFFFFFFFFFFFFFFFFFFFFFFFFFFFFFFFFFFFFFFFFFFFFFFFFFFFFFFF00
310
000000000000000000FFFFFFFFFFFFFFFFFFFFFFFFFFFFFFFFFFFFFFFFFFFF00000000000000000000FFFFFFFFFFFFFFFFFFFFFFFFFFFFFFFFFFFFFFFFFFFF00000000000000000000FFFFFFFFFFFFFFFFFFFFFFFFFFFFFFFFFFFFFFFFFFFF00000000000000000000FFFFFFFFFFFFFFFFFFFFFFFFFFFFFFFFFFFFFFFFFFFF
310
FFFFFFFFFFFFFFFFFFFFFFFFFFFFFFFFFFFFFFFFFFFFFFFFFFFFFFFFFFFFFFFFFFFFFFFFFFFFFFFFFFFFFFFFFFFFFFFFFFFFFFFFFFFFFFFFFFFFFFFFFFFFFFFFFFFFFFFFFFFFFFFFFFFFFFFFFFFFFFFFFFFFFFFFFFFFFFFFFFFFFFFFFFFFFFFFFFFFFFFFFFFFFFFFFFFFFFFFFFFFFFFFFFFFFFFFFFFFFFFFFFFFFFFFFFFFFF
310
FFFFFFFFFFFFFFFFFFFFFFFFFFFFFFFFFFFFFFFFFFFFFFFFFFFFFFFFFFFFFFFFFFFFFFFFFFFFFFFFFFFFFFFFFFFFFFFFFFFFFFFFFFFFFFFFFFFFFFFFFFFFFFFFFFFFFFFFFFFFFFFFFFFFFFFFFFFFFFFFFFFFFFFFFFFFFFFFFFFFFFFFFFFFFFFFFFFFFFFFFFFFFFFFFFFFFFFFFFFFFFFFFFFFFFFFFFFFFFFFFFFFFFFFFFFFFF
310
FFFFFFFFFFFFFFFFFFFFFFFFFFFFFFFFFFFFFFFFFFFFFFFFFFFFFFFFFFFFFFFFFFFFFFFFFFFFFFFFFFFFFFFFFFFFFFFFFFFFFFFFFFFFFFFFFFFFFFFFFFFFFFFFFFFFFFFFFFFFFFFFFFFFFFFFFFFFFFFFFFFFFFFFFFFFFFFFFFFFFFFFFFFFFFFFFFFFFFFFFFFFFFFFFFFFFFFFFFFFFFFFFFFFFFFFFFFFFFFFFFFFFFFFFFFFFF
310
FFFFFFFFFFFFFFFFFFFFFFFFFFFFFFFFFFFFFFFFFFFFFFFFFFFFFFFFFFFFFFFFFFFFFFFFFFFFFFFFFFFFFFFFFFFFFFFFFFFFFFFFFFFFFFFF
102
{BLKREFS
331
2BCC
331
2BD0
102
}
  0
BLOCK_RECORD
  5
2BD7
330
24AE
100
AcDbSymbolTableRecord
100
AcDbBlockTableRecord
  2
NTC
340
0
310
2800000020000000200000000100080000000000000400000000000000000000000000000000000000000000000080000080000000808000800000008000800080800000C0C0C000C0DCC000F0CAA6000020400000206000002080000020A0000020C0000020E00000400000004020000040400000406000004080000040A0
310
000040C0000040E00000600000006020000060400000606000006080000060A0000060C0000060E00000800000008020000080400000806000008080000080A0000080C0000080E00000A0000000A0200000A0400000A0600000A0800000A0A00000A0C00000A0E00000C0000000C0200000C0400000C0600000C0800000C0
310
A00000C0C00000C0E00000E0000000E0200000E0400000E0600000E0800000E0A00000E0C00000E0E00040000000400020004000400040006000400080004000A0004000C0004000E00040200000402020004020400040206000402080004020A0004020C0004020E000404000004040200040404000404060004040800040
310
40A0004040C0004040E00040600000406020004060400040606000406080004060A0004060C0004060E00040800000408020004080400040806000408080004080A0004080C0004080E00040A0000040A0200040A0400040A0600040A0800040A0A00040A0C00040A0E00040C0000040C0200040C0400040C0600040C08000
310
40C0A00040C0C00040C0E00040E0000040E0200040E0400040E0600040E0800040E0A00040E0C00040E0E00080000000800020008000400080006000800080008000A0008000C0008000E00080200000802020008020400080206000802080008020A0008020C0008020E00080400000804020008040400080406000804080
310
008040A0008040C0008040E00080600000806020008060400080606000806080008060A0008060C0008060E00080800000808020008080400080806000808080008080A0008080C0008080E00080A0000080A0200080A0400080A0600080A0800080A0A00080A0C00080A0E00080C0000080C0200080C0400080C0600080C0
310
800080C0A00080C0C00080C0E00080E0000080E0200080E0400080E0600080E0800080E0A00080E0C00080E0E000C0000000C0002000C0004000C0006000C0008000C000A000C000C000C000E000C0200000C0202000C0204000C0206000C0208000C020A000C020C000C020E000C0400000C0402000C0404000C0406000C0
310
408000C040A000C040C000C040E000C0600000C0602000C0604000C0606000C0608000C060A000C060C000C060E000C0800000C0802000C0804000C0806000C0808000C080A000C080C000C080E000C0A00000C0A02000C0A04000C0A06000C0A08000C0A0A000C0A0C000C0A0E000C0C00000C0C02000C0C04000C0C06000
310
C0C08000C0C0A000F0FBFF00A4A0A000808080000000FF0000FF000000FFFF00FF000000FF00FF00FFFF0000FFFFFF00FFFFFFFFFFFFFFFFFFFFFFFFFFFFFFFFFFFFFFFFFFFFFFFFFFFFFFFFFFFFFFFFFFFFFFFFFFFFFFFFFFFFFFFFFFFFFFFFFFFFFFFFFFFFFFFFFFFFFFFFFFFFFFFFFFFFFFFFFFFFFFFFFFFFFFFFFFFFFF
310
FFFFFFFFFFFFFFFFFFFFFFFFFFFFFFFFFFFFFFFFFFFFFFFFFFFFFFFFFFFFFFFFFFFFFFFFFFFFFFFFFFFFFFFFFFFFFFFFFFFFFFFFFFFFFFFFFFFFFFFFFFFFFFFFFFFFFFFFFFFFFFFFFFFFFFFFFFFFFFFFFFFFFFFFFFFFFFFFFFFFFFFFFFFFFFFFFFFFFFFFFFFFFFFFFFFFFFFFFFFFFFFFFFFFFFFFFFFFFFFFFFFFFFFFFFFFFF
310
FFFFFFFFFFFFFFFFFFFFFFFFFFFFFFFFFFFFFFFFFFFFFFFFFFFFFFFFFFFFFFFFFFFFFFFFFFFFFFFFFFFFFFFFFFFFFFFFFFFFFFFFFFFFFFFFFFFFFFFFFFFFFFFFFFFFFFFFFFFFFFFFFFFFFFFFFFFFFFFFFFFFFFFFFFFFFFFFFFFFFFFFFFFFFFFFFFFFFFFFFFFFFFFFFFFFFFFFFFFFFFFFFFFFFFFFFFFFFFFFFFFFFFFFFFFFFF
310
FFFFFFFFFFFFFFFFFFFFFFFFFFFFFFFFFFFFFFFF000000000000000000000000000000000000000000000000000000000000FFFF00FF0000000000000000FFFFFFFFFFFFFFFFFFFFFFFFFFFFFFFFFFFFFF00FFFF00FF0000000000000000FFFFFFFFFFFFFFFFFFFFFFFFFFFFFFFFFFFFFF00FFFF00FF000000000000000000
310
00000000000000000000000000FFFFFFFFFF00FFFF00FF0000000000000000000000000000000000000000000000000000FF00FFFF00FF0000000000000000000000000000000000000000000000000000FF00FFFF00FF0000000000000000000000000000000000000000000000000000FF00FFFF00FF0000000000000000
310
00000000000000000000000000000000FFFFFF00FFFF00FF0000000000FFFFFFFFFFFFFFFFFFFFFFFFFFFFFFFFFFFFFFFFFFFF00FFFF000000000000000000000000000000000000000000000000000000000000FFFFFFFFFFFFFFFFFFFFFFFFFFFFFFFFFFFFFFFFFFFFFFFFFFFFFFFFFFFFFFFFFFFFFFFFFFFFFFFFFFFFFF
310
FFFFFFFFFFFFFFFFFFFFFFFFFFFFFFFFFFFFFFFFFFFFFFFFFFFFFFFFFFFFFFFFFFFFFFFFFFFFFFFFFFFFFFFFFFFFFFFFFFFFFFFFFFFFFFFFFFFFFFFFFFFFFFFFFFFFFFFFFFFFFFFFFFFFFFFFFFFFFFFFFFFFFFFFFFFFFFFFFFFFFFFFFFFFFFFFFFFFFFFFFFFFFFFFFFFFFFFFFFFFFFFFFFFFFFFFFFFFFFFFFFFFFFFFFFFFFF
310
FFFFFFFFFFFFFFFFFFFFFFFFFFFFFFFFFFFFFFFFFFFFFFFFFFFFFFFFFFFFFFFFFFFFFFFFFFFFFFFFFFFFFFFFFFFFFFFFFFFFFFFFFFFFFFFFFFFFFFFFFFFFFFFFFFFFFFFFFFFFFFFFFFFFFFFFFFFFFFFFFFFFFFFFFFFFFFFFFFFFFFFFFFFFFFFFFFFFFFFFFFFFFFFFFFFFFFFFFFFFFFFFFFFFFFFFFFFFFFFFFFFFFFFFFFFFFF
310
FFFFFFFFFFFFFFFFFFFFFFFFFFFFFFFFFFFFFFFFFFFFFFFFFFFFFFFFFFFFFFFFFFFFFFFFFFFFFFFFFFFFFFFFFFFFFFFFFFFFFFFFFFFFFFFF
102
{BLKREFS
331
2BDD
331
2BE3
102
}
  0
ENDTAB
  0
ENDSEC
  0
SECTION
  2
BLOCKS
  0
BLOCK
  5
24CC
330
24CB
100
AcDbEntity
  8
0
100
AcDbBlockBegin
  2
*Model_Space
 70
     0
 10
0.0
 20
0.0
 30
0.0
  3
*Model_Space
  1

  0
ENDBLK
  5
24CD
330
24CB
100
AcDbEntity
  8
0
100
AcDbBlockEnd
  0
BLOCK
  5
24C8
330
24C7
100
AcDbEntity
 67
     1
  8
0
100
AcDbBlockBegin
  2
*Paper_Space
 70
     0
 10
0.0
 20
0.0
 30
0.0
  3
*Paper_Space
  1

  0
ENDBLK
  5
24C9
330
24C7
100
AcDbEntity
 67
     1
  8
0
100
AcDbBlockEnd
  0
BLOCK
  5
24E5
330
24E4
100
AcDbEntity
  8
0
100
AcDbBlockBegin
  2
$MODEL_SPACE
 70
     0
 10
0.0
 20
0.0
 30
0.0
  3
$MODEL_SPACE
  1

  0
ENDBLK
  5
24E6
330
24E4
100
AcDbEntity
  8
0
100
AcDbBlockEnd
  0
BLOCK
  5
24E8
330
24E7
100
AcDbEntity
  8
0
100
AcDbBlockBegin
  2
$PAPER_SPACE
 70
     0
 10
0.0
 20
0.0
 30
0.0
  3
$PAPER_SPACE
  1

  0
ENDBLK
  5
24E9
330
24E7
100
AcDbEntity
  8
0
100
AcDbBlockEnd
  0
BLOCK
  5
2716
330
2713
100
AcDbEntity
  8
0
 62
     7
100
AcDbBlockBegin
  2
AI9-BLK14
 70
     0
 10
0.0
 20
0.0
 30
0.0
  3
AI9-BLK14
  1

  0
SPLINE
  5
2714
330
2713
100
AcDbEntity
  8
LAYER_1
 62
     7
100
AcDbSpline
210
0.0
220
0.0
230
1.0
 70
    11
 71
     3
 72
    23
 73
    19
 74
     0
 42
0.0000000001
 43
0.0000000001
 40
0.0
 40
0.0
 40
0.0
 40
0.0
 40
1.0
 40
1.0
 40
1.0
 40
2.0
 40
2.0
 40
2.0
 40
3.0
 40
3.0
 40
3.0
 40
4.0
 40
4.0
 40
4.0
 40
5.0
 40
5.0
 40
5.0
 40
6.0
 40
6.0
 40
6.0
 40
6.0
 10
-10.90321044921874
 20
10.88107571072048
 30
0.0
 10
-10.90321044921874
 20
10.88107571072048
 30
0.0
 10
-10.90321044921874
 20
-10.88107571072048
 30
0.0
 10
-10.90321044921874
 20
-10.88107571072048
 30
0.0
 10
-10.90321044921874
 20
-10.88107571072048
 30
0.0
 10
1.752692328559025
 20
-10.88107571072048
 30
0.0
 10
1.752692328559025
 20
-10.88107571072048
 30
0.0
 10
3.280592176649305
 20
-10.88107571072048
 30
0.0
 10
10.90321044921874
 20
-10.32383151584201
 30
0.0
 10
10.90321044921874
 20
0.6792867024739583
 30
0.0
 10
10.90321044921874
 20
10.61700914171006
 30
0.0
 10
2.773129611545138
 20
10.87952541775172
 30
0.0
 10
2.691136338975693
 20
10.88090345594618
 30
0.0
 10
2.691136338975693
 20
10.88090345594618
 30
0.0
 10
-9.903099229600693
 20
10.88107571072048
 30
0.0
 10
-9.903099229600693
 20
10.88107571072048
 30
0.0
 10
-9.903099229600693
 20
10.88107571072048
 30
0.0
 10
-10.90321044921874
 20
10.88107571072048
 30
0.0
 10
-10.90321044921874
 20
10.88107571072048
 30
0.0
  0
SPLINE
  5
2715
330
2713
100
AcDbEntity
  8
LAYER_1
 62
     7
100
AcDbSpline
210
0.0
220
0.0
230
1.0
 70
    11
 71
     3
 72
    20
 73
    16
 74
     0
 42
0.0000000001
 43
0.0000000001
 40
0.0
 40
0.0
 40
0.0
 40
0.0
 40
1.0
 40
1.0
 40
1.0
 40
2.0
 40
2.0
 40
2.0
 40
3.0
 40
3.0
 40
3.0
 40
4.0
 40
4.0
 40
4.0
 40
5.0
 40
5.0
 40
5.0
 40
5.0
 10
2.672877332899305
 20
8.881197781032986
 30
0.0
 10
2.905421278211805
 20
8.874307590060762
 30
0.0
 10
8.902988009982637
 20
8.616442192925347
 30
0.0
 10
8.902988009982637
 20
0.6792867024739583
 30
0.0
 10
8.902988009982637
 20
-8.191661919487842
 30
0.0
 10
3.430109320746526
 20
-8.881197781032986
 30
0.0
 10
1.752692328559025
 20
-8.881197781032986
 30
0.0
 10
1.752692328559025
 20
-8.881197781032986
 30
0.0
 10
-7.231427680121528
 20
-8.881197781032986
 30
0.0
 10
-8.902988009982637
 20
-8.881197781032986
 30
0.0
 10
-8.902988009982637
 20
-7.174497477213541
 30
0.0
 10
-8.902988009982637
 20
7.174497477213541
 30
0.0
 10
-8.902988009982637
 20
8.881197781032986
 30
0.0
 10
-7.208690049913191
 20
8.881197781032986
 30
0.0
 10
2.672877332899305
 20
8.881197781032986
 30
0.0
 10
2.672877332899305
 20
8.881197781032986
 30
0.0
  0
ENDBLK
  5
2717
330
2713
100
AcDbEntity
  8
0
100
AcDbBlockEnd
  0
BLOCK
  5
271B
330
2718
100
AcDbEntity
  8
0
 62
     7
100
AcDbBlockBegin
  2
AI9-BLK13
 70
     0
 10
0.0
 20
0.0
 30
0.0
  3
AI9-BLK13
  1

  0
LWPOLYLINE
  5
2719
330
2718
100
AcDbEntity
  8
LAYER_1
 62
     7
100
AcDbPolyline
 90
       12
 70
     1
 43
0.0
 10
-3.792361111111107
 20
10.7376736111111
 10
-2.469444444444443
 20
10.7376736111111
 10
-2.469444444444443
 20
1.874131944444444
 10
2.469444444444443
 20
1.874131944444444
 10
2.469444444444443
 20
10.7376736111111
 10
3.792361111111107
 20
10.7376736111111
 10
3.792361111111107
 20
-10.7376736111111
 10
2.469444444444443
 20
-10.7376736111111
 10
2.469444444444443
 20
-0.6835069444444444
 10
-2.469444444444443
 20
-0.6835069444444444
 10
-2.469444444444443
 20
-10.7376736111111
 10
-3.792361111111107
 20
-10.7376736111111
  0
HATCH
  5
271A
330
2718
100
AcDbEntity
  8
LAYER_1
 62
     7
100
AcDbHatch
 10
0.0
 20
0.0
 30
0.0
210
0.0
220
0.0
230
1.0
  2
SOLID
 70
     1
 71
     0
 91
        1
 92
        3
 72
     0
 73
     1
 93
       12
 10
-3.792361111111107
 20
10.7376736111111
 10
-2.469444444444443
 20
10.7376736111111
 10
-2.469444444444443
 20
1.874131944444444
 10
2.469444444444443
 20
1.874131944444444
 10
2.469444444444443
 20
10.7376736111111
 10
3.792361111111107
 20
10.7376736111111
 10
3.792361111111107
 20
-10.7376736111111
 10
2.469444444444443
 20
-10.7376736111111
 10
2.469444444444443
 20
-0.6835069444444444
 10
-2.469444444444443
 20
-0.6835069444444444
 10
-2.469444444444443
 20
-10.7376736111111
 10
-3.792361111111107
 20
-10.7376736111111
 97
        0
 75
     2
 76
     1
 98
        1
 10
0.0
 20
0.0
  0
ENDBLK
  5
271C
330
2718
100
AcDbEntity
  8
0
100
AcDbBlockEnd
  0
BLOCK
  5
2720
330
271D
100
AcDbEntity
  8
0
 62
     7
100
AcDbBlockBegin
  2
AI9-BLK11
 70
     0
 10
0.0
 20
0.0
 30
0.0
  3
AI9-BLK11
  1

  0
SPLINE
  5
271E
330
271D
100
AcDbEntity
  8
LAYER_1
 62
     7
100
AcDbSpline
210
0.0
220
0.0
230
1.0
 70
    11
 71
     3
 72
    26
 73
    22
 74
     0
 42
0.0000000001
 43
0.0000000001
 40
0.0
 40
0.0
 40
0.0
 40
0.0
 40
1.0
 40
1.0
 40
1.0
 40
2.0
 40
2.0
 40
2.0
 40
3.0
 40
3.0
 40
3.0
 40
4.0
 40
4.0
 40
4.0
 40
5.0
 40
5.0
 40
5.0
 40
6.0
 40
6.0
 40
6.0
 40
7.0
 40
7.0
 40
7.0
 40
7.0
 10
-2.645833333333333
 20
0.9039930555555551
 30
0.0
 10
-2.645833333333333
 20
0.9039930555555551
 30
0.0
 10
-2.645833333333333
 20
8.180034722222217
 30
0.0
 10
-2.645833333333333
 20
8.180034722222217
 30
0.0
 10
-2.645833333333333
 20
8.180034722222217
 30
0.0
 10
0.465087890625
 20
8.180034722222217
 30
0.0
 10
0.465087890625
 20
8.180034722222217
 30
0.0
 10
0.9026150173611108
 20
8.180034722222217
 30
0.0
 10
1.24988064236111
 20
8.034651692708331
 30
0.0
 10
1.506884765625
 20
7.745263671874997
 30
0.0
 10
2.001600477430554
 20
7.194048394097221
 30
0.0
 10
2.248958333333332
 20
6.160519748263887
 30
0.0
 10
2.248958333333332
 20
4.643299696180553
 30
0.0
 10
2.248958333333332
 20
3.232188585069443
 30
0.0
 10
2.072569444444444
 20
2.256537543402775
 30
0.0
 10
1.720480685763888
 20
1.715657552083333
 30
0.0
 10
1.368391927083333
 20
1.174088541666665
 30
0.0
 10
0.8929687499999998
 20
0.9039930555555551
 30
0.0
 10
0.2942111545138888
 20
0.9039930555555551
 30
0.0
 10
0.2942111545138888
 20
0.9039930555555551
 30
0.0
 10
-2.645833333333333
 20
0.9039930555555551
 30
0.0
 10
-2.645833333333333
 20
0.9039930555555551
 30
0.0
  0
SPLINE
  5
271F
330
271D
100
AcDbEntity
  8
LAYER_1
 62
     7
100
AcDbSpline
210
0.0
220
0.0
230
1.0
 70
    11
 71
     3
 72
    68
 73
    64
 74
     0
 42
0.0000000001
 43
0.0000000001
 40
0.0
 40
0.0
 40
0.0
 40
0.0
 40
1.0
 40
1.0
 40
1.0
 40
2.0
 40
2.0
 40
2.0
 40
3.0
 40
3.0
 40
3.0
 40
4.0
 40
4.0
 40
4.0
 40
5.0
 40
5.0
 40
5.0
 40
6.0
 40
6.0
 40
6.0
 40
7.0
 40
7.0
 40
7.0
 40
8.0
 40
8.0
 40
8.0
 40
9.0
 40
9.0
 40
9.0
 40
10.0
 40
10.0
 40
10.0
 40
11.0
 40
11.0
 40
11.0
 40
12.0
 40
12.0
 40
12.0
 40
13.0
 40
13.0
 40
13.0
 40
14.0
 40
14.0
 40
14.0
 40
15.0
 40
15.0
 40
15.0
 40
16.0
 40
16.0
 40
16.0
 40
17.0
 40
17.0
 40
17.0
 40
18.0
 40
18.0
 40
18.0
 40
19.0
 40
19.0
 40
19.0
 40
20.0
 40
20.0
 40
20.0
 40
21.0
 40
21.0
 40
21.0
 40
21.0
 10
-3.968749999999998
 20
-10.7376736111111
 30
0.0
 10
-3.968749999999998
 20
-10.7376736111111
 30
0.0
 10
-2.645833333333333
 20
-10.7376736111111
 30
0.0
 10
-2.645833333333333
 20
-10.7376736111111
 30
0.0
 10
-2.645833333333333
 20
-10.7376736111111
 30
0.0
 10
-2.645833333333333
 20
-1.521354166666665
 30
0.0
 10
-2.645833333333333
 20
-1.521354166666665
 30
0.0
 10
-2.645833333333333
 20
-1.521354166666665
 30
0.0
 10
0.2390896267361111
 20
-1.521354166666665
 30
0.0
 10
0.2390896267361111
 20
-1.521354166666665
 30
0.0
 10
0.7599880642361111
 20
-1.521354166666665
 30
0.0
 10
1.143771701388887
 20
-1.65295681423611
 30
0.0
 10
1.390440538194444
 20
-1.916162109374999
 30
0.0
 10
1.816254340277773
 20
-2.39434136284722
 30
0.0
 10
2.04363064236111
 20
-3.335541449652775
 30
0.0
 10
2.072569444444444
 20
-4.739762369791666
 30
0.0
 10
2.072569444444444
 20
-4.739762369791666
 30
0.0
 10
2.160763888888888
 20
-8.324039713541665
 30
0.0
 10
2.160763888888888
 20
-8.324039713541665
 30
0.0
 10
2.18005642361111
 20
-9.163264973958332
 30
0.0
 10
2.202794053819443
 20
-9.728949652777775
 30
0.0
 10
2.227598741319444
 20
-10.02109374999998
 30
0.0
 10
2.252403428819443
 20
-10.31392686631944
 30
0.0
 10
2.28892144097222
 20
-10.55301649305555
 30
0.0
 10
2.33853081597222
 20
-10.7376736111111
 30
0.0
 10
2.33853081597222
 20
-10.7376736111111
 30
0.0
 10
3.968749999999998
 20
-10.7376736111111
 30
0.0
 10
3.968749999999998
 20
-10.7376736111111
 30
0.0
 10
3.968749999999998
 20
-10.7376736111111
 30
0.0
 10
3.968749999999998
 20
-10.25260416666666
 30
0.0
 10
3.968749999999998
 20
-10.25260416666666
 30
0.0
 10
3.766867404513888
 20
-10.05830078125
 30
0.0
 10
3.625618489583333
 20
-9.621462673611112
 30
0.0
 10
3.545692274305555
 20
-8.942089843749997
 30
0.0
 10
3.49470486111111
 20
-8.543836805555555
 30
0.0
 10
3.459564887152775
 20
-7.937499999999999
 30
0.0
 10
3.439583333333333
 20
-7.121701388888887
 30
0.0
 10
3.439583333333333
 20
-7.121701388888887
 30
0.0
 10
3.395486111111106
 20
-4.232644314236106
 30
0.0
 10
3.395486111111106
 20
-4.232644314236106
 30
0.0
 10
3.375504557291666
 20
-2.981385633680555
 30
0.0
 10
3.26870659722222
 20
-2.077392578125
 30
0.0
 10
3.075781249999999
 20
-1.522043185763888
 30
0.0
 10
2.882166883680555
 20
-0.9666937934027776
 30
0.0
 10
2.592089843749999
 20
-0.5188313802083333
 30
0.0
 10
2.204861111111104
 20
-0.1770779079861111
 30
0.0
 10
2.63618706597222
 20
0.3197048611111111
 30
0.0
 10
2.971739366319443
 20
0.9770290798611107
 30
0.0
 10
3.211518012152775
 20
1.79558376736111
 30
0.0
 10
3.451296657986107
 20
2.613449435763888
 30
0.0
 10
3.571874999999999
 20
3.66558159722222
 30
0.0
 10
3.571874999999999
 20
4.951291232638888
 30
0.0
 10
3.571874999999999
 20
7.415912543402777
 30
0.0
 10
3.124701605902775
 20
9.106076388888887
 30
0.0
 10
2.231043836805555
 20
10.02178276909722
 30
0.0
 10
1.759754774305553
 20
10.498583984375
 30
0.0
 10
1.163753255208332
 20
10.7376736111111
 30
0.0
 10
0.443039279513889
 20
10.7376736111111
 30
0.0
 10
0.443039279513889
 20
10.7376736111111
 30
0.0
 10
-3.968749999999998
 20
10.7376736111111
 30
0.0
 10
-3.968749999999998
 20
10.7376736111111
 30
0.0
 10
-3.968749999999998
 20
10.7376736111111
 30
0.0
 10
-3.968749999999998
 20
-10.7376736111111
 30
0.0
 10
-3.968749999999998
 20
-10.7376736111111
 30
0.0
  0
ENDBLK
  5
2721
330
271D
100
AcDbEntity
  8
0
100
AcDbBlockEnd
  0
BLOCK
  5
2724
330
2722
100
AcDbEntity
  8
0
 62
     7
100
AcDbBlockBegin
  2
AI9-BLK10
 70
     0
 10
0.0
 20
0.0
 30
0.0
  3
AI9-BLK10
  1

  0
SPLINE
  5
2723
330
2722
100
AcDbEntity
  8
LAYER_1
 62
     7
100
AcDbSpline
210
0.0
220
0.0
230
1.0
 70
    11
 71
     3
 72
    59
 73
    55
 74
     0
 42
0.0000000001
 43
0.0000000001
 40
0.0
 40
0.0
 40
0.0
 40
0.0
 40
1.0
 40
1.0
 40
1.0
 40
2.0
 40
2.0
 40
2.0
 40
3.0
 40
3.0
 40
3.0
 40
4.0
 40
4.0
 40
4.0
 40
5.0
 40
5.0
 40
5.0
 40
6.0
 40
6.0
 40
6.0
 40
7.0
 40
7.0
 40
7.0
 40
8.0
 40
8.0
 40
8.0
 40
9.0
 40
9.0
 40
9.0
 40
10.0
 40
10.0
 40
10.0
 40
11.0
 40
11.0
 40
11.0
 40
12.0
 40
12.0
 40
12.0
 40
13.0
 40
13.0
 40
13.0
 40
14.0
 40
14.0
 40
14.0
 40
15.0
 40
15.0
 40
15.0
 40
16.0
 40
16.0
 40
16.0
 40
17.0
 40
17.0
 40
17.0
 40
18.0
 40
18.0
 40
18.0
 40
18.0
 10
-4.652256944444443
 20
10.7376736111111
 30
0.0
 10
-4.652256944444443
 20
10.7376736111111
 30
0.0
 10
-2.798795572916666
 20
10.7376736111111
 30
0.0
 10
-2.798795572916666
 20
10.7376736111111
 30
0.0
 10
-2.798795572916666
 20
10.7376736111111
 30
0.0
 10
0.0
 20
-7.419357638888887
 30
0.0
 10
0.0
 20
-7.419357638888887
 30
0.0
 10
0.0
 20
-7.419357638888887
 30
0.0
 10
2.793283420138888
 20
10.7376736111111
 30
0.0
 10
2.793283420138888
 20
10.7376736111111
 30
0.0
 10
2.793283420138888
 20
10.7376736111111
 30
0.0
 10
4.652256944444443
 20
10.7376736111111
 30
0.0
 10
4.652256944444443
 20
10.7376736111111
 30
0.0
 10
4.652256944444443
 20
10.7376736111111
 30
0.0
 10
4.652256944444443
 20
-10.7376736111111
 30
0.0
 10
4.652256944444443
 20
-10.7376736111111
 30
0.0
 10
4.652256944444443
 20
-10.7376736111111
 30
0.0
 10
3.41753472222222
 20
-10.7376736111111
 30
0.0
 10
3.41753472222222
 20
-10.7376736111111
 30
0.0
 10
3.41753472222222
 20
-10.7376736111111
 30
0.0
 10
3.41753472222222
 20
1.936832682291665
 30
0.0
 10
3.41753472222222
 20
1.936832682291665
 30
0.0
 10
3.41753472222222
 20
2.375048828124999
 30
0.0
 10
3.424424913194443
 20
3.101274956597221
 30
0.0
 10
3.439583333333333
 20
4.11482204861111
 30
0.0
 10
3.454052734374998
 20
5.128369140624998
 30
0.0
 10
3.461631944444443
 20
6.214952256944441
 30
0.0
 10
3.461631944444443
 20
7.375260416666666
 30
0.0
 10
3.461631944444443
 20
7.375260416666666
 30
0.0
 10
0.6538791232638889
 20
-10.7376736111111
 30
0.0
 10
0.6538791232638889
 20
-10.7376736111111
 30
0.0
 10
0.6538791232638889
 20
-10.7376736111111
 30
0.0
 10
-0.6628363715277778
 20
-10.7376736111111
 30
0.0
 10
-0.6628363715277778
 20
-10.7376736111111
 30
0.0
 10
-0.6628363715277778
 20
-10.7376736111111
 30
0.0
 10
-3.461631944444443
 20
7.375260416666666
 30
0.0
 10
-3.461631944444443
 20
7.375260416666666
 30
0.0
 10
-3.461631944444443
 20
7.375260416666666
 30
0.0
 10
-3.461631944444443
 20
6.717247178819441
 30
0.0
 10
-3.461631944444443
 20
6.717247178819441
 30
0.0
 10
-3.461631944444443
 20
6.190836588541666
 30
0.0
 10
-3.45474175347222
 20
5.389507378472222
 30
0.0
 10
-3.439583333333333
 20
4.312570529513888
 30
0.0
 10
-3.425113932291666
 20
3.235633680555555
 30
0.0
 10
-3.41753472222222
 20
2.44395073784722
 30
0.0
 10
-3.41753472222222
 20
1.936832682291665
 30
0.0
 10
-3.41753472222222
 20
1.936832682291665
 30
0.0
 10
-3.41753472222222
 20
-10.7376736111111
 30
0.0
 10
-3.41753472222222
 20
-10.7376736111111
 30
0.0
 10
-3.41753472222222
 20
-10.7376736111111
 30
0.0
 10
-4.652256944444443
 20
-10.7376736111111
 30
0.0
 10
-4.652256944444443
 20
-10.7376736111111
 30
0.0
 10
-4.652256944444443
 20
-10.7376736111111
 30
0.0
 10
-4.652256944444443
 20
10.7376736111111
 30
0.0
 10
-4.652256944444443
 20
10.7376736111111
 30
0.0
  0
ENDBLK
  5
2725
330
2722
100
AcDbEntity
  8
0
100
AcDbBlockEnd
  0
BLOCK
  5
2729
330
2726
100
AcDbEntity
  8
0
 62
     7
100
AcDbBlockBegin
  2
AI9-BLK9
 70
     0
 10
0.0
 20
0.0
 30
0.0
  3
AI9-BLK9
  1

  0
SPLINE
  5
2727
330
2726
100
AcDbEntity
  8
LAYER_1
 62
     7
100
AcDbSpline
210
0.0
220
0.0
230
1.0
 70
    11
 71
     3
 72
    29
 73
    25
 74
     0
 42
0.0000000001
 43
0.0000000001
 40
0.0
 40
0.0
 40
0.0
 40
0.0
 40
1.0
 40
1.0
 40
1.0
 40
2.0
 40
2.0
 40
2.0
 40
3.0
 40
3.0
 40
3.0
 40
4.0
 40
4.0
 40
4.0
 40
5.0
 40
5.0
 40
5.0
 40
6.0
 40
6.0
 40
6.0
 40
7.0
 40
7.0
 40
7.0
 40
8.0
 40
8.0
 40
8.0
 40
8.0
 10
0.0668348524305556
 20
-8.753298611111111
 30
0.0
 10
-0.9067491319444444
 20
-8.753298611111111
 30
0.0
 10
-1.60954861111111
 20
-7.936810980902778
 30
0.0
 10
-2.041563585069444
 20
-6.30383572048611
 30
0.0
 10
-2.474267578124999
 20
-4.670860460069443
 30
0.0
 10
-2.689930555555555
 20
-2.664436848958333
 30
0.0
 10
-2.689930555555555
 20
-0.28525390625
 30
0.0
 10
-2.689930555555555
 20
2.68855251736111
 30
0.0
 10
-2.439127604166666
 20
4.938199869791666
 30
0.0
 10
-1.937521701388888
 20
6.464377170138886
 30
0.0
 10
-1.43591579861111
 20
7.989865451388887
 30
0.0
 10
-0.7827256944444444
 20
8.753298611111111
 30
0.0
 10
0.0220486111111111
 20
8.753298611111111
 30
0.0
 10
0.8468044704861108
 20
8.753298611111111
 30
0.0
 10
1.49792751736111
 20
7.982975260416663
 30
0.0
 10
1.974728732638888
 20
6.442328559027776
 30
0.0
 10
2.451529947916665
 20
4.901681857638886
 30
0.0
 10
2.689930555555555
 20
2.868386501736111
 30
0.0
 10
2.689930555555555
 20
0.3438205295138888
 30
0.0
 10
2.689930555555555
 20
-2.045697699652774
 30
0.0
 10
2.483224826388884
 20
-4.15891927083333
 30
0.0
 10
2.071191406249999
 20
-5.996533203124998
 30
0.0
 10
1.65915798611111
 20
-7.834836154513887
 30
0.0
 10
0.9908094618055557
 20
-8.753298611111111
 30
0.0
 10
0.0668348524305556
 20
-8.753298611111111
 30
0.0
  0
SPLINE
  5
2728
330
2726
100
AcDbEntity
  8
LAYER_1
 62
     7
100
AcDbSpline
210
0.0
220
0.0
230
1.0
 70
    11
 71
     3
 72
    29
 73
    25
 74
     0
 42
0.0000000001
 43
0.0000000001
 40
0.0
 40
0.0
 40
0.0
 40
0.0
 40
1.0
 40
1.0
 40
1.0
 40
2.0
 40
2.0
 40
2.0
 40
3.0
 40
3.0
 40
3.0
 40
4.0
 40
4.0
 40
4.0
 40
5.0
 40
5.0
 40
5.0
 40
6.0
 40
6.0
 40
6.0
 40
7.0
 40
7.0
 40
7.0
 40
8.0
 40
8.0
 40
8.0
 40
8.0
 10
-0.0289388020833333
 20
11.35503472222222
 30
0.0
 10
-1.317404513888887
 20
11.35503472222222
 30
0.0
 10
-2.28892144097222
 20
10.02798394097222
 30
0.0
 10
-2.94280056423611
 20
7.374571397569441
 30
0.0
 10
-3.450607638888888
 20
5.30613606770833
 30
0.0
 10
-3.704166666666666
 20
2.81877712673611
 30
0.0
 10
-3.704166666666666
 20
-0.0881944444444445
 30
0.0
 10
-3.704166666666666
 20
-3.307291666666666
 30
0.0
 10
-3.406510416666666
 20
-5.97035047743055
 30
0.0
 10
-2.811197916666666
 20
-8.077370876736106
 30
0.0
 10
-2.147672526041664
 20
-10.26293945312499
 30
0.0
 10
-1.229899088541666
 20
-11.35503472222222
 30
0.0
 10
-0.0585666232638889
 20
-11.35503472222222
 30
0.0
 10
1.20027126736111
 20
-11.35503472222222
 30
0.0
 10
2.166276041666665
 20
-10.10653211805555
 30
0.0
 10
2.840136718749998
 20
-7.609526909722221
 30
0.0
 10
3.416156684027776
 20
-5.483213975694441
 30
0.0
 10
3.704166666666666
 20
-2.814643012152775
 30
0.0
 10
3.704166666666666
 20
0.3948079427083333
 30
0.0
 10
3.704166666666666
 20
3.360346137152776
 30
0.0
 10
3.449918619791666
 20
5.793961588541666
 30
0.0
 10
2.94280056423611
 20
7.696343315972222
 30
0.0
 10
2.298567708333333
 20
10.13547092013888
 30
0.0
 10
1.307758246527777
 20
11.35503472222222
 30
0.0
 10
-0.0289388020833333
 20
11.35503472222222
 30
0.0
  0
ENDBLK
  5
272A
330
2726
100
AcDbEntity
  8
0
100
AcDbBlockEnd
  0
BLOCK
  5
272E
330
272B
100
AcDbEntity
  8
0
 62
     7
100
AcDbBlockBegin
  2
AI9-BLK8
 70
     0
 10
0.0
 20
0.0
 30
0.0
  3
AI9-BLK8
  1

  0
LWPOLYLINE
  5
272C
330
272B
100
AcDbEntity
  8
LAYER_1
 62
     7
100
AcDbPolyline
 90
       10
 70
     1
 43
0.0
 10
-3.792361111111107
 20
10.7376736111111
 10
-2.268939887152773
 20
10.7376736111111
 10
2.557638888888888
 20
-6.505718315972222
 10
2.557638888888888
 20
10.7376736111111
 10
3.792361111111107
 20
10.7376736111111
 10
3.792361111111107
 20
-10.7376736111111
 10
2.32612847222222
 20
-10.7376736111111
 10
-2.557638888888888
 20
6.549815538194441
 10
-2.557638888888888
 20
-10.7376736111111
 10
-3.792361111111107
 20
-10.7376736111111
  0
HATCH
  5
272D
330
272B
100
AcDbEntity
  8
LAYER_1
 62
     7
100
AcDbHatch
 10
0.0
 20
0.0
 30
0.0
210
0.0
220
0.0
230
1.0
  2
SOLID
 70
     1
 71
     0
 91
        1
 92
        3
 72
     0
 73
     1
 93
       10
 10
-3.792361111111107
 20
10.7376736111111
 10
-2.268939887152773
 20
10.7376736111111
 10
2.557638888888888
 20
-6.505718315972222
 10
2.557638888888888
 20
10.7376736111111
 10
3.792361111111107
 20
10.7376736111111
 10
3.792361111111107
 20
-10.7376736111111
 10
2.32612847222222
 20
-10.7376736111111
 10
-2.557638888888888
 20
6.549815538194441
 10
-2.557638888888888
 20
-10.7376736111111
 10
-3.792361111111107
 20
-10.7376736111111
 97
        0
 75
     2
 76
     1
 98
        1
 10
0.0
 20
0.0
  0
ENDBLK
  5
272F
330
272B
100
AcDbEntity
  8
0
100
AcDbBlockEnd
  0
BLOCK
  5
2733
330
2730
100
AcDbEntity
  8
0
 62
     7
100
AcDbBlockBegin
  2
AI9-BLK7
 70
     0
 10
0.0
 20
0.0
 30
0.0
  3
AI9-BLK7
  1

  0
LWPOLYLINE
  5
2731
330
2730
100
AcDbEntity
  8
LAYER_1
 62
     7
100
AcDbPolyline
 90
        4
 70
     1
 43
0.0
 10
-0.6614583333333333
 20
10.7376736111111
 10
0.6614583333333333
 20
10.7376736111111
 10
0.6614583333333333
 20
-10.7376736111111
 10
-0.6614583333333333
 20
-10.7376736111111
  0
HATCH
  5
2732
330
2730
100
AcDbEntity
  8
LAYER_1
 62
     7
100
AcDbHatch
 10
0.0
 20
0.0
 30
0.0
210
0.0
220
0.0
230
1.0
  2
SOLID
 70
     1
 71
     0
 91
        1
 92
        3
 72
     0
 73
     1
 93
        4
 10
-0.6614583333333333
 20
10.7376736111111
 10
0.6614583333333333
 20
10.7376736111111
 10
0.6614583333333333
 20
-10.7376736111111
 10
-0.6614583333333333
 20
-10.7376736111111
 97
        0
 75
     2
 76
     1
 98
        1
 10
0.0
 20
0.0
  0
ENDBLK
  5
2734
330
2730
100
AcDbEntity
  8
0
100
AcDbBlockEnd
  0
BLOCK
  5
2737
330
2735
100
AcDbEntity
  8
0
 62
     7
100
AcDbBlockBegin
  2
AI9-BLK6
 70
     0
 10
0.0
 20
0.0
 30
0.0
  3
AI9-BLK6
  1

  0
SPLINE
  5
2736
330
2735
100
AcDbEntity
  8
LAYER_1
 62
     7
100
AcDbSpline
210
0.0
220
0.0
230
1.0
 70
    11
 71
     3
 72
    59
 73
    55
 74
     0
 42
0.0000000001
 43
0.0000000001
 40
0.0
 40
0.0
 40
0.0
 40
0.0
 40
1.0
 40
1.0
 40
1.0
 40
2.0
 40
2.0
 40
2.0
 40
3.0
 40
3.0
 40
3.0
 40
4.0
 40
4.0
 40
4.0
 40
5.0
 40
5.0
 40
5.0
 40
6.0
 40
6.0
 40
6.0
 40
7.0
 40
7.0
 40
7.0
 40
8.0
 40
8.0
 40
8.0
 40
9.0
 40
9.0
 40
9.0
 40
10.0
 40
10.0
 40
10.0
 40
11.0
 40
11.0
 40
11.0
 40
12.0
 40
12.0
 40
12.0
 40
13.0
 40
13.0
 40
13.0
 40
14.0
 40
14.0
 40
14.0
 40
15.0
 40
15.0
 40
15.0
 40
16.0
 40
16.0
 40
16.0
 40
17.0
 40
17.0
 40
17.0
 40
18.0
 40
18.0
 40
18.0
 40
18.0
 10
3.062689887152775
 20
9.168088107638887
 30
0.0
 10
3.735172526041666
 20
7.739062499999997
 30
0.0
 10
4.110687934027776
 20
6.116422526041666
 30
0.0
 10
4.189236111111108
 20
4.299479166666666
 30
0.0
 10
4.189236111111108
 20
4.299479166666666
 30
0.0
 10
2.866319444444443
 20
4.299479166666666
 30
0.0
 10
2.866319444444443
 20
4.299479166666666
 30
0.0
 10
2.720936414930555
 20
5.667871093749997
 30
0.0
 10
2.435682508680555
 20
6.752387152777776
 30
0.0
 10
2.009868706597218
 20
7.553027343749997
 30
0.0
 10
1.584054904513888
 20
8.352978515624997
 30
0.0
 10
0.9839192708333332
 20
8.753298611111111
 30
0.0
 10
0.2101508246527778
 20
8.753298611111111
 30
0.0
 10
-0.7386284722222222
 20
8.753298611111111
 30
0.0
 10
-1.503439670138888
 20
8.010536024305555
 30
0.0
 10
-2.083593749999999
 20
6.526388888888886
 30
0.0
 10
-2.664436848958333
 20
5.042241753472221
 30
0.0
 10
-2.954513888888888
 20
2.767100694444443
 30
0.0
 10
-2.954513888888888
 20
-0.2990342881944444
 30
0.0
 10
-2.954513888888888
 20
-2.811197916666666
 30
0.0
 10
-2.693375651041666
 20
-4.847938368055555
 30
0.0
 10
-2.17041015625
 20
-6.409944661458332
 30
0.0
 10
-1.648133680555553
 20
-7.972639973958332
 30
0.0
 10
-0.8640299479166666
 20
-8.753298611111111
 30
0.0
 10
0.1812120225694444
 20
-8.753298611111111
 30
0.0
 10
1.138948567708333
 20
-8.753298611111111
 30
0.0
 10
1.865174696180553
 20
-7.927853732638887
 30
0.0
 10
2.359201388888884
 20
-6.275585937499998
 30
0.0
 10
2.62998589409722
 20
-5.406043836805555
 30
0.0
 10
2.828423394097221
 20
-4.262272135416666
 30
0.0
 10
2.954513888888888
 20
-2.844270833333331
 30
0.0
 10
2.954513888888888
 20
-2.844270833333331
 30
0.0
 10
4.277430555555555
 20
-2.844270833333331
 30
0.0
 10
4.277430555555555
 20
-2.844270833333331
 30
0.0
 10
4.169943576388888
 20
-5.109765624999996
 30
0.0
 10
3.795117187499998
 20
-7.009391276041665
 30
0.0
 10
3.151573350694443
 20
-8.542458767361106
 30
0.0
 10
2.381249999999999
 20
-10.38834092881943
 30
0.0
 10
1.347721354166665
 20
-11.3109375
 30
0.0
 10
0.0509874131944445
 20
-11.3109375
 30
0.0
 10
-1.07004665798611
 20
-11.3109375
 30
0.0
 10
-2.010557725694444
 20
-10.55577256944443
 30
0.0
 10
-2.771234809027776
 20
-9.04475368923611
 30
0.0
 10
-3.775824652777775
 20
-7.046598307291666
 30
0.0
 10
-4.277430555555555
 20
-3.961170789930555
 30
0.0
 10
-4.277430555555555
 20
0.2115288628472222
 30
0.0
 10
-4.277430555555555
 20
3.379638671874998
 30
0.0
 10
-3.902604166666666
 20
5.977929687499997
 30
0.0
 10
-3.151573350694443
 20
8.005712890624996
 30
0.0
 10
-2.333018663194443
 20
10.20919596354165
 30
0.0
 10
-1.20647243923611
 20
11.3109375
 30
0.0
 10
0.2266872829861111
 20
11.3109375
 30
0.0
 10
1.444873046875
 20
11.3109375
 30
0.0
 10
2.390207248263884
 20
10.59642469618055
 30
0.0
 10
3.062689887152775
 20
9.168088107638887
 30
0.0
  0
ENDBLK
  5
2738
330
2735
100
AcDbEntity
  8
0
100
AcDbBlockEnd
  0
BLOCK
  5
273C
330
2739
100
AcDbEntity
  8
0
 62
     7
100
AcDbBlockBegin
  2
AI9-BLK5
 70
     0
 10
0.0
 20
0.0
 30
0.0
  3
AI9-BLK5
  1

  0
SPLINE
  5
273A
330
2739
100
AcDbEntity
  8
LAYER_1
 62
     7
100
AcDbSpline
210
0.0
220
0.0
230
1.0
 70
    11
 71
     3
 72
    32
 73
    28
 74
     0
 42
0.0000000001
 43
0.0000000001
 40
0.0
 40
0.0
 40
0.0
 40
0.0
 40
1.0
 40
1.0
 40
1.0
 40
2.0
 40
2.0
 40
2.0
 40
3.0
 40
3.0
 40
3.0
 40
4.0
 40
4.0
 40
4.0
 40
5.0
 40
5.0
 40
5.0
 40
6.0
 40
6.0
 40
6.0
 40
7.0
 40
7.0
 40
7.0
 40
8.0
 40
8.0
 40
8.0
 40
9.0
 40
9.0
 40
9.0
 40
9.0
 10
-2.62378472222222
 20
-8.268229166666666
 30
0.0
 10
-2.62378472222222
 20
-8.268229166666666
 30
0.0
 10
-2.62378472222222
 20
8.180034722222217
 30
0.0
 10
-2.62378472222222
 20
8.180034722222217
 30
0.0
 10
-2.62378472222222
 20
8.180034722222217
 30
0.0
 10
-0.3376193576388888
 20
8.180034722222217
 30
0.0
 10
-0.3376193576388888
 20
8.180034722222217
 30
0.0
 10
0.6972873263888888
 20
8.180034722222217
 30
0.0
 10
1.449007161458333
 20
7.445540364583332
 30
0.0
 10
1.918918185763885
 20
5.977929687499997
 30
0.0
 10
2.388829210069443
 20
4.510319010416666
 30
0.0
 10
2.62378472222222
 20
2.449462890624999
 30
0.0
 10
2.62378472222222
 20
-0.204638671875
 30
0.0
 10
2.62378472222222
 20
-0.8950358072916666
 30
0.0
 10
2.590022786458332
 20
-1.643310546874999
 30
0.0
 10
2.523187934027772
 20
-2.45015190972222
 30
0.0
 10
2.408121744791666
 20
-3.80200737847222
 30
0.0
 10
2.226220703124999
 20
-4.909950086805555
 30
0.0
 10
1.976795789930553
 20
-5.774669053819441
 30
0.0
 10
1.659847005208333
 20
-6.853672960069442
 30
0.0
 10
1.252636718749998
 20
-7.583344184027778
 30
0.0
 10
0.7544759114583333
 20
-7.962304687499997
 30
0.0
 10
0.4664659288194444
 20
-8.166254340277777
 30
0.0
 10
0.1074869791666666
 20
-8.268229166666666
 30
0.0
 10
-0.3231499565972222
 20
-8.268229166666666
 30
0.0
 10
-0.3231499565972222
 20
-8.268229166666666
 30
0.0
 10
-2.62378472222222
 20
-8.268229166666666
 30
0.0
 10
-2.62378472222222
 20
-8.268229166666666
 30
0.0
  0
SPLINE
  5
273B
330
2739
100
AcDbEntity
  8
LAYER_1
 62
     7
100
AcDbSpline
210
0.0
220
0.0
230
1.0
 70
    11
 71
     3
 72
    26
 73
    22
 74
     0
 42
0.0000000001
 43
0.0000000001
 40
0.0
 40
0.0
 40
0.0
 40
0.0
 40
1.0
 40
1.0
 40
1.0
 40
2.0
 40
2.0
 40
2.0
 40
3.0
 40
3.0
 40
3.0
 40
4.0
 40
4.0
 40
4.0
 40
5.0
 40
5.0
 40
5.0
 40
6.0
 40
6.0
 40
6.0
 40
7.0
 40
7.0
 40
7.0
 40
7.0
 10
-3.946701388888888
 20
-10.7376736111111
 30
0.0
 10
-3.946701388888888
 20
-10.7376736111111
 30
0.0
 10
-0.0943956163194444
 20
-10.7376736111111
 30
0.0
 10
-0.0943956163194444
 20
-10.7376736111111
 30
0.0
 10
1.546847873263885
 20
-10.7376736111111
 30
0.0
 10
2.705777994791666
 20
-9.11021050347222
 30
0.0
 10
3.381705729166666
 20
-5.854595269097222
 30
0.0
 10
3.757910156249999
 20
-4.01284722222222
 30
0.0
 10
3.946701388888888
 20
-1.951991102430555
 30
0.0
 10
3.946701388888888
 20
0.328662109375
 30
0.0
 10
3.946701388888888
 20
3.281797960069443
 30
0.0
 10
3.622862413194443
 20
5.703700086805552
 30
0.0
 10
2.976562499999998
 20
7.594368489583332
 30
0.0
 10
2.25171440972222
 20
9.689675564236106
 30
0.0
 10
1.233344184027777
 20
10.7376736111111
 30
0.0
 10
-0.0799262152777778
 20
10.7376736111111
 30
0.0
 10
-0.0799262152777778
 20
10.7376736111111
 30
0.0
 10
-3.946701388888888
 20
10.7376736111111
 30
0.0
 10
-3.946701388888888
 20
10.7376736111111
 30
0.0
 10
-3.946701388888888
 20
10.7376736111111
 30
0.0
 10
-3.946701388888888
 20
-10.7376736111111
 30
0.0
 10
-3.946701388888888
 20
-10.7376736111111
 30
0.0
  0
ENDBLK
  5
273D
330
2739
100
AcDbEntity
  8
0
100
AcDbBlockEnd
  0
BLOCK
  5
2741
330
273E
100
AcDbEntity
  8
0
 62
     7
100
AcDbBlockBegin
  2
AI9-BLK4
 70
     0
 10
0.0
 20
0.0
 30
0.0
  3
AI9-BLK4
  1

  0
SPLINE
  5
273F
330
273E
100
AcDbEntity
  8
LAYER_1
 62
     7
100
AcDbSpline
210
0.0
220
0.0
230
1.0
 70
    11
 71
     3
 72
    26
 73
    22
 74
     0
 42
0.0000000001
 43
0.0000000001
 40
0.0
 40
0.0
 40
0.0
 40
0.0
 40
1.0
 40
1.0
 40
1.0
 40
2.0
 40
2.0
 40
2.0
 40
3.0
 40
3.0
 40
3.0
 40
4.0
 40
4.0
 40
4.0
 40
5.0
 40
5.0
 40
5.0
 40
6.0
 40
6.0
 40
6.0
 40
7.0
 40
7.0
 40
7.0
 40
7.0
 10
-2.645833333333333
 20
0.9039930555555551
 30
0.0
 10
-2.645833333333333
 20
0.9039930555555551
 30
0.0
 10
-2.645833333333333
 20
8.180034722222217
 30
0.0
 10
-2.645833333333333
 20
8.180034722222217
 30
0.0
 10
-2.645833333333333
 20
8.180034722222217
 30
0.0
 10
0.465087890625
 20
8.180034722222217
 30
0.0
 10
0.465087890625
 20
8.180034722222217
 30
0.0
 10
0.9026150173611108
 20
8.180034722222217
 30
0.0
 10
1.24988064236111
 20
8.034651692708331
 30
0.0
 10
1.506884765625
 20
7.745263671874997
 30
0.0
 10
2.001600477430554
 20
7.194048394097221
 30
0.0
 10
2.248958333333332
 20
6.160519748263887
 30
0.0
 10
2.248958333333332
 20
4.643299696180553
 30
0.0
 10
2.248958333333332
 20
3.232188585069443
 30
0.0
 10
2.072569444444444
 20
2.256537543402775
 30
0.0
 10
1.720480685763888
 20
1.715657552083333
 30
0.0
 10
1.368391927083333
 20
1.174088541666665
 30
0.0
 10
0.8929687499999998
 20
0.9039930555555551
 30
0.0
 10
0.2942111545138888
 20
0.9039930555555551
 30
0.0
 10
0.2942111545138888
 20
0.9039930555555551
 30
0.0
 10
-2.645833333333333
 20
0.9039930555555551
 30
0.0
 10
-2.645833333333333
 20
0.9039930555555551
 30
0.0
  0
SPLINE
  5
2740
330
273E
100
AcDbEntity
  8
LAYER_1
 62
     7
100
AcDbSpline
210
0.0
220
0.0
230
1.0
 70
    11
 71
     3
 72
    68
 73
    64
 74
     0
 42
0.0000000001
 43
0.0000000001
 40
0.0
 40
0.0
 40
0.0
 40
0.0
 40
1.0
 40
1.0
 40
1.0
 40
2.0
 40
2.0
 40
2.0
 40
3.0
 40
3.0
 40
3.0
 40
4.0
 40
4.0
 40
4.0
 40
5.0
 40
5.0
 40
5.0
 40
6.0
 40
6.0
 40
6.0
 40
7.0
 40
7.0
 40
7.0
 40
8.0
 40
8.0
 40
8.0
 40
9.0
 40
9.0
 40
9.0
 40
10.0
 40
10.0
 40
10.0
 40
11.0
 40
11.0
 40
11.0
 40
12.0
 40
12.0
 40
12.0
 40
13.0
 40
13.0
 40
13.0
 40
14.0
 40
14.0
 40
14.0
 40
15.0
 40
15.0
 40
15.0
 40
16.0
 40
16.0
 40
16.0
 40
17.0
 40
17.0
 40
17.0
 40
18.0
 40
18.0
 40
18.0
 40
19.0
 40
19.0
 40
19.0
 40
20.0
 40
20.0
 40
20.0
 40
21.0
 40
21.0
 40
21.0
 40
21.0
 10
-3.968749999999998
 20
-10.7376736111111
 30
0.0
 10
-3.968749999999998
 20
-10.7376736111111
 30
0.0
 10
-2.645833333333333
 20
-10.7376736111111
 30
0.0
 10
-2.645833333333333
 20
-10.7376736111111
 30
0.0
 10
-2.645833333333333
 20
-10.7376736111111
 30
0.0
 10
-2.645833333333333
 20
-1.521354166666665
 30
0.0
 10
-2.645833333333333
 20
-1.521354166666665
 30
0.0
 10
-2.645833333333333
 20
-1.521354166666665
 30
0.0
 10
0.2390896267361111
 20
-1.521354166666665
 30
0.0
 10
0.2390896267361111
 20
-1.521354166666665
 30
0.0
 10
0.7599880642361111
 20
-1.521354166666665
 30
0.0
 10
1.143771701388887
 20
-1.65295681423611
 30
0.0
 10
1.390440538194444
 20
-1.916162109374999
 30
0.0
 10
1.816254340277773
 20
-2.39434136284722
 30
0.0
 10
2.04363064236111
 20
-3.335541449652775
 30
0.0
 10
2.072569444444444
 20
-4.739762369791666
 30
0.0
 10
2.072569444444444
 20
-4.739762369791666
 30
0.0
 10
2.160763888888888
 20
-8.324039713541665
 30
0.0
 10
2.160763888888888
 20
-8.324039713541665
 30
0.0
 10
2.18005642361111
 20
-9.163264973958332
 30
0.0
 10
2.202794053819443
 20
-9.728949652777775
 30
0.0
 10
2.227598741319444
 20
-10.02109374999998
 30
0.0
 10
2.252403428819443
 20
-10.31392686631944
 30
0.0
 10
2.28892144097222
 20
-10.55301649305555
 30
0.0
 10
2.33853081597222
 20
-10.7376736111111
 30
0.0
 10
2.33853081597222
 20
-10.7376736111111
 30
0.0
 10
3.968749999999998
 20
-10.7376736111111
 30
0.0
 10
3.968749999999998
 20
-10.7376736111111
 30
0.0
 10
3.968749999999998
 20
-10.7376736111111
 30
0.0
 10
3.968749999999998
 20
-10.25260416666666
 30
0.0
 10
3.968749999999998
 20
-10.25260416666666
 30
0.0
 10
3.766867404513888
 20
-10.05830078125
 30
0.0
 10
3.625618489583333
 20
-9.621462673611112
 30
0.0
 10
3.545692274305555
 20
-8.942089843749997
 30
0.0
 10
3.49470486111111
 20
-8.543836805555555
 30
0.0
 10
3.459564887152775
 20
-7.937499999999999
 30
0.0
 10
3.439583333333333
 20
-7.121701388888887
 30
0.0
 10
3.439583333333333
 20
-7.121701388888887
 30
0.0
 10
3.395486111111106
 20
-4.232644314236106
 30
0.0
 10
3.395486111111106
 20
-4.232644314236106
 30
0.0
 10
3.375504557291666
 20
-2.981385633680555
 30
0.0
 10
3.26870659722222
 20
-2.077392578125
 30
0.0
 10
3.075781249999999
 20
-1.522043185763888
 30
0.0
 10
2.882166883680555
 20
-0.9666937934027776
 30
0.0
 10
2.592089843749999
 20
-0.5188313802083333
 30
0.0
 10
2.204861111111104
 20
-0.1770779079861111
 30
0.0
 10
2.63618706597222
 20
0.3197048611111111
 30
0.0
 10
2.971739366319443
 20
0.9770290798611107
 30
0.0
 10
3.211518012152775
 20
1.79558376736111
 30
0.0
 10
3.451296657986107
 20
2.613449435763888
 30
0.0
 10
3.571874999999999
 20
3.66558159722222
 30
0.0
 10
3.571874999999999
 20
4.951291232638888
 30
0.0
 10
3.571874999999999
 20
7.415912543402777
 30
0.0
 10
3.124701605902775
 20
9.106076388888887
 30
0.0
 10
2.231043836805555
 20
10.02178276909722
 30
0.0
 10
1.759754774305553
 20
10.498583984375
 30
0.0
 10
1.163753255208332
 20
10.7376736111111
 30
0.0
 10
0.443039279513889
 20
10.7376736111111
 30
0.0
 10
0.443039279513889
 20
10.7376736111111
 30
0.0
 10
-3.968749999999998
 20
10.7376736111111
 30
0.0
 10
-3.968749999999998
 20
10.7376736111111
 30
0.0
 10
-3.968749999999998
 20
10.7376736111111
 30
0.0
 10
-3.968749999999998
 20
-10.7376736111111
 30
0.0
 10
-3.968749999999998
 20
-10.7376736111111
 30
0.0
  0
ENDBLK
  5
2742
330
273E
100
AcDbEntity
  8
0
100
AcDbBlockEnd
  0
BLOCK
  5
2746
330
2743
100
AcDbEntity
  8
0
 62
     7
100
AcDbBlockBegin
  2
AI9-BLK3
 70
     0
 10
0.0
 20
0.0
 30
0.0
  3
AI9-BLK3
  1

  0
LWPOLYLINE
  5
2744
330
2743
100
AcDbEntity
  8
LAYER_1
 62
     7
100
AcDbPolyline
 90
        4
 70
     1
 43
0.0
 10
-0.6613722059461809
 20
10.7376736111111
 10
0.6613722059461809
 20
10.7376736111111
 10
0.6613722059461809
 20
-10.7376736111111
 10
-0.6613722059461809
 20
-10.7376736111111
  0
HATCH
  5
2745
330
2743
100
AcDbEntity
  8
LAYER_1
 62
     7
100
AcDbHatch
 10
0.0
 20
0.0
 30
0.0
210
0.0
220
0.0
230
1.0
  2
SOLID
 70
     1
 71
     0
 91
        1
 92
        3
 72
     0
 73
     1
 93
        4
 10
-0.6613722059461809
 20
10.7376736111111
 10
0.6613722059461809
 20
10.7376736111111
 10
0.6613722059461809
 20
-10.7376736111111
 10
-0.6613722059461809
 20
-10.7376736111111
 97
        0
 75
     2
 76
     1
 98
        1
 10
0.0
 20
0.0
  0
ENDBLK
  5
2747
330
2743
100
AcDbEntity
  8
0
100
AcDbBlockEnd
  0
BLOCK
  5
274B
330
2748
100
AcDbEntity
  8
0
 62
     7
100
AcDbBlockBegin
  2
AI9-BLK2
 70
     0
 10
0.0
 20
0.0
 30
0.0
  3
AI9-BLK2
  1

  0
LWPOLYLINE
  5
2749
330
2748
100
AcDbEntity
  8
LAYER_1
 62
     7
100
AcDbPolyline
 90
        7
 70
     1
 43
0.0
 10
-2.785704210069443
 20
10.7376736111111
 10
0.0
 20
-7.550960286458332
 10
2.771234809027776
 20
10.7376736111111
 10
4.233333333333331
 20
10.7376736111111
 10
0.6910861545138888
 20
-10.7376736111111
 10
-0.7055555555555558
 20
-10.7376736111111
 10
-4.233333333333331
 20
10.7376736111111
  0
HATCH
  5
274A
330
2748
100
AcDbEntity
  8
LAYER_1
 62
     7
100
AcDbHatch
 10
0.0
 20
0.0
 30
0.0
210
0.0
220
0.0
230
1.0
  2
SOLID
 70
     1
 71
     0
 91
        1
 92
        3
 72
     0
 73
     1
 93
        7
 10
-2.785704210069443
 20
10.7376736111111
 10
0.0
 20
-7.550960286458332
 10
2.771234809027776
 20
10.7376736111111
 10
4.233333333333331
 20
10.7376736111111
 10
0.6910861545138888
 20
-10.7376736111111
 10
-0.7055555555555558
 20
-10.7376736111111
 10
-4.233333333333331
 20
10.7376736111111
 97
        0
 75
     2
 76
     1
 98
        1
 10
0.0
 20
0.0
  0
ENDBLK
  5
274C
330
2748
100
AcDbEntity
  8
0
100
AcDbBlockEnd
  0
BLOCK
  5
2750
330
274D
100
AcDbEntity
  8
0
 62
     7
100
AcDbBlockBegin
  2
AI9-BLK1
 70
     0
 10
0.0
 20
0.0
 30
0.0
  3
AI9-BLK1
  1

  0
LWPOLYLINE
  5
274E
330
274D
100
AcDbEntity
  8
LAYER_1
 62
     7
100
AcDbPolyline
 90
       12
 70
     1
 43
0.0
 10
-3.571874999999999
 20
10.7376736111111
 10
3.483680555555555
 20
10.7376736111111
 10
3.483680555555555
 20
8.091840277777777
 10
-2.248958333333332
 20
8.091840277777777
 10
-2.248958333333332
 20
1.565451388888888
 10
3.042708333333333
 20
1.565451388888888
 10
3.042708333333333
 20
-0.9039930555555551
 10
-2.248958333333332
 20
-0.9039930555555551
 10
-2.248958333333332
 20
-8.180034722222217
 10
3.571874999999999
 20
-8.180034722222217
 10
3.571874999999999
 20
-10.7376736111111
 10
-3.571874999999999
 20
-10.7376736111111
  0
HATCH
  5
274F
330
274D
100
AcDbEntity
  8
LAYER_1
 62
     7
100
AcDbHatch
 10
0.0
 20
0.0
 30
0.0
210
0.0
220
0.0
230
1.0
  2
SOLID
 70
     1
 71
     0
 91
        1
 92
        3
 72
     0
 73
     1
 93
       12
 10
-3.571874999999999
 20
10.7376736111111
 10
3.483680555555555
 20
10.7376736111111
 10
3.483680555555555
 20
8.091840277777777
 10
-2.248958333333332
 20
8.091840277777777
 10
-2.248958333333332
 20
1.565451388888888
 10
3.042708333333333
 20
1.565451388888888
 10
3.042708333333333
 20
-0.9039930555555551
 10
-2.248958333333332
 20
-0.9039930555555551
 10
-2.248958333333332
 20
-8.180034722222217
 10
3.571874999999999
 20
-8.180034722222217
 10
3.571874999999999
 20
-10.7376736111111
 10
-3.571874999999999
 20
-10.7376736111111
 97
        0
 75
     2
 76
     1
 98
        1
 10
0.0
 20
0.0
  0
ENDBLK
  5
2751
330
274D
100
AcDbEntity
  8
0
100
AcDbBlockEnd
  0
BLOCK
  5
2775
330
2752
100
AcDbEntity
  8
0
100
AcDbBlockBegin
  2
HD_LLC_logo_OT5
 70
     0
 10
0.0
 20
0.0
 30
0.0
  3
HD_LLC_logo_OT5
  1

  0
SPLINE
  5
2753
102
{ACAD_REACTORS
330
2773
102
}
330
2752
100
AcDbEntity
  8
LAYER_1
 62
     7
100
AcDbSpline
210
0.0
220
0.0
230
1.0
 70
    11
 71
     3
 72
   113
 73
   109
 74
     0
 42
0.0000000001
 43
0.0000000001
 40
0.0
 40
0.0
 40
0.0
 40
0.0
 40
1.0
 40
1.0
 40
1.0
 40
2.0
 40
2.0
 40
2.0
 40
3.0
 40
3.0
 40
3.0
 40
4.0
 40
4.0
 40
4.0
 40
5.0
 40
5.0
 40
5.0
 40
6.0
 40
6.0
 40
6.0
 40
7.0
 40
7.0
 40
7.0
 40
8.0
 40
8.0
 40
8.0
 40
9.0
 40
9.0
 40
9.0
 40
10.0
 40
10.0
 40
10.0
 40
11.0
 40
11.0
 40
11.0
 40
12.0
 40
12.0
 40
12.0
 40
13.0
 40
13.0
 40
13.0
 40
14.0
 40
14.0
 40
14.0
 40
15.0
 40
15.0
 40
15.0
 40
16.0
 40
16.0
 40
16.0
 40
17.0
 40
17.0
 40
17.0
 40
18.0
 40
18.0
 40
18.0
 40
19.0
 40
19.0
 40
19.0
 40
20.0
 40
20.0
 40
20.0
 40
21.0
 40
21.0
 40
21.0
 40
22.0
 40
22.0
 40
22.0
 40
23.0
 40
23.0
 40
23.0
 40
24.0
 40
24.0
 40
24.0
 40
25.0
 40
25.0
 40
25.0
 40
26.0
 40
26.0
 40
26.0
 40
27.0
 40
27.0
 40
27.0
 40
28.0
 40
28.0
 40
28.0
 40
29.0
 40
29.0
 40
29.0
 40
30.0
 40
30.0
 40
30.0
 40
31.0
 40
31.0
 40
31.0
 40
32.0
 40
32.0
 40
32.0
 40
33.0
 40
33.0
 40
33.0
 40
34.0
 40
34.0
 40
34.0
 40
35.0
 40
35.0
 40
35.0
 40
36.0
 40
36.0
 40
36.0
 40
36.0
 10
193.3039632161458
 20
186.1548733181423
 30
0.0
 10
193.3039632161458
 20
186.1860514322916
 30
0.0
 10
193.3039632161458
 20
219.6932223849826
 30
0.0
 10
193.3039632161458
 20
219.6932223849826
 30
0.0
 10
193.3039632161458
 20
219.6932223849826
 30
0.0
 10
193.2974175347219
 20
219.7488606770833
 30
0.0
 10
193.2974175347219
 20
219.7488606770833
 30
0.0
 10
191.5293945312499
 20
235.455740017361
 30
0.0
 10
175.1458984374999
 20
235.2467949761284
 30
0.0
 10
174.9808783637151
 20
235.2428331163193
 30
0.0
 10
174.9808783637151
 20
235.2428331163193
 30
0.0
 10
125.8827555338541
 20
235.2430053710937
 30
0.0
 10
125.8827555338541
 20
235.2430053710937
 30
0.0
 10
125.8827555338541
 20
235.2430053710937
 30
0.0
 10
125.8827555338541
 20
255.5278998480901
 30
0.0
 10
125.8827555338541
 20
255.5278998480901
 30
0.0
 10
125.8827555338541
 20
255.5278998480901
 30
0.0
 10
84.5626247829861
 20
255.5278998480901
 30
0.0
 10
84.5626247829861
 20
255.5278998480901
 30
0.0
 10
84.5626247829861
 20
255.5278998480901
 30
0.0
 10
84.55711263020829
 20
233.7919311523436
 30
0.0
 10
84.55711263020829
 20
233.7919311523436
 30
0.0
 10
84.55711263020829
 20
233.7919311523436
 30
0.0
 10
64.42052951388888
 20
233.7919311523436
 30
0.0
 10
64.42052951388888
 20
233.7919311523436
 30
0.0
 10
64.42052951388888
 20
233.7919311523436
 30
0.0
 10
64.41501736111111
 20
255.5278998480901
 30
0.0
 10
64.41501736111111
 20
255.5278998480901
 30
0.0
 10
64.41501736111111
 20
255.5278998480901
 30
0.0
 10
23.91757541232637
 20
255.5278998480901
 30
0.0
 10
23.91757541232637
 20
255.5278998480901
 30
0.0
 10
23.91757541232637
 20
255.5278998480901
 30
0.0
 10
23.91757541232637
 20
233.2393378363715
 30
0.0
 10
23.91757541232637
 20
233.2393378363715
 30
0.0
 10
23.91757541232637
 20
233.2393378363715
 30
0.0
 10
43.65624999999999
 20
233.2393378363715
 30
0.0
 10
43.65624999999999
 20
233.2393378363715
 30
0.0
 10
43.65624999999999
 20
233.2393378363715
 30
0.0
 10
43.65624999999999
 20
211.5188720703125
 30
0.0
 10
43.65624999999999
 20
211.5188720703125
 30
0.0
 10
43.65624999999999
 20
211.5188720703125
 30
0.0
 10
23.91757541232637
 20
211.5188720703125
 30
0.0
 10
23.91757541232637
 20
211.5188720703125
 30
0.0
 10
23.91757541232637
 20
211.5188720703125
 30
0.0
 10
23.91757541232637
 20
189.2303100585936
 30
0.0
 10
23.91757541232637
 20
189.2303100585936
 30
0.0
 10
23.91757541232637
 20
189.2303100585936
 30
0.0
 10
64.41501736111111
 20
189.2303100585936
 30
0.0
 10
64.41501736111111
 20
189.2303100585936
 30
0.0
 10
64.41501736111111
 20
189.2303100585936
 30
0.0
 10
64.42052951388888
 20
211.069976128472
 30
0.0
 10
64.42052951388888
 20
211.069976128472
 30
0.0
 10
64.42052951388888
 20
211.069976128472
 30
0.0
 10
84.55711263020829
 20
211.069976128472
 30
0.0
 10
84.55711263020829
 20
211.069976128472
 30
0.0
 10
84.55711263020829
 20
211.069976128472
 30
0.0
 10
84.5626247829861
 20
189.2303100585936
 30
0.0
 10
84.5626247829861
 20
189.2303100585936
 30
0.0
 10
84.5626247829861
 20
189.2303100585936
 30
0.0
 10
125.8827555338541
 20
189.2303100585936
 30
0.0
 10
125.8827555338541
 20
189.2303100585936
 30
0.0
 10
125.8827555338541
 20
189.2303100585936
 30
0.0
 10
125.8827555338541
 20
211.5188720703125
 30
0.0
 10
125.8827555338541
 20
211.5188720703125
 30
0.0
 10
125.8827555338541
 20
211.5188720703125
 30
0.0
 10
105.3213921440971
 20
211.5188720703125
 30
0.0
 10
105.3213921440971
 20
211.5188720703125
 30
0.0
 10
105.3213921440971
 20
211.5188720703125
 30
0.0
 10
105.3213921440971
 20
233.2393378363715
 30
0.0
 10
105.3213921440971
 20
233.2393378363715
 30
0.0
 10
105.3213921440971
 20
233.2393378363715
 30
0.0
 10
175.0046495225693
 20
233.243127441406
 30
0.0
 10
175.0046495225693
 20
233.243127441406
 30
0.0
 10
175.6268337673611
 20
233.2560465494791
 30
0.0
 10
189.7165852864583
 20
233.3962619357638
 30
0.0
 10
191.3037407769094
 20
219.5690266927083
 30
0.0
 10
191.3037407769094
 20
219.4332899305555
 30
0.0
 10
191.3037407769094
 20
186.1142211914062
 30
0.0
 10
191.3037407769094
 20
186.1142211914062
 30
0.0
 10
191.3037407769094
 20
186.1142211914062
 30
0.0
 10
191.3051188151039
 20
186.0880384657115
 30
0.0
 10
191.3051188151039
 20
186.0880384657115
 30
0.0
 10
191.3054633246526
 20
186.0787367078991
 30
0.0
 10
191.3109754774304
 20
185.9566080729166
 30
0.0
 10
191.3109754774304
 20
185.7399115668401
 30
0.0
 10
191.3109754774304
 20
184.2090833875865
 30
0.0
 10
191.0488037109374
 20
177.9643310546874
 30
0.0
 10
186.9866916232638
 20
173.5652886284722
 30
0.0
 10
184.2540418836804
 20
170.6064683702255
 30
0.0
 10
180.3224989149304
 20
169.0308539496526
 30
0.0
 10
175.300927734375
 20
168.8825425889756
 30
0.0
 10
175.300927734375
 20
168.8825425889756
 30
0.0
 10
107.0094889322916
 20
168.8828870985243
 30
0.0
 10
107.0094889322916
 20
168.8828870985243
 30
0.0
 10
107.0094889322916
 20
168.8828870985243
 30
0.0
 10
107.0094889322916
 20
166.8830091688368
 30
0.0
 10
107.0094889322916
 20
166.8830091688368
 30
0.0
 10
107.0094889322916
 20
166.8830091688368
 30
0.0
 10
175.3305555555555
 20
166.8830091688368
 30
0.0
 10
175.3305555555555
 20
166.8830091688368
 30
0.0
 10
180.9467502170138
 20
167.0485460069444
 30
0.0
 10
185.3571614583333
 20
168.8448187934026
 30
0.0
 10
188.4687717013888
 20
172.2223904079861
 30
0.0
 10
192.9649658203124
 20
177.1034016927083
 30
0.0
 10
193.3136094835069
 20
183.7202243381076
 30
0.0
 10
193.3136094835069
 20
185.6520616319443
 30
0.0
 10
193.3136094835069
 20
185.9247409396701
 30
0.0
 10
193.3070638020833
 20
186.0868326822916
 30
0.0
 10
193.3039632161458
 20
186.1548733181423
 30
0.0
  0
INSERT
  5
2754
102
{ACAD_REACTORS
330
2774
102
}
330
2752
100
AcDbEntity
  8
LAYER_1
 62
     7
100
AcDbBlockReference
  2
AI9-BLK14
 10
159.5625257703993
 20
200.5118781195744
 30
0.0
  0
INSERT
  5
2755
330
2752
100
AcDbEntity
  8
LAYER_1
 62
     7
100
AcDbBlockReference
  2
AI9-BLK13
 10
27.69615614149305
 20
179.2145562065971
 30
0.0
 42
0.9200000000000001
  0
INSERT
  5
2756
102
{ACAD_REACTORS
330
2761
102
}
330
2752
100
AcDbEntity
  8
LAYER_1
 62
     7
100
AcDbBlockReference
  2
AI9-BLK11
 10
44.76591525607638
 20
179.2145562065971
 30
0.0
 42
0.9200000000000001
  0
INSERT
  5
2757
102
{ACAD_REACTORS
330
276F
102
}
330
2752
100
AcDbEntity
  8
LAYER_1
 62
     7
100
AcDbBlockReference
  2
AI9-BLK10
 10
54.04665798611111
 20
179.2145562065971
 30
0.0
 42
0.9200000000000001
  0
INSERT
  5
2758
102
{ACAD_REACTORS
330
276E
102
}
330
2752
100
AcDbEntity
  8
LAYER_1
 62
     7
100
AcDbBlockReference
  2
AI9-BLK9
 10
62.79013807508679
 20
179.2145562065971
 30
0.0
 42
0.9
  0
INSERT
  5
2759
330
2752
100
AcDbEntity
  8
LAYER_1
 62
     7
100
AcDbBlockReference
  2
AI9-BLK8
 10
71.03046196831595
 20
179.2145562065971
 30
0.0
 42
0.9200000000000001
  0
INSERT
  5
275A
330
2752
100
AcDbEntity
  8
LAYER_1
 62
     7
100
AcDbBlockReference
  2
AI9-BLK7
 10
76.93793945312498
 20
179.2145562065971
 30
0.0
 42
0.9200000000000001
  0
INSERT
  5
275B
102
{ACAD_REACTORS
330
2762
102
}
330
2752
100
AcDbEntity
  8
LAYER_1
 62
     7
100
AcDbBlockReference
  2
AI9-BLK6
 10
82.55602891710069
 20
179.2145562065971
 30
0.0
 42
0.9
  0
INSERT
  5
275C
102
{ACAD_REACTORS
330
2770
102
}
330
2752
100
AcDbEntity
  8
LAYER_1
 62
     7
100
AcDbBlockReference
  2
AI9-BLK5
 10
94.32430284288193
 20
179.2145562065971
 30
0.0
 42
0.9200000000000001
  0
INSERT
  5
275D
102
{ACAD_REACTORS
330
2771
102
}
330
2752
100
AcDbEntity
  8
LAYER_1
 62
     7
100
AcDbBlockReference
  2
AI9-BLK4
 10
103.2081705729166
 20
179.2145562065971
 30
0.0
 42
0.9200000000000001
  0
INSERT
  5
275E
330
2752
100
AcDbEntity
  8
LAYER_1
 62
     7
100
AcDbBlockReference
  2
AI9-BLK3
 10
108.850978597005
 20
179.2145562065971
 30
0.0
 42
0.9200000000000001
  0
INSERT
  5
275F
330
2752
100
AcDbEntity
  8
LAYER_1
 62
     7
100
AcDbBlockReference
  2
AI9-BLK2
 10
114.2045708550346
 20
179.2145562065971
 30
0.0
 42
0.9200000000000001
  0
INSERT
  5
2760
330
2752
100
AcDbEntity
  8
LAYER_1
 62
     7
100
AcDbBlockReference
  2
AI9-BLK1
 10
122.4125108506944
 20
179.2145562065971
 30
0.0
 42
0.9200000000000001
  0
HATCH
  5
2761
330
2752
100
AcDbEntity
  8
0
  6
Continuous
100
AcDbHatch
 10
0.0
 20
0.0
 30
0.0
210
0.0
220
0.0
230
1.0
  2
SOLID
 70
     1
 71
     1
 91
        2
 92
       16
 93
        1
 72
     4
 94
        3
 73
     0
 74
     0
 95
       26
 96
       22
 40
0.0
 40
0.0
 40
0.0
 40
0.0
 40
1.0
 40
1.0
 40
1.0
 40
2.0
 40
2.0
 40
2.0
 40
3.0
 40
3.0
 40
3.0
 40
4.0
 40
4.0
 40
4.0
 40
5.0
 40
5.0
 40
5.0
 40
6.0
 40
6.0
 40
6.0
 40
7.0
 40
7.0
 40
7.0
 40
7.0
 10
42.12008192274304
 20
180.046229817708
 10
42.12008192274304
 20
180.046229817708
 10
42.12008192274304
 20
186.7401881510414
 10
42.12008192274304
 20
186.7401881510414
 10
42.12008192274304
 20
186.7401881510414
 10
45.23100314670138
 20
186.7401881510414
 10
45.23100314670138
 20
186.7401881510414
 10
45.66853027343749
 20
186.7401881510414
 10
46.01579589843749
 20
186.6064357638887
 10
46.27280002170138
 20
186.3401987847216
 10
46.76751573350694
 20
185.8330807291664
 10
47.01487358940972
 20
184.8822343749995
 10
47.01487358940972
 20
183.4863919270832
 10
47.01487358940972
 20
182.188169704861
 10
46.83848470052082
 20
181.2905707465276
 10
46.48639594184028
 20
180.7929611545137
 10
46.13430718315971
 20
180.2947176649304
 10
45.65888400607638
 20
180.046229817708
 10
45.06012641059028
 20
180.046229817708
 10
45.06012641059028
 20
180.046229817708
 10
42.12008192274304
 20
180.046229817708
 10
42.12008192274304
 20
180.046229817708
 97
        1
330
2756
 92
        1
 93
        1
 72
     4
 94
        3
 73
     0
 74
     0
 95
       68
 96
       64
 40
0.0
 40
0.0
 40
0.0
 40
0.0
 40
1.0
 40
1.0
 40
1.0
 40
2.0
 40
2.0
 40
2.0
 40
3.0
 40
3.0
 40
3.0
 40
4.0
 40
4.0
 40
4.0
 40
5.0
 40
5.0
 40
5.0
 40
6.0
 40
6.0
 40
6.0
 40
7.0
 40
7.0
 40
7.0
 40
8.0
 40
8.0
 40
8.0
 40
9.0
 40
9.0
 40
9.0
 40
10.0
 40
10.0
 40
10.0
 40
11.0
 40
11.0
 40
11.0
 40
12.0
 40
12.0
 40
12.0
 40
13.0
 40
13.0
 40
13.0
 40
14.0
 40
14.0
 40
14.0
 40
15.0
 40
15.0
 40
15.0
 40
16.0
 40
16.0
 40
16.0
 40
17.0
 40
17.0
 40
17.0
 40
18.0
 40
18.0
 40
18.0
 40
19.0
 40
19.0
 40
19.0
 40
20.0
 40
20.0
 40
20.0
 40
21.0
 40
21.0
 40
21.0
 40
21.0
 10
40.79716525607638
 20
169.3358964843748
 10
40.79716525607638
 20
169.3358964843748
 10
42.12008192274304
 20
169.3358964843748
 10
42.12008192274304
 20
169.3358964843748
 10
42.12008192274304
 20
169.3358964843748
 10
42.12008192274304
 20
177.8149103732637
 10
42.12008192274304
 20
177.8149103732637
 10
42.12008192274304
 20
177.8149103732637
 10
45.00500488281249
 20
177.8149103732637
 10
45.00500488281249
 20
177.8149103732637
 10
45.52590332031249
 20
177.8149103732637
 10
45.90968695746528
 20
177.6938359374998
 10
46.15635579427083
 20
177.4516870659717
 10
46.58216959635415
 20
177.0117621527776
 10
46.80954589843749
 20
176.1458580729164
 10
46.83848470052082
 20
174.8539748263887
 10
46.83848470052082
 20
174.8539748263887
 10
46.92667914496527
 20
171.5564396701385
 10
46.92667914496527
 20
171.5564396701385
 10
46.94597167968749
 20
170.7843524305554
 10
46.96870930989581
 20
170.2639225260415
 10
46.99351399739582
 20
169.9951499565971
 10
47.01831868489581
 20
169.725743489583
 10
47.0548366970486
 20
169.5057810329859
 10
47.10444607204859
 20
169.3358964843748
 10
47.10444607204859
 20
169.3358964843748
 10
48.73466525607638
 20
169.3358964843748
 10
48.73466525607638
 20
169.3358964843748
 10
48.73466525607638
 20
169.3358964843748
 10
48.73466525607638
 20
169.7821603732633
 10
48.73466525607638
 20
169.7821603732633
 10
48.53278266059028
 20
169.9609194878471
 10
48.39153374565971
 20
170.3628105468748
 10
48.31160753038194
 20
170.9878335503471
 10
48.26062011718749
 20
171.3542263454858
 10
48.22548014322915
 20
171.9120562065971
 10
48.20549858940971
 20
172.6625909288193
 10
48.20549858940971
 20
172.6625909288193
 10
48.16140136718749
 20
175.3205234374999
 10
48.16140136718749
 20
175.3205234374999
 10
48.14141981336803
 20
176.4716814236109
 10
48.03462185329859
 20
177.3033550347219
 10
47.84169650607638
 20
177.814276475694
 10
47.64808213975693
 20
178.3251979166665
 10
47.35800509982638
 20
178.7372313368054
 10
46.97077636718749
 20
179.0516445312498
 10
47.4021023220486
 20
179.5086846788193
 10
47.73765462239582
 20
180.1134229600693
 10
47.97743326822915
 20
180.866493272569
 10
48.21721191406249
 20
181.6189296874999
 10
48.33779025607638
 20
182.5868912760411
 10
48.33779025607638
 20
183.7697441406248
 10
48.33779025607638
 20
186.0371957465273
 10
47.89061686197913
 20
187.5921464843749
 10
46.99695909288194
 20
188.4345963541665
 10
46.52567003038194
 20
188.8732534722221
 10
45.92966851128472
 20
189.0932159288193
 10
45.20895453559027
 20
189.0932159288193
 10
45.20895453559027
 20
189.0932159288193
 10
40.79716525607638
 20
189.0932159288193
 10
40.79716525607638
 20
189.0932159288193
 10
40.79716525607638
 20
189.0932159288193
 10
40.79716525607638
 20
169.3358964843748
 10
40.79716525607638
 20
169.3358964843748
 97
        0
 75
     0
 76
     1
 98
        0
  0
HATCH
  5
2762
330
2752
100
AcDbEntity
  8
0
  6
Continuous
100
AcDbHatch
 10
0.0
 20
0.0
 30
0.0
210
0.0
220
0.0
230
1.0
  2
SOLID
 70
     1
 71
     1
 91
        1
 92
        1
 93
        1
 72
     4
 94
        3
 73
     0
 74
     0
 95
       59
 96
       55
 40
0.0
 40
0.0
 40
0.0
 40
0.0
 40
1.0
 40
1.0
 40
1.0
 40
2.0
 40
2.0
 40
2.0
 40
3.0
 40
3.0
 40
3.0
 40
4.0
 40
4.0
 40
4.0
 40
5.0
 40
5.0
 40
5.0
 40
6.0
 40
6.0
 40
6.0
 40
7.0
 40
7.0
 40
7.0
 40
8.0
 40
8.0
 40
8.0
 40
9.0
 40
9.0
 40
9.0
 40
10.0
 40
10.0
 40
10.0
 40
11.0
 40
11.0
 40
11.0
 40
12.0
 40
12.0
 40
12.0
 40
13.0
 40
13.0
 40
13.0
 40
14.0
 40
14.0
 40
14.0
 40
15.0
 40
15.0
 40
15.0
 40
16.0
 40
16.0
 40
16.0
 40
17.0
 40
17.0
 40
17.0
 40
18.0
 40
18.0
 40
18.0
 40
18.0
 10
85.61871880425345
 20
187.4658355034721
 10
86.29120144314232
 20
186.1797124565971
 10
86.66671685112847
 20
184.7193364800346
 10
86.7452650282118
 20
183.0840874565969
 10
86.7452650282118
 20
183.0840874565969
 10
85.42234836154511
 20
183.0840874565969
 10
85.42234836154511
 20
183.0840874565969
 10
85.27696533203123
 20
184.3156401909719
 10
84.99171142578125
 20
185.2917046440971
 10
84.56589762369791
 20
186.0122808159719
 10
84.14008382161458
 20
186.7322368706594
 10
83.53994818793401
 20
187.0925249565969
 10
82.76617974175342
 20
187.0925249565969
 10
81.81740044487847
 20
187.0925249565969
 10
81.05258924696178
 20
186.4240386284721
 10
80.47243516710068
 20
185.0883062065971
 10
79.89159206814234
 20
183.7525737847219
 10
79.6015150282118
 20
181.7049468315971
 10
79.6015150282118
 20
178.9454253472221
 10
79.6015150282118
 20
176.6844780815969
 10
79.86265326605901
 20
174.8514116753471
 10
80.38561876085069
 20
173.4456060112846
 10
80.90789523654512
 20
172.0391802300344
 10
81.69199896918403
 20
171.3365874565971
 10
82.73724093967013
 20
171.3365874565971
 10
83.69497748480901
 20
171.3365874565971
 10
84.42120361328125
 20
172.0794878472221
 10
84.91523030598958
 20
173.5665288628469
 10
85.18601481119791
 20
174.3491167534719
 10
85.38445231119791
 20
175.3785112847221
 10
85.51054280598959
 20
176.6547124565971
 10
85.51054280598959
 20
176.6547124565971
 10
86.83345947265625
 20
176.6547124565971
 10
86.83345947265625
 20
176.6547124565971
 10
86.72597249348957
 20
174.6157671440971
 10
86.35114610460069
 20
172.9061040581596
 10
85.70760226779514
 20
171.526343315972
 10
84.93727891710069
 20
169.8650493706596
 10
83.90375027126735
 20
169.0347124565971
 10
82.60701633029514
 20
169.0347124565971
 10
81.48598225911458
 20
169.0347124565971
 10
80.54547119140625
 20
169.7143608940971
 10
79.78479410807292
 20
171.0742778862845
 10
78.78020426432292
 20
172.8726177300344
 10
78.27859836154512
 20
175.6495024956596
 10
78.27859836154512
 20
179.4049321831594
 10
78.27859836154512
 20
182.2562310112846
 10
78.65342475043402
 20
184.5946929253469
 10
79.40445556640622
 20
186.4196978081596
 10
80.22301025390625
 20
188.4028325737846
 10
81.34955647786458
 20
189.3943999565971
 10
82.78271620008679
 20
189.3943999565971
 10
84.00090196397568
 20
189.3943999565971
 10
84.94623616536458
 20
188.7513384331594
 10
85.61871880425345
 20
187.4658355034721
 97
        1
330
275B
 75
     0
 76
     1
 98
        1
 10
0.0
 20
0.0
  0
LINE
  5
2763
102
{ACAD_REACTORS
330
2772
102
}
330
2752
100
AcDbEntity
  8
LAYER_1
 62
     7
100
AcDbLine
 10
34.65766059027778
 20
177.4497853732638
 30
0.0
 11
36.19830729166666
 21
186.1658769531249
 31
0.0
  0
LINE
  5
2764
102
{ACAD_REACTORS
330
2772
102
}
330
2752
100
AcDbEntity
  8
LAYER_1
 62
     7
100
AcDbLine
 10
36.19830729166666
 20
186.1658769531249
 30
0.0
 11
37.67556423611111
 21
177.4497853732638
 31
0.0
  0
LINE
  5
2765
102
{ACAD_REACTORS
330
2772
102
}
330
2752
100
AcDbEntity
  8
LAYER_1
 62
     7
100
AcDbLine
 10
37.67556423611111
 20
177.4497853732638
 30
0.0
 11
34.65766059027778
 21
177.4497853732638
 31
0.0
  0
LINE
  5
2766
102
{ACAD_REACTORS
330
2772
102
}
330
2752
100
AcDbEntity
  8
LAYER_1
 62
     7
100
AcDbLine
 10
31.83957248263888
 20
169.3358964843748
 30
0.0
 11
33.22450086805555
 21
169.3358964843748
 31
0.0
  0
LINE
  5
2767
102
{ACAD_REACTORS
330
2772
102
}
330
2752
100
AcDbEntity
  8
LAYER_1
 62
     7
100
AcDbLine
 10
33.22450086805555
 20
169.3358964843748
 30
0.0
 11
34.27043185763887
 21
175.2590353732638
 31
0.0
  0
LINE
  5
2768
102
{ACAD_REACTORS
330
2772
102
}
330
2752
100
AcDbEntity
  8
LAYER_1
 62
     7
100
AcDbLine
 10
34.27043185763887
 20
175.2590353732638
 30
0.0
 11
38.04694552951389
 21
175.2590353732638
 31
0.0
  0
LINE
  5
2769
102
{ACAD_REACTORS
330
2772
102
}
330
2752
100
AcDbEntity
  8
LAYER_1
 62
     7
100
AcDbLine
 10
38.04694552951389
 20
175.2590353732638
 30
0.0
 11
39.05015733506942
 21
169.3358964843748
 31
0.0
  0
LINE
  5
276A
102
{ACAD_REACTORS
330
2772
102
}
330
2752
100
AcDbEntity
  8
LAYER_1
 62
     7
100
AcDbLine
 10
39.05015733506942
 20
169.3358964843748
 30
0.0
 11
40.43508572048611
 21
169.3358964843748
 31
0.0
  0
LINE
  5
276B
102
{ACAD_REACTORS
330
2772
102
}
330
2752
100
AcDbEntity
  8
LAYER_1
 62
     7
100
AcDbLine
 10
40.43508572048611
 20
169.3358964843748
 30
0.0
 11
36.952783203125
 21
189.0932159288193
 31
0.0
  0
LINE
  5
276C
102
{ACAD_REACTORS
330
2772
102
}
330
2752
100
AcDbEntity
  8
LAYER_1
 62
     7
100
AcDbLine
 10
36.952783203125
 20
189.0932159288193
 30
0.0
 11
35.47828233506943
 21
189.0932159288193
 31
0.0
  0
LINE
  5
276D
102
{ACAD_REACTORS
330
2772
102
}
330
2752
100
AcDbEntity
  8
LAYER_1
 62
     7
100
AcDbLine
 10
35.47828233506943
 20
189.0932159288193
 30
0.0
 11
31.83957248263888
 21
169.3358964843748
 31
0.0
  0
HATCH
  5
276E
330
2752
100
AcDbEntity
  8
0
  6
Continuous
100
AcDbHatch
 10
0.0
 20
0.0
 30
0.0
210
0.0
220
0.0
230
1.0
  2
SOLID
 70
     1
 71
     1
 91
        2
 92
       16
 93
        1
 72
     4
 94
        3
 73
     0
 74
     0
 95
       29
 96
       25
 40
0.0
 40
0.0
 40
0.0
 40
0.0
 40
1.0
 40
1.0
 40
1.0
 40
2.0
 40
2.0
 40
2.0
 40
3.0
 40
3.0
 40
3.0
 40
4.0
 40
4.0
 40
4.0
 40
5.0
 40
5.0
 40
5.0
 40
6.0
 40
6.0
 40
6.0
 40
7.0
 40
7.0
 40
7.0
 40
8.0
 40
8.0
 40
8.0
 40
8.0
 10
62.85697292751734
 20
171.3365874565971
 10
61.88338894314235
 20
171.3365874565971
 10
61.18058946397566
 20
172.0714263237844
 10
60.74857449001735
 20
173.5411040581594
 10
60.31587049696178
 20
175.0107817925344
 10
60.10020751953123
 20
176.8165630425341
 10
60.10020751953123
 20
178.9578276909721
 10
60.10020751953123
 20
181.6342534722221
 10
60.35101047092013
 20
183.6589360894094
 10
60.85261637369789
 20
185.0324956597219
 10
61.35422227647566
 20
186.4054351128471
 10
62.00741238064235
 20
187.0925249565969
 10
62.81218668619789
 20
187.0925249565969
 10
63.6369425455729
 20
187.0925249565969
 10
64.28806559244789
 20
186.3992339409721
 10
64.76486680772568
 20
185.0126519097221
 10
65.24166802300347
 20
183.6260698784719
 10
65.48006863064235
 20
181.7961040581594
 10
65.48006863064235
 20
179.5239946831596
 10
65.48006863064235
 20
177.3734282769096
 10
65.27336290147568
 20
175.4715288628467
 10
64.86132948133678
 20
173.8176763237846
 10
64.4492960611979
 20
172.1632036675344
 10
63.78094753689235
 20
171.3365874565971
 10
62.85697292751734
 20
171.3365874565971
 97
        1
330
2758
 92
        1
 93
        1
 72
     4
 94
        3
 73
     0
 74
     0
 95
       29
 96
       25
 40
0.0
 40
0.0
 40
0.0
 40
0.0
 40
1.0
 40
1.0
 40
1.0
 40
2.0
 40
2.0
 40
2.0
 40
3.0
 40
3.0
 40
3.0
 40
4.0
 40
4.0
 40
4.0
 40
5.0
 40
5.0
 40
5.0
 40
6.0
 40
6.0
 40
6.0
 40
7.0
 40
7.0
 40
7.0
 40
8.0
 40
8.0
 40
8.0
 40
8.0
 10
62.76119927300346
 20
189.4340874565971
 10
61.47273356119789
 20
189.4340874565971
 10
60.50121663411457
 20
188.2397417534719
 10
59.84733751085068
 20
185.8516704644094
 10
59.3395304361979
 20
183.9900786675344
 10
59.08597140842012
 20
181.7514556206596
 10
59.08597140842012
 20
179.1351812065971
 10
59.08597140842012
 20
176.2379937065971
 10
59.3836276584201
 20
173.8412407769094
 10
59.9789401584201
 20
171.9449224175346
 10
60.6424655490451
 20
169.9779106987846
 10
61.5602389865451
 20
168.9950249565971
 10
62.7315714518229
 20
168.9950249565971
 10
63.9904093424479
 20
168.9950249565971
 10
64.95641411675345
 20
170.1186773003469
 10
65.63027479383679
 20
172.3659819878471
 10
66.20629475911457
 20
174.2796636284719
 10
66.49430474175345
 20
176.6813774956591
 10
66.49430474175345
 20
179.5698833550344
 10
66.49430474175345
 20
182.2388677300341
 10
66.24005669487845
 20
184.4291216362844
 10
65.73293863932289
 20
186.1412651909719
 10
65.08870578342011
 20
188.3364800347219
 10
64.09789632161457
 20
189.4340874565971
 10
62.76119927300346
 20
189.4340874565971
 97
        0
 75
     0
 76
     1
 98
        0
  0
HATCH
  5
276F
330
2752
100
AcDbEntity
  8
0
  6
Continuous
100
AcDbHatch
 10
0.0
 20
0.0
 30
0.0
210
0.0
220
0.0
230
1.0
  2
SOLID
 70
     1
 71
     1
 91
        1
 92
        1
 93
        1
 72
     4
 94
        3
 73
     0
 74
     0
 95
       59
 96
       55
 40
0.0
 40
0.0
 40
0.0
 40
0.0
 40
1.0
 40
1.0
 40
1.0
 40
2.0
 40
2.0
 40
2.0
 40
3.0
 40
3.0
 40
3.0
 40
4.0
 40
4.0
 40
4.0
 40
5.0
 40
5.0
 40
5.0
 40
6.0
 40
6.0
 40
6.0
 40
7.0
 40
7.0
 40
7.0
 40
8.0
 40
8.0
 40
8.0
 40
9.0
 40
9.0
 40
9.0
 40
10.0
 40
10.0
 40
10.0
 40
11.0
 40
11.0
 40
11.0
 40
12.0
 40
12.0
 40
12.0
 40
13.0
 40
13.0
 40
13.0
 40
14.0
 40
14.0
 40
14.0
 40
15.0
 40
15.0
 40
15.0
 40
16.0
 40
16.0
 40
16.0
 40
17.0
 40
17.0
 40
17.0
 40
18.0
 40
18.0
 40
18.0
 40
18.0
 10
49.39440104166666
 20
189.0932159288193
 10
49.39440104166666
 20
189.0932159288193
 10
51.24786241319444
 20
189.0932159288193
 10
51.24786241319444
 20
189.0932159288193
 10
51.24786241319444
 20
189.0932159288193
 10
54.04665798611111
 20
172.3887471788193
 10
54.04665798611111
 20
172.3887471788193
 10
54.04665798611111
 20
172.3887471788193
 10
56.83994140624999
 20
189.0932159288193
 10
56.83994140624999
 20
189.0932159288193
 10
56.83994140624999
 20
189.0932159288193
 10
58.69891493055553
 20
189.0932159288193
 10
58.69891493055553
 20
189.0932159288193
 10
58.69891493055553
 20
189.0932159288193
 10
58.69891493055553
 20
169.3358964843748
 10
58.69891493055553
 20
169.3358964843748
 10
58.69891493055553
 20
169.3358964843748
 10
57.46419270833333
 20
169.3358964843748
 10
57.46419270833333
 20
169.3358964843748
 10
57.46419270833333
 20
169.3358964843748
 10
57.46419270833333
 20
180.9964422743054
 10
57.46419270833333
 20
180.9964422743054
 10
57.46419270833333
 20
181.3996011284721
 10
57.47108289930555
 20
182.0677291666664
 10
57.48624131944444
 20
183.0001924913193
 10
57.50071072048609
 20
183.9326558159721
 10
57.50828993055553
 20
184.932312282986
 10
57.50828993055553
 20
185.9997957899304
 10
57.50828993055553
 20
185.9997957899304
 10
54.700537109375
 20
169.3358964843748
 10
54.700537109375
 20
169.3358964843748
 10
54.700537109375
 20
169.3358964843748
 10
53.38382161458333
 20
169.3358964843748
 10
53.38382161458333
 20
169.3358964843748
 10
53.38382161458333
 20
169.3358964843748
 10
50.58502604166665
 20
185.9997957899304
 10
50.58502604166665
 20
185.9997957899304
 10
50.58502604166665
 20
185.9997957899304
 10
50.58502604166665
 20
185.3944236111109
 10
50.58502604166665
 20
185.3944236111109
 10
50.58502604166665
 20
184.9101258680554
 10
50.59191623263888
 20
184.1729029947915
 10
50.60707465277777
 20
183.1821210937498
 10
50.62154405381942
 20
182.1913391927082
 10
50.62912326388889
 20
181.4629908854165
 10
50.62912326388889
 20
180.9964422743054
 10
50.62912326388889
 20
180.9964422743054
 10
50.62912326388889
 20
169.3358964843748
 10
50.62912326388889
 20
169.3358964843748
 10
50.62912326388889
 20
169.3358964843748
 10
49.39440104166666
 20
169.3358964843748
 10
49.39440104166666
 20
169.3358964843748
 10
49.39440104166666
 20
169.3358964843748
 10
49.39440104166666
 20
189.0932159288193
 10
49.39440104166666
 20
189.0932159288193
 97
        1
330
2757
 75
     0
 76
     1
 98
        1
 10
0.0
 20
0.0
  0
HATCH
  5
2770
330
2752
100
AcDbEntity
  8
0
  6
Continuous
100
AcDbHatch
 10
0.0
 20
0.0
 30
0.0
210
0.0
220
0.0
230
1.0
  2
SOLID
 70
     1
 71
     1
 91
        2
 92
       16
 93
        1
 72
     4
 94
        3
 73
     0
 74
     0
 95
       32
 96
       28
 40
0.0
 40
0.0
 40
0.0
 40
0.0
 40
1.0
 40
1.0
 40
1.0
 40
2.0
 40
2.0
 40
2.0
 40
3.0
 40
3.0
 40
3.0
 40
4.0
 40
4.0
 40
4.0
 40
5.0
 40
5.0
 40
5.0
 40
6.0
 40
6.0
 40
6.0
 40
7.0
 40
7.0
 40
7.0
 40
8.0
 40
8.0
 40
8.0
 40
9.0
 40
9.0
 40
9.0
 40
9.0
 10
91.70051812065969
 20
171.6077853732634
 10
91.70051812065969
 20
171.6077853732634
 10
91.70051812065969
 20
186.7401881510414
 10
91.70051812065969
 20
186.7401881510414
 10
91.70051812065969
 20
186.7401881510414
 10
93.98668348524305
 20
186.7401881510414
 10
93.98668348524305
 20
186.7401881510414
 10
95.02159016927082
 20
186.7401881510414
 10
95.77331000434028
 20
186.0644533420137
 10
96.24322102864582
 20
184.7142515190969
 10
96.71313205295138
 20
183.3640496961804
 10
96.94808756510417
 20
181.4680620659721
 10
96.94808756510417
 20
179.0262886284719
 10
96.94808756510417
 20
178.3911232638887
 10
96.91432562934028
 20
177.7027105034721
 10
96.84749077690971
 20
176.9604164496524
 10
96.7324245876736
 20
175.7167094184024
 10
96.55052354600693
 20
174.6974021267359
 10
96.30109863281248
 20
173.901860677083
 10
95.98414984809028
 20
172.9091770833332
 10
95.57693956163193
 20
172.2378795572914
 10
95.07877875434026
 20
171.8892358940971
 10
94.79076877170138
 20
171.7016022135415
 10
94.43178982204859
 20
171.6077853732634
 10
94.00115288628471
 20
171.6077853732634
 10
94.00115288628471
 20
171.6077853732634
 10
91.70051812065969
 20
171.6077853732634
 10
91.70051812065969
 20
171.6077853732634
 97
        1
330
275C
 92
        1
 93
        1
 72
     4
 94
        3
 73
     0
 74
     0
 95
       26
 96
       22
 40
0.0
 40
0.0
 40
0.0
 40
0.0
 40
1.0
 40
1.0
 40
1.0
 40
2.0
 40
2.0
 40
2.0
 40
3.0
 40
3.0
 40
3.0
 40
4.0
 40
4.0
 40
4.0
 40
5.0
 40
5.0
 40
5.0
 40
6.0
 40
6.0
 40
6.0
 40
7.0
 40
7.0
 40
7.0
 40
7.0
 10
90.37760145399305
 20
169.3358964843748
 10
90.37760145399305
 20
169.3358964843748
 10
94.22990722656248
 20
169.3358964843748
 10
94.22990722656248
 20
169.3358964843748
 10
95.87115071614581
 20
169.3358964843748
 10
97.03008083767359
 20
170.8331625434026
 10
97.70600857204859
 20
173.8283285590274
 10
98.08221299913194
 20
175.5227367621523
 10
98.27100423177082
 20
177.4187243923609
 10
98.27100423177082
 20
179.5169253472221
 10
98.27100423177082
 20
182.233810329861
 10
97.94716525607638
 20
184.4619602864582
 10
97.30086534288195
 20
186.2013752170135
 10
96.57601725260416
 20
188.1290577256939
 10
95.5576470269097
 20
189.0932159288193
 10
94.24437662760416
 20
189.0932159288193
 10
94.24437662760416
 20
189.0932159288193
 10
90.37760145399305
 20
189.0932159288193
 10
90.37760145399305
 20
189.0932159288193
 10
90.37760145399305
 20
189.0932159288193
 10
90.37760145399305
 20
169.3358964843748
 10
90.37760145399305
 20
169.3358964843748
 97
        0
 75
     0
 76
     1
 98
        0
  0
HATCH
  5
2771
330
2752
100
AcDbEntity
  8
0
  6
Continuous
100
AcDbHatch
 10
0.0
 20
0.0
 30
0.0
210
0.0
220
0.0
230
1.0
  2
SOLID
 70
     1
 71
     1
 91
        2
 92
       16
 93
        1
 72
     4
 94
        3
 73
     0
 74
     0
 95
       26
 96
       22
 40
0.0
 40
0.0
 40
0.0
 40
0.0
 40
1.0
 40
1.0
 40
1.0
 40
2.0
 40
2.0
 40
2.0
 40
3.0
 40
3.0
 40
3.0
 40
4.0
 40
4.0
 40
4.0
 40
5.0
 40
5.0
 40
5.0
 40
6.0
 40
6.0
 40
6.0
 40
7.0
 40
7.0
 40
7.0
 40
7.0
 10
100.5623372395832
 20
180.046229817708
 10
100.5623372395832
 20
180.046229817708
 10
100.5623372395832
 20
186.7401881510414
 10
100.5623372395832
 20
186.7401881510414
 10
100.5623372395832
 20
186.7401881510414
 10
103.6732584635416
 20
186.7401881510414
 10
103.6732584635416
 20
186.7401881510414
 10
104.1107855902777
 20
186.7401881510414
 10
104.4580512152777
 20
186.6064357638887
 10
104.7150553385415
 20
186.3401987847216
 10
105.2097710503471
 20
185.8330807291664
 10
105.4571289062495
 20
184.8822343749995
 10
105.4571289062495
 20
183.4863919270832
 10
105.4571289062495
 20
182.188169704861
 10
105.280740017361
 20
181.2905707465276
 10
104.9286512586804
 20
180.7929611545137
 10
104.5765624999999
 20
180.2947176649304
 10
104.1011393229166
 20
180.046229817708
 10
103.5023817274304
 20
180.046229817708
 10
103.5023817274304
 20
180.046229817708
 10
100.5623372395832
 20
180.046229817708
 10
100.5623372395832
 20
180.046229817708
 97
        1
330
275D
 92
        1
 93
        1
 72
     4
 94
        3
 73
     0
 74
     0
 95
       68
 96
       64
 40
0.0
 40
0.0
 40
0.0
 40
0.0
 40
1.0
 40
1.0
 40
1.0
 40
2.0
 40
2.0
 40
2.0
 40
3.0
 40
3.0
 40
3.0
 40
4.0
 40
4.0
 40
4.0
 40
5.0
 40
5.0
 40
5.0
 40
6.0
 40
6.0
 40
6.0
 40
7.0
 40
7.0
 40
7.0
 40
8.0
 40
8.0
 40
8.0
 40
9.0
 40
9.0
 40
9.0
 40
10.0
 40
10.0
 40
10.0
 40
11.0
 40
11.0
 40
11.0
 40
12.0
 40
12.0
 40
12.0
 40
13.0
 40
13.0
 40
13.0
 40
14.0
 40
14.0
 40
14.0
 40
15.0
 40
15.0
 40
15.0
 40
16.0
 40
16.0
 40
16.0
 40
17.0
 40
17.0
 40
17.0
 40
18.0
 40
18.0
 40
18.0
 40
19.0
 40
19.0
 40
19.0
 40
20.0
 40
20.0
 40
20.0
 40
21.0
 40
21.0
 40
21.0
 40
21.0
 10
99.23942057291661
 20
169.3358964843748
 10
99.23942057291661
 20
169.3358964843748
 10
100.5623372395832
 20
169.3358964843748
 10
100.5623372395832
 20
169.3358964843748
 10
100.5623372395832
 20
169.3358964843748
 10
100.5623372395832
 20
177.8149103732637
 10
100.5623372395832
 20
177.8149103732637
 10
100.5623372395832
 20
177.8149103732637
 10
103.4472601996527
 20
177.8149103732637
 10
103.4472601996527
 20
177.8149103732637
 10
103.9681586371527
 20
177.8149103732637
 10
104.3519422743053
 20
177.6938359374998
 10
104.5986111111109
 20
177.4516870659717
 10
105.0244249131943
 20
177.0117621527776
 10
105.2518012152777
 20
176.1458580729164
 10
105.280740017361
 20
174.8539748263887
 10
105.280740017361
 20
174.8539748263887
 10
105.3689344618053
 20
171.5564396701385
 10
105.3689344618053
 20
171.5564396701385
 10
105.3882269965277
 20
170.7843524305554
 10
105.4109646267359
 20
170.2639225260415
 10
105.4357693142359
 20
169.9951499565971
 10
105.4605740017358
 20
169.725743489583
 10
105.4970920138888
 20
169.5057810329859
 10
105.5467013888887
 20
169.3358964843748
 10
105.5467013888887
 20
169.3358964843748
 10
107.1769205729166
 20
169.3358964843748
 10
107.1769205729166
 20
169.3358964843748
 10
107.1769205729166
 20
169.3358964843748
 10
107.1769205729166
 20
169.7821603732633
 10
107.1769205729166
 20
169.7821603732633
 10
106.9750379774303
 20
169.9609194878471
 10
106.8337890624996
 20
170.3628105468748
 10
106.7538628472221
 20
170.9878335503471
 10
106.7028754340274
 20
171.3542263454858
 10
106.6677354600692
 20
171.9120562065971
 10
106.6477539062496
 20
172.6625909288193
 10
106.6477539062496
 20
172.6625909288193
 10
106.6036566840277
 20
175.3205234374999
 10
106.6036566840277
 20
175.3205234374999
 10
106.5836751302082
 20
176.4716814236109
 10
106.4768771701387
 20
177.3033550347219
 10
106.2839518229166
 20
177.814276475694
 10
106.0903374565971
 20
178.3251979166665
 10
105.8002604166666
 20
178.7372313368054
 10
105.4130316840276
 20
179.0516445312498
 10
105.8443576388885
 20
179.5086846788193
 10
106.179909939236
 20
180.1134229600693
 10
106.4196885850692
 20
180.866493272569
 10
106.6594672309027
 20
181.6189296874999
 10
106.7800455729166
 20
182.5868912760411
 10
106.7800455729166
 20
183.7697441406248
 10
106.7800455729166
 20
186.0371957465273
 10
106.3328721788193
 20
187.5921464843749
 10
105.4392144097221
 20
188.4345963541665
 10
104.9679253472221
 20
188.8732534722221
 10
104.3719238281249
 20
189.0932159288193
 10
103.6512098524303
 20
189.0932159288193
 10
103.6512098524303
 20
189.0932159288193
 10
99.23942057291661
 20
189.0932159288193
 10
99.23942057291661
 20
189.0932159288193
 10
99.23942057291661
 20
189.0932159288193
 10
99.23942057291661
 20
169.3358964843748
 10
99.23942057291661
 20
169.3358964843748
 97
        0
 75
     0
 76
     1
 98
        0
  0
HATCH
  5
2772
330
2752
100
AcDbEntity
  8
0
  6
Continuous
100
AcDbHatch
 10
0.0
 20
0.0
 30
0.0
210
0.0
220
0.0
230
1.0
  2
SOLID
 70
     1
 71
     1
 91
        2
 92
        1
 93
        8
 72
     1
 10
35.47828233506943
 20
189.0932159288193
 11
31.83957248263888
 21
169.3358964843748
 72
     1
 10
31.83957248263888
 20
169.3358964843748
 11
33.22450086805555
 21
169.3358964843748
 72
     1
 10
33.22450086805555
 20
169.3358964843748
 11
34.27043185763887
 21
175.2590353732638
 72
     1
 10
34.27043185763887
 20
175.2590353732638
 11
38.04694552951389
 21
175.2590353732638
 72
     1
 10
38.04694552951389
 20
175.2590353732638
 11
39.05015733506942
 21
169.3358964843748
 72
     1
 10
39.05015733506942
 20
169.3358964843748
 11
40.43508572048611
 21
169.3358964843748
 72
     1
 10
40.43508572048611
 20
169.3358964843748
 11
36.952783203125
 21
189.0932159288193
 72
     1
 10
36.952783203125
 20
189.0932159288193
 11
35.47828233506943
 21
189.0932159288193
 97
        8
330
276D
330
2766
330
2767
330
2768
330
2769
330
276A
330
276B
330
276C
 92
       16
 93
        3
 72
     1
 10
37.67556423611111
 20
177.4497853732638
 11
34.65766059027778
 21
177.4497853732638
 72
     1
 10
34.65766059027778
 20
177.4497853732638
 11
36.19830729166666
 21
186.1658769531249
 72
     1
 10
36.19830729166666
 20
186.1658769531249
 11
37.67556423611111
 21
177.4497853732638
 97
        3
330
2765
330
2763
330
2764
 75
     0
 76
     1
 98
        1
 10
0.0
 20
0.0
  0
HATCH
  5
2773
330
2752
100
AcDbEntity
  8
0
  6
Continuous
100
AcDbHatch
 10
0.0
 20
0.0
 30
0.0
210
0.0
220
0.0
230
1.0
  2
SOLID
 70
     1
 71
     1
 91
        1
 92
        1
 93
        1
 72
     4
 94
        3
 73
     0
 74
     0
 95
      113
 96
      109
 40
0.0
 40
0.0
 40
0.0
 40
0.0
 40
1.0
 40
1.0
 40
1.0
 40
2.0
 40
2.0
 40
2.0
 40
3.0
 40
3.0
 40
3.0
 40
4.0
 40
4.0
 40
4.0
 40
5.0
 40
5.0
 40
5.0
 40
6.0
 40
6.0
 40
6.0
 40
7.0
 40
7.0
 40
7.0
 40
8.0
 40
8.0
 40
8.0
 40
9.0
 40
9.0
 40
9.0
 40
10.0
 40
10.0
 40
10.0
 40
11.0
 40
11.0
 40
11.0
 40
12.0
 40
12.0
 40
12.0
 40
13.0
 40
13.0
 40
13.0
 40
14.0
 40
14.0
 40
14.0
 40
15.0
 40
15.0
 40
15.0
 40
16.0
 40
16.0
 40
16.0
 40
17.0
 40
17.0
 40
17.0
 40
18.0
 40
18.0
 40
18.0
 40
19.0
 40
19.0
 40
19.0
 40
20.0
 40
20.0
 40
20.0
 40
21.0
 40
21.0
 40
21.0
 40
22.0
 40
22.0
 40
22.0
 40
23.0
 40
23.0
 40
23.0
 40
24.0
 40
24.0
 40
24.0
 40
25.0
 40
25.0
 40
25.0
 40
26.0
 40
26.0
 40
26.0
 40
27.0
 40
27.0
 40
27.0
 40
28.0
 40
28.0
 40
28.0
 40
29.0
 40
29.0
 40
29.0
 40
30.0
 40
30.0
 40
30.0
 40
31.0
 40
31.0
 40
31.0
 40
32.0
 40
32.0
 40
32.0
 40
33.0
 40
33.0
 40
33.0
 40
34.0
 40
34.0
 40
34.0
 40
35.0
 40
35.0
 40
35.0
 40
36.0
 40
36.0
 40
36.0
 40
36.0
 10
193.3039632161458
 20
186.1548733181423
 10
193.3039632161458
 20
186.1860514322916
 10
193.3039632161458
 20
219.6932223849826
 10
193.3039632161458
 20
219.6932223849826
 10
193.3039632161458
 20
219.6932223849826
 10
193.2974175347219
 20
219.7488606770833
 10
193.2974175347219
 20
219.7488606770833
 10
191.5293945312499
 20
235.455740017361
 10
175.1458984374999
 20
235.2467949761284
 10
174.9808783637151
 20
235.2428331163193
 10
174.9808783637151
 20
235.2428331163193
 10
125.8827555338541
 20
235.2430053710937
 10
125.8827555338541
 20
235.2430053710937
 10
125.8827555338541
 20
235.2430053710937
 10
125.8827555338541
 20
255.5278998480901
 10
125.8827555338541
 20
255.5278998480901
 10
125.8827555338541
 20
255.5278998480901
 10
84.5626247829861
 20
255.5278998480901
 10
84.5626247829861
 20
255.5278998480901
 10
84.5626247829861
 20
255.5278998480901
 10
84.55711263020829
 20
233.7919311523436
 10
84.55711263020829
 20
233.7919311523436
 10
84.55711263020829
 20
233.7919311523436
 10
64.42052951388888
 20
233.7919311523436
 10
64.42052951388888
 20
233.7919311523436
 10
64.42052951388888
 20
233.7919311523436
 10
64.41501736111111
 20
255.5278998480901
 10
64.41501736111111
 20
255.5278998480901
 10
64.41501736111111
 20
255.5278998480901
 10
23.91757541232637
 20
255.5278998480901
 10
23.91757541232637
 20
255.5278998480901
 10
23.91757541232637
 20
255.5278998480901
 10
23.91757541232637
 20
233.2393378363715
 10
23.91757541232637
 20
233.2393378363715
 10
23.91757541232637
 20
233.2393378363715
 10
43.65624999999999
 20
233.2393378363715
 10
43.65624999999999
 20
233.2393378363715
 10
43.65624999999999
 20
233.2393378363715
 10
43.65624999999999
 20
211.5188720703125
 10
43.65624999999999
 20
211.5188720703125
 10
43.65624999999999
 20
211.5188720703125
 10
23.91757541232637
 20
211.5188720703125
 10
23.91757541232637
 20
211.5188720703125
 10
23.91757541232637
 20
211.5188720703125
 10
23.91757541232637
 20
189.2303100585936
 10
23.91757541232637
 20
189.2303100585936
 10
23.91757541232637
 20
189.2303100585936
 10
64.41501736111111
 20
189.2303100585936
 10
64.41501736111111
 20
189.2303100585936
 10
64.41501736111111
 20
189.2303100585936
 10
64.42052951388888
 20
211.069976128472
 10
64.42052951388888
 20
211.069976128472
 10
64.42052951388888
 20
211.069976128472
 10
84.55711263020829
 20
211.069976128472
 10
84.55711263020829
 20
211.069976128472
 10
84.55711263020829
 20
211.069976128472
 10
84.5626247829861
 20
189.2303100585936
 10
84.5626247829861
 20
189.2303100585936
 10
84.5626247829861
 20
189.2303100585936
 10
125.8827555338541
 20
189.2303100585936
 10
125.8827555338541
 20
189.2303100585936
 10
125.8827555338541
 20
189.2303100585936
 10
125.8827555338541
 20
211.5188720703125
 10
125.8827555338541
 20
211.5188720703125
 10
125.8827555338541
 20
211.5188720703125
 10
105.3213921440971
 20
211.5188720703125
 10
105.3213921440971
 20
211.5188720703125
 10
105.3213921440971
 20
211.5188720703125
 10
105.3213921440971
 20
233.2393378363715
 10
105.3213921440971
 20
233.2393378363715
 10
105.3213921440971
 20
233.2393378363715
 10
175.0046495225693
 20
233.243127441406
 10
175.0046495225693
 20
233.243127441406
 10
175.6268337673611
 20
233.2560465494791
 10
189.7165852864583
 20
233.3962619357638
 10
191.3037407769094
 20
219.5690266927083
 10
191.3037407769094
 20
219.4332899305555
 10
191.3037407769094
 20
186.1142211914062
 10
191.3037407769094
 20
186.1142211914062
 10
191.3037407769094
 20
186.1142211914062
 10
191.3051188151039
 20
186.0880384657115
 10
191.3051188151039
 20
186.0880384657115
 10
191.3054633246526
 20
186.0787367078991
 10
191.3109754774304
 20
185.9566080729166
 10
191.3109754774304
 20
185.7399115668401
 10
191.3109754774304
 20
184.2090833875865
 10
191.0488037109374
 20
177.9643310546874
 10
186.9866916232638
 20
173.5652886284722
 10
184.2540418836804
 20
170.6064683702255
 10
180.3224989149304
 20
169.0308539496526
 10
175.300927734375
 20
168.8825425889756
 10
175.300927734375
 20
168.8825425889756
 10
107.0094889322916
 20
168.8828870985243
 10
107.0094889322916
 20
168.8828870985243
 10
107.0094889322916
 20
168.8828870985243
 10
107.0094889322916
 20
166.8830091688368
 10
107.0094889322916
 20
166.8830091688368
 10
107.0094889322916
 20
166.8830091688368
 10
175.3305555555555
 20
166.8830091688368
 10
175.3305555555555
 20
166.8830091688368
 10
180.9467502170138
 20
167.0485460069444
 10
185.3571614583333
 20
168.8448187934026
 10
188.4687717013888
 20
172.2223904079861
 10
192.9649658203124
 20
177.1034016927083
 10
193.3136094835069
 20
183.7202243381076
 10
193.3136094835069
 20
185.6520616319443
 10
193.3136094835069
 20
185.9247409396701
 10
193.3070638020833
 20
186.0868326822916
 10
193.3039632161458
 20
186.1548733181423
 97
        1
330
2753
 75
     0
 76
     1
 98
        1
 10
0.0
 20
0.0
  0
HATCH
  5
2774
330
2752
100
AcDbEntity
  8
0
  6
Continuous
100
AcDbHatch
 10
0.0
 20
0.0
 30
0.0
210
0.0
220
0.0
230
1.0
  2
SOLID
 70
     1
 71
     1
 91
        2
 92
        1
 93
        1
 72
     4
 94
        3
 73
     0
 74
     0
 95
       23
 96
       19
 40
0.0
 40
0.0
 40
0.0
 40
0.0
 40
1.0
 40
1.0
 40
1.0
 40
2.0
 40
2.0
 40
2.0
 40
3.0
 40
3.0
 40
3.0
 40
4.0
 40
4.0
 40
4.0
 40
5.0
 40
5.0
 40
5.0
 40
6.0
 40
6.0
 40
6.0
 40
6.0
 10
148.6593153211804
 20
211.3929538302948
 10
148.6593153211804
 20
211.3929538302948
 10
148.6593153211804
 20
189.6308024088539
 10
148.6593153211804
 20
189.6308024088539
 10
148.6593153211804
 20
189.6308024088539
 10
161.3152180989583
 20
189.6308024088539
 10
161.3152180989583
 20
189.6308024088539
 10
162.8431179470483
 20
189.6308024088539
 10
170.4657362196178
 20
190.1880466037321
 10
170.4657362196178
 20
201.1911648220483
 10
170.4657362196178
 20
211.1288872612844
 10
162.3356553819444
 20
211.3914035373261
 10
162.2536621093749
 20
211.3927815755205
 10
162.2536621093749
 20
211.3927815755205
 10
149.6594265407986
 20
211.3929538302948
 10
149.6594265407986
 20
211.3929538302948
 10
149.6594265407986
 20
211.3929538302948
 10
148.6593153211804
 20
211.3929538302948
 10
148.6593153211804
 20
211.3929538302948
 97
        1
330
2754
 92
       16
 93
        1
 72
     4
 94
        3
 73
     0
 74
     0
 95
       20
 96
       16
 40
0.0
 40
0.0
 40
0.0
 40
0.0
 40
1.0
 40
1.0
 40
1.0
 40
2.0
 40
2.0
 40
2.0
 40
3.0
 40
3.0
 40
3.0
 40
4.0
 40
4.0
 40
4.0
 40
5.0
 40
5.0
 40
5.0
 40
5.0
 10
162.2354031032983
 20
209.3930759006072
 10
162.467947048611
 20
209.3861857096351
 10
168.4655137803819
 20
209.1283203124997
 10
168.4655137803819
 20
201.1911648220483
 10
168.4655137803819
 20
192.3202162000865
 10
162.9926350911458
 20
191.6306803385413
 10
161.3152180989583
 20
191.6306803385413
 10
161.3152180989583
 20
191.6306803385413
 10
152.3310980902776
 20
191.6306803385413
 10
150.6595377604166
 20
191.6306803385413
 10
150.6595377604166
 20
193.3373806423608
 10
150.6595377604166
 20
207.6863755967879
 10
150.6595377604166
 20
209.3930759006072
 10
152.3538357204859
 20
209.3930759006072
 10
162.2354031032983
 20
209.3930759006072
 10
162.2354031032983
 20
209.3930759006072
 97
        0
 75
     0
 76
     1
 98
        0
  0
ENDBLK
  5
2776
330
2752
100
AcDbEntity
  8
0
100
AcDbBlockEnd
  0
BLOCK
  5
2779
330
2777
100
AcDbEntity
  8
0
100
AcDbBlockBegin
  2
HD logo-new
 70
     0
 10
0.0
 20
0.0
 30
0.0
  3
HD logo-new
  1

  0
INSERT
  5
2778
330
2777
100
AcDbEntity
  8
0
 62
     3
100
AcDbBlockReference
  2
HD_LLC_logo_OT5
 10
-27.1607188578505
 20
-68.37367811463031
 30
0.0
 41
0.2999999999999971
 42
0.3000000000000007
 43
0.3
  0
ENDBLK
  5
277A
330
2777
100
AcDbEntity
  8
0
100
AcDbBlockEnd
  0
BLOCK
  5
277D
330
277B
100
AcDbEntity
  8
0
100
AcDbBlockBegin
  2
HD Logo
 70
     0
 10
0.0
 20
0.0
 30
0.0
  3
HD Logo
  1

  0
INSERT
  5
277C
330
277B
100
AcDbEntity
  8
0
100
AcDbBlockReference
  2
HD logo-new
 10
0.9700256734946606
 20
7.273795608420527
 30
0.0
  0
ENDBLK
  5
277E
330
277B
100
AcDbEntity
  8
0
100
AcDbBlockEnd
  0
BLOCK
  5
2789
330
2787
100
AcDbEntity
  8
0
100
AcDbBlockBegin
  2
Harmonic Drive LLC
 70
     0
 10
0.0
 20
0.0
 30
0.0
  3
Harmonic Drive LLC
  1

  0
MTEXT
  5
2788
330
2787
100
AcDbEntity
  8
0
100
AcDbMText
 10
189.3064368747374
 20
-164.4147342669637
 30
0.0
 40
3.5
 41
76.932
 71
     5
 72
     5
  1
Harmonic Drive LLC\P800-921-3332\Pwww.harmonicdrive.net
 73
     1
 44
1.0
  0
ENDBLK
  5
278A
330
2787
100
AcDbEntity
  8
0
100
AcDbBlockEnd
  0
BLOCK
  5
2BC9
330
2BC7
100
AcDbEntity
  8
0
100
AcDbBlockBegin
  2
HD LLC
 70
     0
 10
0.0
 20
0.0
 30
0.0
  3
HD LLC
  1

  0
MTEXT
  5
2BC8
330
2BC7
100
AcDbEntity
  8
0
100
AcDbMText
 10
-2.314970886968865
 20
1.247205085865914
 30
0.0
 40
5.675387507387601
 41
236.1828726592229
 71
     5
 72
     5
  1
Harmonic Drive LLC\P800-921-3332\Pwww.harmonicdrive.net
 73
     1
 44
1.0
  0
ENDBLK
  5
2BCA
330
2BC7
100
AcDbEntity
  8
0
100
AcDbBlockEnd
  0
BLOCK
  5
2BDA
330
2BD7
100
AcDbEntity
  8
0
100
AcDbBlockBegin
  2
NTC
 70
     0
 10
0.0
 20
0.0
 30
0.0
  3
NTC
  1

  0
LWPOLYLINE
  5
2BD8
330
2BD7
100
AcDbEntity
  8
0
100
AcDbPolyline
 90
        8
 70
     1
 43
0.0
 10
4.581008201925953
 20
-10.78862239032818
 10
319.3921777697513
 20
-10.78862239032818
 42
-0.4142135623730951
 10
324.9046777697513
 20
-16.30112239032816
 10
324.9046777697513
 20
-117.4075202476924
 42
-0.4142135623730951
 10
319.3921777697513
 20
-122.9200202476925
 10
4.581008201925838
 20
-122.9200202476925
 42
-0.4142135623730951
 10
-0.9314917980741483
 20
-117.4075202476924
 10
-0.9314917980740915
 20
-16.30112239032816
 42
-0.4142135623730951
  0
MTEXT
  5
2BD9
330
2BD7
100
AcDbEntity
  8
0
  6
Continuous
370
    30
100
AcDbMText
 10
21.65307678143926
 20
-17.4535155144544
 30
0.0
 40
8.75
 41
294.5432999999998
 71
     1
 72
     5
  3
{\fTxt|b1|i0|c0|p2;Notice:\P\Ftxt.shx;\H0.5714x;All specifications and dimensions shown in the drawing are subject to change without notice. This drawing is the property of Harmonic Drive LLC.   This data is believed to be accurate, however, Harmonic
  1
 Drive LLC assumes no liability for any errors or omissions in the specifications, models, or drawings.\P\PHarmonic Drive LLC\PTel: 800-921-3332\Pwww.harmonicdrive.net}
 73
     1
 44
1.0
  0
ENDBLK
  5
2BDB
330
2BD7
100
AcDbEntity
  8
0
100
AcDbBlockEnd
  0
ENDSEC
  0
SECTION
  2
ENTITIES
  0
TEXT
  5
2709
330
24CB
100
AcDbEntity
  8
1
 62
     3
100
AcDbText
 10
-141.6995234924268
 20
-96.23192509328513
 30
0.0
 40
4.5
  1
 
 41
0.9
100
AcDbText
  0
CIRCLE
  5
29B2
330
24CB
100
AcDbEntity
  8
1
 62
     7
100
AcDbCircle
 10
639.0853035215168
 20
890.817914228317
 30
0.0
 40
4.500000000000023
  0
CIRCLE
  5
29B3
330
24CB
100
AcDbEntity
  8
1
  6
CENTER
 62
     3
100
AcDbCircle
 10
704.0372088053514
 20
853.317914228317
 30
0.0
 40
74.99999999999997
  0
CIRCLE
  5
29B4
330
24CB
100
AcDbEntity
  8
1
 62
     7
100
AcDbCircle
 10
704.0372088053514
 20
853.317914228317
 30
0.0
 40
84.99999872308807
  0
CIRCLE
  5
29B5
330
24CB
100
AcDbEntity
  8
1
 62
     7
100
AcDbCircle
 10
704.0372088053514
 20
853.317914228317
 30
0.0
 40
64.02100000038098
  0
CIRCLE
  5
29B6
330
24CB
100
AcDbEntity
  8
1
 62
     7
100
AcDbCircle
 10
704.0372088053514
 20
853.317914228317
 30
0.0
 40
62.85299999999339
  0
CIRCLE
  5
29B7
330
24CB
100
AcDbEntity
  8
1
 62
     7
100
AcDbCircle
 10
768.9891140891861
 20
890.817914228317
 30
0.0
 40
4.500000000000023
  0
CIRCLE
  5
29B8
330
24CB
100
AcDbEntity
  8
1
 62
     7
100
AcDbCircle
 10
704.0372088053514
 20
853.317914228317
 30
0.0
 40
44.44999999999999
  0
CIRCLE
  5
29B9
330
24CB
100
AcDbEntity
  8
1
 62
     7
100
AcDbCircle
 10
704.0372088053514
 20
853.317914228317
 30
0.0
 40
47.62499999999997
  0
CIRCLE
  5
29BA
330
24CB
100
AcDbEntity
  8
1
 62
     7
100
AcDbCircle
 10
704.0372088053514
 20
853.317914228317
 30
0.0
 40
58.29499999999986
  0
CIRCLE
  5
29BB
330
24CB
100
AcDbEntity
  8
1
 62
     7
100
AcDbCircle
 10
704.0372088053514
 20
853.317914228317
 30
0.0
 40
61.35349999999998
  0
ARC
  5
29BC
330
24CB
100
AcDbEntity
  8
1
 62
     7
100
AcDbCircle
 10
226.7609489958136
 20
853.317914228317
 30
0.0
 40
61.3459999999999
100
AcDbArc
 50
90.0
 51
289.0273601854992
  0
ARC
  5
29BD
330
24CB
100
AcDbEntity
  8
1
 62
     7
100
AcDbCircle
 10
226.7609489958136
 20
853.317914228317
 30
0.0
 40
87.5
100
AcDbArc
 50
76.78701963984188
 51
283.212980360158
  0
ARC
  5
29BE
330
24CB
100
AcDbEntity
  8
1
  6
CENTER
 62
     3
100
AcDbCircle
 10
226.7609489958136
 20
853.317914228317
 30
0.0
 40
94.99999999999996
100
AcDbArc
 50
77.84680253099243
 51
282.1531974690075
  0
ARC
  5
29BF
330
24CB
100
AcDbEntity
  8
1
 62
     7
100
AcDbCircle
 10
226.7609489958136
 20
853.317914228317
 30
0.0
 40
102.4999999999999
100
AcDbArc
 50
78.74815227072499
 51
281.2518477292749
  0
ARC
  5
29C0
330
24CB
100
AcDbEntity
  8
1
  6
CENTER
 62
     3
100
AcDbCircle
 10
226.7609489958136
 20
853.317914228317
 30
0.0
 40
94.99999999999994
100
AcDbArc
 50
282.1531974690075
 51
77.84680253099243
  0
ARC
  5
29C1
330
24CB
100
AcDbEntity
  8
1
 62
     7
100
AcDbCircle
 10
226.7609489958136
 20
853.317914228317
 30
0.0
 40
61.3459999999998
100
AcDbArc
 50
289.0273601854992
 51
70.97263981450071
  0
ARC
  5
29C2
330
24CB
100
AcDbEntity
  8
1
 62
     7
100
AcDbCircle
 10
226.7609489958136
 20
853.317914228317
 30
0.0
 40
87.49999999999996
100
AcDbArc
 50
283.212980360158
 51
76.78701963984188
  0
ARC
  5
29C3
330
24CB
100
AcDbEntity
  8
1
 62
     7
100
AcDbCircle
 10
226.7609489958136
 20
853.317914228317
 30
0.0
 40
102.4999999999999
100
AcDbArc
 50
281.2518477292749
 51
78.74815227072499
  0
ARC
  5
29C4
330
24CB
100
AcDbEntity
  8
1
 62
     7
100
AcDbCircle
 10
742.705739675307
 20
889.431801036016
 30
0.0
 40
5.953124999999968
100
AcDbArc
 50
248.9263915781085
 51
16.46747831364853
  0
ARC
  5
29C5
330
24CB
100
AcDbEntity
  8
1
 62
     7
100
AcDbCircle
 10
665.3686779353959
 20
889.431801036016
 30
0.0
 40
5.953124999999897
100
AcDbArc
 50
163.5325216863514
 51
291.0736084218914
  0
ARC
  5
29C6
330
24CB
100
AcDbEntity
  8
1
 62
     7
100
AcDbCircle
 10
742.705739675307
 20
889.431801036016
 30
0.0
 40
6.455000000000016
100
AcDbArc
 50
269.1218881907365
 51
349.8257835045269
  0
ARC
  5
29C7
330
24CB
100
AcDbEntity
  8
1
 62
     7
100
AcDbCircle
 10
704.0372088053514
 20
853.317914228317
 30
0.0
 40
57.00999999999998
100
AcDbArc
 50
32.59428292364264
 51
37.84049968505
  0
ARC
  5
29C8
330
24CB
100
AcDbEntity
  8
1
 62
     7
100
AcDbCircle
 10
665.3686779353959
 20
889.431801036016
 30
0.0
 40
6.455000000000048
100
AcDbArc
 50
190.174216495473
 51
270.8781118092634
  0
ARC
  5
29C9
330
24CB
100
AcDbEntity
  8
1
 62
     7
100
AcDbCircle
 10
704.0372088053514
 20
853.317914228317
 30
0.0
 40
57.00999999999989
100
AcDbArc
 50
142.1595003149499
 51
147.4057170763569
  0
LINE
  5
29CA
330
24CB
100
AcDbEntity
  8
2
  6
CENTER
 62
     3
100
AcDbLine
 10
704.0372088053514
 20
790.4649142283237
 30
0.0
 11
704.0372088053514
 21
948.3179128005707
 31
0.0
  0
LINE
  5
29CB
330
24CB
100
AcDbEntity
  8
1
  6
CENTER
 62
     3
100
AcDbLine
 10
226.7609489958136
 20
742.8179142283171
 30
0.0
 11
226.7609489958136
 21
914.6639142283168
 31
0.0
  0
LINE
  5
29CC
330
24CB
100
AcDbEntity
  8
1
 62
     7
100
AcDbLine
 10
436.8172529229274
 20
918.2889142283171
 30
0.0
 11
436.8172529229274
 21
788.1088992894889
 31
0.0
  0
LINE
  5
29CD
330
24CB
100
AcDbEntity
  8
1
 62
     7
100
AcDbLine
 10
432.9702529229273
 20
940.817914228317
 30
0.0
 11
432.9702529229273
 21
853.317914228317
 31
0.0
  0
LINE
  5
29CE
330
24CB
100
AcDbEntity
  8
0
 62
     7
100
AcDbLine
 10
483.5177529524037
 20
891.8179136500782
 30
0.0
 11
483.5177529524037
 21
875.8179138903923
 31
0.0
  0
LINE
  5
29CF
330
24CB
100
AcDbEntity
  8
0
 62
     7
100
AcDbLine
 10
477.4702529212923
 20
869.567913984255
 30
0.0
 11
477.4702529212923
 21
897.767913560745
 31
0.0
  0
LINE
  5
29D0
330
24CB
100
AcDbEntity
  8
0
 62
     7
100
AcDbLine
 10
491.7702529212923
 20
897.767913560745
 30
0.0
 11
491.7702529212923
 21
869.567913984255
 31
0.0
  0
LINE
  5
29D1
330
24CB
100
AcDbEntity
  8
0
 62
     7
100
AcDbLine
 10
483.7177529493586
 20
869.567913984255
 30
0.0
 11
483.7177529493586
 21
897.767913560745
 31
0.0
  0
LINE
  5
29D2
330
24CB
100
AcDbEntity
  8
0
 62
     7
100
AcDbLine
 10
472.3702529212921
 20
892.0679142283169
 30
0.0
 11
472.3702529212921
 21
869.7179139819965
 31
0.0
  0
LINE
  5
29D3
330
24CB
100
AcDbEntity
  8
1
 62
     7
100
AcDbLine
 10
465.7702528338728
 20
869.317914228317
 30
0.0
 11
465.7702529269616
 21
892.0679142283169
 31
0.0
  0
TEXT
  5
29D4
330
24CB
100
AcDbEntity
  8
0
 62
     0
100
AcDbText
 10
332.7610117360916
 20
641.7019154545378
 30
0.0
 40
9.664523886195327
  1
REMARKS:  M.H.C = MINIMUM HOUSING CLEARANCE
 41
0.9
 72
     1
 11
458.9047936296846
 21
646.5341773976356
 31
0.0
100
AcDbText
 73
     2
  0
LINE
  5
29D5
330
24CB
100
AcDbEntity
  8
1
 62
     7
100
AcDbLine
 10
441.0952529229272
 20
791.9719142283172
 30
0.0
 11
494.7702529229271
 21
791.9719142283172
 31
0.0
  0
LINE
  5
29D6
330
24CB
100
AcDbEntity
  8
1
 62
     7
100
AcDbLine
 10
460.1902529229272
 20
790.8189142283172
 30
0.0
 11
440.8422529229271
 21
790.8189142283172
 31
0.0
  0
LINE
  5
29D7
330
24CB
100
AcDbEntity
  8
1
  6
PHANTOM
 62
     4
100
AcDbLine
 10
460.4702528628843
 20
786.8179142283171
 30
0.0
 11
439.7702528628843
 21
786.8179142283171
 31
0.0
  0
LINE
  5
29D8
330
24CB
100
AcDbEntity
  8
1
  6
CENTER
 62
     3
100
AcDbLine
 10
114.7925589270753
 20
853.317914228317
 30
0.0
 11
339.7609489958135
 21
853.317914228317
 31
0.0
  0
CIRCLE
  5
29D9
330
24CB
100
AcDbEntity
  8
1
 62
     7
100
AcDbCircle
 10
144.4885356362918
 20
805.8179142283171
 30
0.0
 40
4.5
  0
LINE
  5
29DA
330
24CB
100
AcDbEntity
  8
1
  6
CENTER
 62
     3
100
AcDbLine
 10
138.6428641607471
 20
802.4429142283171
 30
0.0
 11
150.3342071118368
 21
809.1929142283172
 31
0.0
  0
CIRCLE
  5
29DB
330
24CB
100
AcDbEntity
  8
1
 62
     7
100
AcDbCircle
 10
179.2609489958135
 20
771.0455008687955
 30
0.0
 40
4.500000000000023
  0
LINE
  5
29DC
330
24CB
100
AcDbEntity
  8
1
  6
CENTER
 62
     3
100
AcDbLine
 10
175.8859489958135
 20
765.1998293932505
 30
0.0
 11
182.6359489958135
 21
776.8911723443405
 31
0.0
  0
CIRCLE
  5
29DD
330
24CB
100
AcDbEntity
  8
1
 62
     7
100
AcDbCircle
 10
131.7609489958136
 20
853.317914228317
 30
0.0
 40
4.5
  0
CIRCLE
  5
29DE
330
24CB
100
AcDbEntity
  8
1
 62
     7
100
AcDbCircle
 10
309.0333623553352
 20
805.8179142283171
 30
0.0
 40
4.5
  0
LINE
  5
29DF
330
24CB
100
AcDbEntity
  8
1
 62
     7
100
AcDbLine
 10
432.9702529229273
 20
853.317914228317
 30
0.0
 11
432.9702529229273
 21
765.8179142283171
 31
0.0
  0
LINE
  5
29E0
330
24CB
100
AcDbEntity
  8
1
  6
CENTER
 62
     3
100
AcDbLine
 10
303.1876908797901
 20
809.1929142283172
 30
0.0
 11
314.8790338308801
 21
802.4429142283171
 31
0.0
  0
CIRCLE
  5
29E1
330
24CB
100
AcDbEntity
  8
1
 62
     7
100
AcDbCircle
 10
226.7609489958134
 20
758.3179142283172
 30
0.0
 40
4.5
  0
CIRCLE
  5
29E2
330
24CB
100
AcDbEntity
  8
1
 62
     7
100
AcDbCircle
 10
274.2609489958134
 20
771.0455008687955
 30
0.0
 40
4.500000000000095
  0
LINE
  5
29E3
330
24CB
100
AcDbEntity
  8
1
  6
CENTER
 62
     3
100
AcDbLine
 10
270.8859489958134
 20
776.8911723443405
 30
0.0
 11
277.6359489958134
 21
765.1998293932505
 31
0.0
  0
LINE
  5
29E4
330
24CB
100
AcDbEntity
  8
1
 62
     7
100
AcDbLine
 10
437.9702529229271
 20
762.8179142283171
 30
0.0
 11
437.9702529229271
 21
753.8179142283171
 31
0.0
  0
LINE
  5
29E5
330
24CB
100
AcDbEntity
  8
1
 62
     7
100
AcDbLine
 10
432.9702529229272
 20
762.8179142283171
 30
0.0
 11
432.9702529229272
 21
753.8179142283171
 31
0.0
  0
LINE
  5
29E6
330
24CB
100
AcDbEntity
  8
1
 62
     7
100
AcDbLine
 10
437.9702529229269
 20
751.2179142283176
 30
0.0
 11
437.5702529229272
 21
750.8179142283171
 31
0.0
  0
LINE
  5
29E7
330
24CB
100
AcDbEntity
  8
1
 62
     7
100
AcDbLine
 10
432.9702529229265
 20
751.2179142283176
 30
0.0
 11
433.3702529229272
 21
750.8179142283171
 31
0.0
  0
LINE
  5
29E8
330
24CB
100
AcDbEntity
  8
1
 62
     7
100
AcDbLine
 10
437.9702529229271
 20
753.8179142283171
 30
0.0
 11
437.9702529229269
 21
751.2179142283176
 31
0.0
  0
LINE
  5
29E9
330
24CB
100
AcDbEntity
  8
1
 62
     7
100
AcDbLine
 10
432.9702529229272
 20
753.8179142283171
 30
0.0
 11
432.9702529229265
 21
751.2179142283176
 31
0.0
  0
LINE
  5
29EA
330
24CB
100
AcDbEntity
  8
1
  6
CENTER
 62
     3
100
AcDbLine
 10
430.3997369277637
 20
758.3179142283171
 30
0.0
 11
440.0447563719607
 21
758.3179142283171
 31
0.0
  0
LINE
  5
29EB
330
24CB
100
AcDbEntity
  8
1
 62
     7
100
AcDbLine
 10
432.9702529229272
 20
753.8179142283171
 30
0.0
 11
437.9702529229271
 21
753.8179142283171
 31
0.0
  0
LINE
  5
29EC
330
24CB
100
AcDbEntity
  8
1
 62
     7
100
AcDbLine
 10
437.5702529229272
 20
750.8179142283171
 30
0.0
 11
433.3702529229272
 21
750.8179142283171
 31
0.0
  0
LINE
  5
29ED
330
24CB
100
AcDbEntity
  8
1
 62
     7
100
AcDbLine
 10
437.9702529229272
 20
787.6939142283172
 30
0.0
 11
437.9702529229271
 21
762.8179142283171
 31
0.0
  0
LINE
  5
29EE
330
24CB
100
AcDbEntity
  8
1
 62
     7
100
AcDbLine
 10
436.8172529229272
 20
788.3469142283171
 30
0.0
 11
436.8172529229272
 21
766.3179142283171
 31
0.0
  0
LINE
  5
29EF
330
24CB
100
AcDbEntity
  8
1
  6
PHANTOM
 62
     4
100
AcDbLine
 10
439.7702528628843
 20
786.8179142283171
 30
0.0
 11
439.7702528628843
 21
766.8179142283171
 31
0.0
  0
LINE
  5
29F0
330
24CB
100
AcDbEntity
  8
1
  6
PHANTOM
 62
     4
100
AcDbLine
 10
435.4702529229272
 20
796.8179142283171
 30
0.0
 11
435.4702529229272
 21
776.8179142283171
 31
0.0
  0
ARC
  5
29F1
330
24CB
100
AcDbEntity
  8
1
 62
     7
100
AcDbCircle
 10
436.3172529229272
 20
766.3179142283171
 30
0.0
 40
0.5
100
AcDbArc
 50
270.0
 51
0.0
  0
LINE
  5
29F2
330
24CB
100
AcDbEntity
  8
1
 62
     7
100
AcDbLine
 10
432.9702529229273
 20
765.417914228317
 30
0.0
 11
432.9702529229273
 21
765.8179142283171
 31
0.0
  0
LINE
  5
29F3
330
24CB
100
AcDbEntity
  8
1
 62
     7
100
AcDbLine
 10
432.9702529229273
 20
765.417914228317
 30
0.0
 11
433.3702529229272
 21
765.8179142283171
 31
0.0
  0
LINE
  5
29F4
330
24CB
100
AcDbEntity
  8
1
 62
     7
100
AcDbLine
 10
432.9702529229273
 20
765.8179142283171
 30
0.0
 11
432.9702529229273
 21
765.3179142283171
 31
0.0
  0
LINE
  5
29F5
330
24CB
100
AcDbEntity
  8
1
 62
     7
100
AcDbLine
 10
436.3172529229272
 20
765.8179142283171
 30
0.0
 11
433.3702529229272
 21
765.8179142283171
 31
0.0
  0
LINE
  5
29F6
330
24CB
100
AcDbEntity
  8
1
 62
     7
100
AcDbLine
 10
432.9702529229272
 20
762.8179142283171
 30
0.0
 11
432.9702529229273
 21
765.417914228317
 31
0.0
  0
LINE
  5
29F7
330
24CB
100
AcDbEntity
  8
1
 62
     7
100
AcDbLine
 10
432.9702529229272
 20
762.8179142283171
 30
0.0
 11
437.9702529229271
 21
762.8179142283171
 31
0.0
  0
ARC
  5
29F8
330
24CB
100
AcDbEntity
  8
1
 62
     7
100
AcDbCircle
 10
441.0952529229272
 20
787.6939142283171
 30
0.0
 40
3.125000000000006
100
AcDbArc
 50
90.0
 51
180.0
  0
ARC
  5
29F9
330
24CB
100
AcDbEntity
  8
1
 62
     7
100
AcDbCircle
 10
440.6422529229272
 20
788.1469142283171
 30
0.0
 40
3.83022518920232
100
AcDbArc
 50
87.0068679940203
 51
177.0068679940202
  0
LINE
  5
29FA
330
24CB
100
AcDbEntity
  8
1
  6
PHANTOM
 62
     4
100
AcDbLine
 10
454.7702529229272
 20
796.8179142283171
 30
0.0
 11
435.4702529229272
 21
796.8179142283171
 31
0.0
  0
CIRCLE
  5
29FB
330
24CB
100
AcDbEntity
  8
1
 62
     7
100
AcDbCircle
 10
321.7609489958134
 20
853.317914228317
 30
0.0
 40
4.5
  0
LINE
  5
29FC
330
24CB
100
AcDbEntity
  8
1
  6
CENTER
 62
     3
100
AcDbLine
 10
437.2172529229272
 20
853.317914228317
 30
0.0
 11
425.4535633640181
 21
853.317914228317
 31
0.0
  0
LINE
  5
29FD
330
24CB
100
AcDbEntity
  8
1
  6
CENTER
 62
     3
100
AcDbLine
 10
445.9536987079617
 20
853.317914228317
 30
0.0
 11
437.2172529229272
 21
853.317914228317
 31
0.0
  0
TEXT
  5
29FE
330
24CB
100
AcDbEntity
  8
1
 62
     0
100
AcDbText
 10
639.81350311096
 20
674.4917258784083
 30
0.0
 40
10.87258937197191
  1
SHF-50-XXX-2A-GR.dxf
 41
0.9
100
AcDbText
  0
TEXT
  5
29FF
330
24CB
100
AcDbEntity
  8
1
 62
     0
100
AcDbText
 10
698.3806255676386
 20
652.313405004028
 30
0.0
 40
7.5
  1
2002/3
 41
0.9
 72
     1
 11
712.609718904782
 21
656.063405004028
 31
0.0
100
AcDbText
 73
     2
  0
CIRCLE
  5
2A00
330
24CB
100
AcDbEntity
  8
1
 62
     7
100
AcDbCircle
 10
704.0372088053532
 20
778.3179142283172
 30
0.0
 40
4.5
  0
CIRCLE
  5
2A01
330
24CB
100
AcDbEntity
  8
1
 62
     7
100
AcDbCircle
 10
704.0372088053514
 20
853.317914228317
 30
0.0
 40
15.99999975964022
  0
CIRCLE
  5
2A02
330
24CB
100
AcDbEntity
  8
1
 62
     7
100
AcDbCircle
 10
704.0372088053514
 20
853.317914228317
 30
0.0
 40
21.4999996767624
  0
ARC
  5
2A03
330
24CB
100
AcDbEntity
  8
0
 62
     7
100
AcDbCircle
 10
704.0372088053496
 20
854.2512475476652
 30
0.0
 40
17.67999973442131
100
AcDbArc
 50
289.2696388779708
 51
89.99999999999349
  0
ARC
  5
2A04
330
24CB
100
AcDbEntity
  8
1
 62
     7
100
AcDbCircle
 10
704.0372088050995
 20
853.317914228317
 30
0.0
 40
9.49999985752029
100
AcDbArc
 50
270.0000000015177
 51
71.59151984442928
  0
ARC
  5
2A05
330
24CB
100
AcDbEntity
  8
1
 62
     7
100
AcDbCircle
 10
711.241786209034
 20
800.9007208235351
 30
0.0
 40
5.953124999999982
100
AcDbArc
 50
123.7090002737617
 51
251.2500870093006
  0
ARC
  5
2A06
330
24CB
100
AcDbEntity
  8
1
 62
     7
100
AcDbCircle
 10
704.0372088053514
 20
853.317914228317
 30
0.0
 40
48.6549999999999
100
AcDbArc
 50
267.6574635877098
 51
272.34253641229
  0
ARC
  5
2A07
330
24CB
100
AcDbEntity
  8
1
 62
     7
100
AcDbCircle
 10
711.241786209034
 20
800.9007208235351
 30
0.0
 40
6.455
100
AcDbArc
 50
143.9044968863875
 51
224.6083922001819
  0
ARC
  5
2A08
330
24CB
100
AcDbEntity
  8
1
 62
     7
100
AcDbCircle
 10
704.0372088053514
 20
853.317914228317
 30
0.0
 40
57.00999999999989
100
AcDbArc
 50
267.3768916192969
 51
272.623108380703
  0
LINE
  5
2A09
330
24CB
100
AcDbEntity
  8
0
 62
     7
100
AcDbLine
 10
704.5705421306736
 20
833.3179145287598
 30
0.0
 11
708.0905420778219
 21
833.3179145287598
 31
0.0
  0
LINE
  5
2A0A
330
24CB
100
AcDbEntity
  8
2
  6
CENTER
 62
     3
100
AcDbLine
 10
609.0372102330977
 20
853.317914228317
 30
0.0
 11
799.0372073792307
 21
853.317914228317
 31
0.0
  0
LINE
  5
2A0B
330
24CB
100
AcDbEntity
  8
1
 62
     7
100
AcDbLine
 10
707.0372087577439
 20
865.6179140435913
 30
0.0
 11
701.0372088494029
 21
865.6179140435913
 31
0.0
  0
ARC
  5
2A0C
330
24CB
100
AcDbEntity
  8
1
 62
     7
100
AcDbCircle
 10
696.8326314016692
 20
800.9007208235351
 30
0.0
 40
5.953124999999976
100
AcDbArc
 50
108.0568263607167
 51
235.5979130962575
  0
ARC
  5
2A0D
330
24CB
100
AcDbEntity
  8
1
 62
     7
100
AcDbCircle
 10
682.9578071415867
 20
804.7882642656636
 30
0.0
 40
5.953124999999982
100
AcDbArc
 50
92.40465244767332
 51
219.9457391832142
  0
ARC
  5
2A0E
330
24CB
100
AcDbEntity
  8
1
 62
     7
100
AcDbCircle
 10
696.8326314016692
 20
800.9007208235351
 30
0.0
 40
5.953124999999976
100
AcDbArc
 50
288.7499129906993
 51
56.29099972623827
  0
ARC
  5
2A0F
330
24CB
100
AcDbEntity
  8
1
 62
     7
100
AcDbCircle
 10
682.9578071415867
 20
804.7882642656636
 30
0.0
 40
5.953124999999897
100
AcDbArc
 50
273.0977390776558
 51
40.63882581319368
  0
ARC
  5
2A10
330
24CB
100
AcDbEntity
  8
1
 62
     7
100
AcDbCircle
 10
696.8326314016692
 20
800.9007208235351
 30
0.0
 40
6.454999999999959
100
AcDbArc
 50
315.391607799818
 51
36.09550311361248
  0
ARC
  5
2A11
330
24CB
100
AcDbEntity
  8
1
 62
     7
100
AcDbCircle
 10
696.8326314016692
 20
800.9007208235351
 30
0.0
 40
6.454999999999992
100
AcDbArc
 50
128.2523229733433
 51
208.9562182871361
  0
ARC
  5
2A12
330
24CB
100
AcDbEntity
  8
1
 62
     7
100
AcDbCircle
 10
682.9578071415867
 20
804.7882642656636
 30
0.0
 40
6.455000000000048
100
AcDbArc
 50
299.7394338867798
 51
20.44332920057132
  0
ARC
  5
2A13
330
24CB
100
AcDbEntity
  8
1
 62
     7
100
AcDbCircle
 10
682.9578071415867
 20
804.7882642656636
 30
0.0
 40
6.454999999999985
100
AcDbArc
 50
112.6001490603006
 51
193.304044374091
  0
ARC
  5
2A14
330
24CB
100
AcDbEntity
  8
1
 62
     7
100
AcDbCircle
 10
704.0372088053514
 20
853.317914228317
 30
0.0
 40
57.00999999999988
100
AcDbArc
 50
236.072543793209
 51
241.3187605546157
  0
ARC
  5
2A15
330
24CB
100
AcDbEntity
  8
1
 62
     7
100
AcDbCircle
 10
485.4677529229272
 20
800.4004142283172
 30
0.0
 40
5.953124999999976
100
AcDbArc
 50
295.2349812870611
 51
62.59422911437523
  0
ARC
  5
2A16
330
24CB
100
AcDbEntity
  8
1
 62
     7
100
AcDbCircle
 10
485.4677529229272
 20
800.4004142283172
 30
0.0
 40
5.953125
100
AcDbArc
 50
90.0
 51
244.7650187129389
  0
LINE
  5
2A17
330
24CB
100
AcDbEntity
  8
1
 62
     7
100
AcDbLine
 10
495.9702529229272
 20
808.8604142283172
 30
0.0
 11
495.9702529229272
 21
791.624335523163
 31
0.0
  0
LINE
  5
2A18
330
24CB
100
AcDbEntity
  8
0
 62
     7
100
AcDbLine
 10
473.9177531025785
 20
814.817914806683
 30
0.0
 11
473.9177531025785
 21
800.8179150169981
 31
0.0
  0
LINE
  5
2A19
330
24CB
100
AcDbEntity
  8
0
 62
     7
100
AcDbLine
 10
475.5177530725432
 20
800.8179150169981
 30
0.0
 11
475.5177530725432
 21
814.817914806683
 31
0.0
  0
LINE
  5
2A1A
330
24CB
100
AcDbEntity
  8
1
 62
     7
100
AcDbLine
 10
476.4252529229271
 20
794.7154142283172
 30
0.0
 11
476.4252529229271
 21
804.9180559228384
 31
0.0
  0
LINE
  5
2A1B
330
24CB
100
AcDbEntity
  8
1
 62
     7
100
AcDbLine
 10
494.5102529229273
 20
804.9180559228384
 30
0.0
 11
494.5102529229273
 21
794.7154142283172
 31
0.0
  0
LINE
  5
2A1C
330
24CB
100
AcDbEntity
  8
1
 62
     7
100
AcDbLine
 10
479.3146279229272
 20
804.655414228317
 30
0.0
 11
479.3146279229272
 21
796.300414228317
 31
0.0
  0
LINE
  5
2A1D
330
24CB
100
AcDbEntity
  8
1
 62
     7
100
AcDbLine
 10
477.0646279229271
 20
800.0131367643716
 30
0.0
 11
476.5635020402871
 21
804.0944795566147
 31
0.0
  0
LINE
  5
2A1E
330
24CB
100
AcDbEntity
  8
0
 62
     7
100
AcDbLine
 10
473.9702528621222
 20
782.8179153550041
 30
0.0
 11
473.9702528621222
 21
785.5179152468929
 31
0.0
  0
LINE
  5
2A1F
330
24CB
100
AcDbEntity
  8
0
 62
     7
100
AcDbLine
 10
495.9702529224863
 20
786.8179142283171
 30
0.0
 11
495.9702529224728
 21
782.8179153550041
 31
0.0
  0
LINE
  5
2A20
330
24CB
100
AcDbEntity
  8
0
 62
     7
100
AcDbLine
 10
495.5702529284566
 20
768.317915504975
 30
0.0
 11
474.3702528559608
 21
768.317915504975
 31
0.0
  0
LINE
  5
2A21
330
24CB
100
AcDbEntity
  8
1
  6
CENTER
 62
     3
100
AcDbLine
 10
467.9702529522243
 20
778.317915355004
 30
0.0
 11
502.9177526599412
 21
778.317915355004
 31
0.0
  0
LINE
  5
2A22
330
24CB
100
AcDbEntity
  8
1
 62
     7
100
AcDbLine
 10
473.9702528621222
 20
773.8179153550041
 30
0.0
 11
495.9702529224728
 21
773.8179153550041
 31
0.0
  0
LINE
  5
2A23
330
24CB
100
AcDbEntity
  8
1
 62
     7
100
AcDbLine
 10
473.9702528621222
 20
782.8179153550041
 30
0.0
 11
495.9702529224728
 21
782.8179153550041
 31
0.0
  0
LINE
  5
2A24
330
24CB
100
AcDbEntity
  8
0
 62
     7
100
AcDbLine
 10
474.3702528559608
 20
768.317915504975
 30
0.0
 11
473.9702528621222
 21
768.7179154990676
 31
0.0
  0
LINE
  5
2A25
330
24CB
100
AcDbEntity
  8
0
 62
     7
100
AcDbLine
 10
473.9702528621222
 20
768.7179154990676
 30
0.0
 11
473.9702528621222
 21
773.8179153550041
 31
0.0
  0
LINE
  5
2A26
330
24CB
100
AcDbEntity
  8
0
 62
     7
100
AcDbLine
 10
473.9702528621222
 20
773.8179153550041
 30
0.0
 11
473.9702528621222
 21
782.8179153550041
 31
0.0
  0
LINE
  5
2A27
330
24CB
100
AcDbEntity
  8
0
 62
     7
100
AcDbLine
 10
495.9702529224522
 20
768.7179154990676
 30
0.0
 11
495.5702529284566
 21
768.317915504975
 31
0.0
  0
LINE
  5
2A28
330
24CB
100
AcDbEntity
  8
0
 62
     7
100
AcDbLine
 10
495.9702529224728
 20
773.8179153550041
 30
0.0
 11
495.9702529224522
 21
768.7179154990676
 31
0.0
  0
LINE
  5
2A29
330
24CB
100
AcDbEntity
  8
0
 62
     7
100
AcDbLine
 10
495.9702529224728
 20
782.8179153550041
 30
0.0
 11
495.9702529224728
 21
773.8179153550041
 31
0.0
  0
LINE
  5
2A2A
330
24CB
100
AcDbEntity
  8
1
 62
     7
100
AcDbLine
 10
494.2535196911766
 20
789.3511809965668
 30
0.0
 11
489.4702529229272
 21
789.2969142283172
 31
0.0
  0
LINE
  5
2A2B
330
24CB
100
AcDbEntity
  8
0
 62
     7
100
AcDbLine
 10
475.3702528422848
 20
789.2969142283172
 30
0.0
 11
493.1646534071748
 21
789.2969142283172
 31
0.0
  0
LINE
  5
2A2C
330
24CB
100
AcDbEntity
  8
0
 62
     7
100
AcDbLine
 10
472.8275103657648
 20
790.4649142282304
 30
0.0
 11
494.9646309580823
 21
790.4649142279764
 31
0.0
  0
LINE
  5
2A2D
330
24CB
100
AcDbEntity
  8
0
 62
     7
100
AcDbLine
 10
495.1702529345596
 20
790.4649142282304
 30
0.0
 11
470.7702529106516
 21
790.4649142284844
 31
0.0
  0
LINE
  5
2A2E
330
24CB
100
AcDbEntity
  8
0
 62
     7
100
AcDbLine
 10
469.9702529227202
 20
789.2969142283172
 30
0.0
 11
495.9702529226771
 21
789.2969142283172
 31
0.0
  0
LINE
  5
2A2F
330
24CB
100
AcDbEntity
  8
1
 62
     7
100
AcDbLine
 10
493.8102529229271
 20
791.9569142283171
 30
0.0
 11
485.4677529229272
 21
791.9569142283171
 31
0.0
  0
LINE
  5
2A30
330
24CB
100
AcDbEntity
  8
1
 62
     7
100
AcDbLine
 10
494.2102529229272
 20
795.0154142283171
 30
0.0
 11
488.0057584914052
 21
795.0154142283171
 31
0.0
  0
ARC
  5
2A31
330
24CB
100
AcDbEntity
  8
1
 62
     7
100
AcDbCircle
 10
477.5646279229272
 20
796.8004142283171
 30
0.0
 40
0.5
100
AcDbArc
 50
180.0
 51
270.0
  0
ARC
  5
2A32
330
24CB
100
AcDbEntity
  8
1
 62
     7
100
AcDbCircle
 10
461.6675004725472
 20
741.0189142283172
 30
0.0
 40
49.82190542645724
100
AcDbArc
 50
76.27866335332196
 51
91.69910114918566
  0
ARC
  5
2A33
330
24CB
100
AcDbEntity
  8
0
 62
     7
100
AcDbCircle
 10
473.6702528666798
 20
785.5179152468929
 30
0.0
 40
0.2999999954424197
100
AcDbArc
 50
0.0
 51
90.0
  0
ARC
  5
2A34
330
24CB
100
AcDbEntity
  8
1
 62
     7
100
AcDbCircle
 10
485.4677529229272
 20
800.4004142283172
 30
0.0
 40
5.953125
100
AcDbArc
 50
270.0
 51
295.2349812870611
  0
ARC
  5
2A35
330
24CB
100
AcDbEntity
  8
1
 62
     7
100
AcDbCircle
 10
485.4677529229272
 20
800.4004142283172
 30
0.0
 40
5.953125000000023
100
AcDbArc
 50
244.7650187129389
 51
270.0
  0
LINE
  5
2A36
330
24CB
100
AcDbEntity
  8
1
 62
     7
100
AcDbLine
 10
473.4852529229272
 20
789.4189450893032
 30
0.0
 11
483.4702529229272
 21
789.2969142283172
 31
0.0
  0
LINE
  5
2A37
330
24CB
100
AcDbEntity
  8
1
 62
     7
100
AcDbLine
 10
489.4702529229272
 20
789.2969142283172
 30
0.0
 11
483.4702529229272
 21
789.2969142283172
 31
0.0
  0
LINE
  5
2A38
330
24CB
100
AcDbEntity
  8
0
 62
     7
100
AcDbLine
 10
473.9177531025785
 20
800.8179150169981
 30
0.0
 11
475.5177530725432
 21
800.8179150169981
 31
0.0
  0
LINE
  5
2A39
330
24CB
100
AcDbEntity
  8
0
 62
     7
100
AcDbLine
 10
470.7702529103976
 20
790.4649142284844
 30
0.0
 11
469.9702529224662
 21
789.6649142402992
 31
0.0
  0
LINE
  5
2A3A
330
24CB
100
AcDbEntity
  8
0
 62
     7
100
AcDbLine
 10
473.6702528666798
 20
785.8179152423354
 30
0.0
 11
470.7702529103976
 21
785.8179152423354
 31
0.0
  0
LINE
  5
2A3B
330
24CB
100
AcDbEntity
  8
0
 62
     7
100
AcDbLine
 10
470.7702529103976
 20
785.8179152423354
 30
0.0
 11
469.9702529224662
 21
786.6179152302666
 31
0.0
  0
LINE
  5
2A3C
330
24CB
100
AcDbEntity
  8
0
 62
     7
100
AcDbLine
 10
469.9702529224662
 20
789.6649142402992
 30
0.0
 11
469.9702529224662
 21
786.6179152302666
 31
0.0
  0
LINE
  5
2A3D
330
24CB
100
AcDbEntity
  8
1
 62
     7
100
AcDbLine
 10
477.1252529229273
 20
791.9569142283171
 30
0.0
 11
476.4252529229271
 21
792.3610594167499
 31
0.0
  0
LINE
  5
2A3E
330
24CB
100
AcDbEntity
  8
1
 62
     7
100
AcDbLine
 10
476.7252529229272
 20
795.0154142283171
 30
0.0
 11
476.4252529229271
 21
794.7154142283172
 31
0.0
  0
LINE
  5
2A3F
330
24CB
100
AcDbEntity
  8
1
 62
     7
100
AcDbLine
 10
482.9297473544492
 20
795.0154142283171
 30
0.0
 11
476.7252529229272
 21
795.0154142283171
 31
0.0
  0
LINE
  5
2A40
330
24CB
100
AcDbEntity
  8
1
 62
     7
100
AcDbLine
 10
476.4252529229271
 20
794.7154142283172
 30
0.0
 11
476.4252529229271
 21
792.3610594167499
 31
0.0
  0
LINE
  5
2A41
330
24CB
100
AcDbEntity
  8
1
 62
     7
100
AcDbLine
 10
485.4677529229272
 20
791.9569142283171
 30
0.0
 11
477.1252529229273
 21
791.9569142283171
 31
0.0
  0
LINE
  5
2A42
330
24CB
100
AcDbEntity
  8
1
 62
     7
100
AcDbLine
 10
477.0646279229271
 20
800.0131367643716
 30
0.0
 11
477.0646279229271
 21
796.8004142283171
 31
0.0
  0
LINE
  5
2A43
330
24CB
100
AcDbEntity
  8
1
 62
     7
100
AcDbLine
 10
479.3146279229272
 20
796.300414228317
 30
0.0
 11
477.5646279229272
 21
796.300414228317
 31
0.0
  0
LINE
  5
2A44
330
24CB
100
AcDbEntity
  8
1
 62
     7
100
AcDbLine
 10
481.1074259742525
 20
796.3473602974787
 30
0.0
 11
479.3146279229272
 21
796.300414228317
 31
0.0
  0
ARC
  5
2A45
330
24CB
100
AcDbEntity
  8
1
 62
     7
100
AcDbCircle
 10
495.6702529229273
 20
791.624335523163
 30
0.0
 40
0.2999999999999012
100
AcDbArc
 50
0.0
 51
86.99999999999423
  0
ARC
  5
2A46
330
24CB
100
AcDbEntity
  8
1
 62
     7
100
AcDbCircle
 10
495.6702529229273
 20
791.1921782970291
 30
0.0
 40
0.2999999999999668
100
AcDbArc
 50
314.9999999999816
 51
0.0
  0
LINE
  5
2A47
330
24CB
100
AcDbEntity
  8
1
 62
     7
100
AcDbLine
 10
495.6859537098002
 20
791.9239243835894
 30
0.0
 11
494.7702529229271
 21
791.9719142283172
 31
0.0
  0
LINE
  5
2A48
330
24CB
100
AcDbEntity
  8
1
 62
     7
100
AcDbLine
 10
495.9702529229272
 20
791.624335523163
 30
0.0
 11
495.9702529229272
 21
791.1921782970291
 31
0.0
  0
LINE
  5
2A49
330
24CB
100
AcDbEntity
  8
1
 62
     7
100
AcDbLine
 10
495.8823849572832
 20
790.9800462626731
 30
0.0
 11
494.2535196911766
 21
789.3511809965668
 31
0.0
  0
LINE
  5
2A4A
330
24CB
100
AcDbEntity
  8
0
 62
     7
100
AcDbLine
 10
495.9702529225397
 20
789.6649142400453
 30
0.0
 11
495.1702529345596
 21
790.4649142282304
 31
0.0
  0
LINE
  5
2A4B
330
24CB
100
AcDbEntity
  8
0
 62
     7
100
AcDbLine
 10
495.9702529224961
 20
789.6649142400453
 30
0.0
 11
495.9702529224863
 21
786.8179142283171
 31
0.0
  0
LINE
  5
2A4C
330
24CB
100
AcDbEntity
  8
1
  6
DIVIDE
 62
     7
100
AcDbLine
 10
495.9702529224863
 20
786.8179142283171
 30
0.0
 11
497.9702529224861
 21
786.8179142283171
 31
0.0
  0
LINE
  5
2A4D
330
24CB
100
AcDbEntity
  8
1
  6
DIVIDE
 62
     7
100
AcDbLine
 10
497.9702529224861
 20
786.8179142283171
 30
0.0
 11
497.9702529224861
 21
802.7935521069077
 31
0.0
  0
LINE
  5
2A4E
330
24CB
100
AcDbEntity
  8
1
 62
     7
100
AcDbLine
 10
494.5102529229273
 20
792.3610594167499
 30
0.0
 11
494.5102529229273
 21
794.7154142283172
 31
0.0
  0
LINE
  5
2A4F
330
24CB
100
AcDbEntity
  8
1
 62
     7
100
AcDbLine
 10
494.5102529229273
 20
794.7154142283172
 30
0.0
 11
494.2102529229272
 21
795.0154142283171
 31
0.0
  0
LINE
  5
2A50
330
24CB
100
AcDbEntity
  8
1
 62
     7
100
AcDbLine
 10
494.5102529229273
 20
792.3610594167499
 30
0.0
 11
493.8102529229271
 21
791.9569142283171
 31
0.0
  0
LINE
  5
2A51
330
24CB
100
AcDbEntity
  8
2
  6
CENTER
 62
     3
100
AcDbLine
 10
704.0372088053514
 20
758.3179156548951
 30
0.0
 11
704.0372088053514
 21
768.317915505229
 31
0.0
  0
LINE
  5
2A52
330
24CB
100
AcDbEntity
  8
1
  6
CENTER
 62
     3
100
AcDbLine
 10
669.9122088053496
 20
794.2116804200292
 30
0.0
 11
663.1622088053498
 21
782.5203374689394
 31
0.0
  0
LINE
  5
2A53
330
24CB
100
AcDbEntity
  8
2
  6
CENTER
 62
     3
100
AcDbLine
 10
704.0372088053514
 20
778.3179142283171
 30
0.0
 11
704.0372088053514
 21
789.2969142279362
 31
0.0
  0
LINE
  5
2A54
330
24CB
100
AcDbEntity
  8
2
  6
CENTER
 62
     3
100
AcDbLine
 10
704.0372088053514
 20
768.317915505229
 30
0.0
 11
704.0372088053514
 21
778.3179142283171
 31
0.0
  0
CIRCLE
  5
2A55
330
24CB
100
AcDbEntity
  8
1
 62
     7
100
AcDbCircle
 10
666.5372088053499
 20
788.3660089444843
 30
0.0
 40
4.500000000000023
  0
ARC
  5
2A56
330
24CB
100
AcDbEntity
  8
1
 62
     7
100
AcDbCircle
 10
704.0372088053514
 20
853.317914228317
 30
0.0
 40
57.00999999999985
100
AcDbArc
 50
251.724717706254
 51
256.9709344676611
  0
LINE
  5
2A57
330
24CB
100
AcDbEntity
  8
2
  6
CENTER
 62
     3
100
AcDbLine
 10
704.0372088053514
 20
789.2969142279362
 30
0.0
 11
704.0372088053514
 21
790.4649142283237
 31
0.0
  0
LINE
  5
2A58
330
24CB
100
AcDbEntity
  8
0
 62
     7
100
AcDbLine
 10
496.9702529209544
 20
837.817914461115
 30
0.0
 11
496.9702529209544
 21
853.317914228317
 31
0.0
  0
LINE
  5
2A59
330
24CB
100
AcDbEntity
  8
1
 62
     7
100
AcDbLine
 10
464.9702529212923
 20
837.3179142283168
 30
0.0
 11
464.9702529212923
 21
869.317914228317
 31
0.0
  0
LINE
  5
2A5A
330
24CB
100
AcDbEntity
  8
1
 62
     7
100
AcDbLine
 10
477.4702529212923
 20
837.3179144686261
 30
0.0
 11
477.4702529212923
 21
814.817914806683
 31
0.0
  0
LINE
  5
2A5B
330
24CB
100
AcDbEntity
  8
0
 62
     7
100
AcDbLine
 10
465.9702529240078
 20
834.3179145137192
 30
0.0
 11
465.9702529240078
 21
814.817914806683
 31
0.0
  0
LINE
  5
2A5C
330
24CB
100
AcDbEntity
  8
0
 62
     7
100
AcDbLine
 10
491.7702529202342
 20
808.8679148958892
 30
0.0
 11
491.7702529202342
 21
837.0679144723819
 31
0.0
  0
LINE
  5
2A5D
330
24CB
100
AcDbEntity
  8
0
 62
     7
100
AcDbLine
 10
472.3702529212921
 20
814.5679142283171
 30
0.0
 11
472.3702529212921
 21
836.9179144746604
 31
0.0
  0
LINE
  5
2A5E
330
24CB
100
AcDbEntity
  8
1
 62
     7
100
AcDbLine
 10
465.7702529269616
 20
814.5679142283171
 30
0.0
 11
465.7702528338728
 21
837.3179142283168
 31
0.0
  0
LINE
  5
2A5F
330
24CB
100
AcDbEntity
  8
0
 62
     7
100
AcDbLine
 10
477.4702529212923
 20
808.8679148958892
 30
0.0
 11
491.7702529193642
 21
808.8679148958892
 31
0.0
  0
LINE
  5
2A60
330
24CB
100
AcDbEntity
  8
1
 62
     7
100
AcDbLine
 10
491.0177529229271
 20
805.6854142283171
 30
0.0
 11
488.2079120908631
 21
805.6854142283171
 31
0.0
  0
LINE
  5
2A61
330
24CB
100
AcDbEntity
  8
1
 62
     7
100
AcDbLine
 10
491.0177529229271
 20
808.8604142283172
 30
0.0
 11
485.4677529229272
 21
808.8604142283172
 31
0.0
  0
ARC
  5
2A62
330
24CB
100
AcDbEntity
  8
1
 62
     7
100
AcDbCircle
 10
477.0597751161075
 20
804.1554142283171
 30
0.0
 40
0.5
100
AcDbArc
 50
90.0
 51
186.9999999999927
  0
ARC
  5
2A63
330
24CB
100
AcDbEntity
  8
1
 62
     7
100
AcDbCircle
 10
485.4677529229272
 20
800.4004142283172
 30
0.0
 40
5.953124999999982
100
AcDbArc
 50
62.59422911437523
 51
90.0
  0
LINE
  5
2A64
330
24CB
100
AcDbEntity
  8
1
 62
     7
100
AcDbLine
 10
477.4702529212923
 20
808.8679148958892
 30
0.0
 11
477.4702529212923
 21
814.817914806683
 31
0.0
  0
LINE
  5
2A65
330
24CB
100
AcDbEntity
  8
0
 62
     7
100
AcDbLine
 10
477.4702529212923
 20
814.817914806683
 30
0.0
 11
477.4702529213152
 21
814.817914806683
 31
0.0
  0
LINE
  5
2A66
330
24CB
100
AcDbEntity
  8
0
 62
     7
100
AcDbLine
 10
465.9702529240078
 20
814.817914806683
 30
0.0
 11
473.9177531025785
 21
814.817914806683
 31
0.0
  0
LINE
  5
2A67
330
24CB
100
AcDbEntity
  8
0
 62
     7
100
AcDbLine
 10
475.5177530725432
 20
814.817914806683
 30
0.0
 11
477.4702529212923
 21
814.817914806683
 31
0.0
  0
LINE
  5
2A68
330
24CB
100
AcDbEntity
  8
0
 62
     7
100
AcDbLine
 10
465.7702529269616
 20
814.5679142283171
 30
0.0
 11
472.3702529212921
 21
814.5679142283171
 31
0.0
  0
LINE
  5
2A69
330
24CB
100
AcDbEntity
  8
1
 62
     7
100
AcDbLine
 10
485.4677529229272
 20
808.8604142283172
 30
0.0
 11
479.9177529229273
 21
808.8604142283172
 31
0.0
  0
LINE
  5
2A6A
330
24CB
100
AcDbEntity
  8
1
 62
     7
100
AcDbLine
 10
482.7275937549908
 20
805.6854142283171
 30
0.0
 11
479.9177529229273
 21
805.6854142283171
 31
0.0
  0
LINE
  5
2A6B
330
24CB
100
AcDbEntity
  8
1
 62
     7
100
AcDbLine
 10
479.9177529229273
 20
808.8604142283172
 30
0.0
 11
479.1177529229272
 21
808.0604142283172
 31
0.0
  0
LINE
  5
2A6C
330
24CB
100
AcDbEntity
  8
1
 62
     7
100
AcDbLine
 10
479.1177529229272
 20
806.4854142283172
 30
0.0
 11
479.9177529229273
 21
805.6854142283171
 31
0.0
  0
LINE
  5
2A6D
330
24CB
100
AcDbEntity
  8
1
 62
     7
100
AcDbLine
 10
479.1177529229272
 20
806.4854142283172
 30
0.0
 11
479.1177529229272
 21
808.0604142283172
 31
0.0
  0
LINE
  5
2A6E
330
24CB
100
AcDbEntity
  8
1
 62
     7
100
AcDbLine
 10
479.3146279229272
 20
804.655414228317
 30
0.0
 11
481.3042601265332
 21
804.655414228317
 31
0.0
  0
LINE
  5
2A6F
330
24CB
100
AcDbEntity
  8
1
 62
     7
100
AcDbLine
 10
479.3146279229272
 20
804.655414228317
 30
0.0
 11
477.0597751161075
 21
804.655414228317
 31
0.0
  0
LINE
  5
2A70
330
24CB
100
AcDbEntity
  8
1
 62
     7
100
AcDbLine
 10
491.8177529229272
 20
808.0604142283172
 30
0.0
 11
491.8177529229272
 21
806.4854142283172
 31
0.0
  0
LINE
  5
2A71
330
24CB
100
AcDbEntity
  8
1
 62
     7
100
AcDbLine
 10
491.0177529229271
 20
805.6854142283171
 30
0.0
 11
491.8177529229272
 21
806.4854142283172
 31
0.0
  0
LINE
  5
2A72
330
24CB
100
AcDbEntity
  8
1
 62
     7
100
AcDbLine
 10
491.8177529229272
 20
808.0604142283172
 30
0.0
 11
491.0177529229271
 21
808.8604142283172
 31
0.0
  0
LINE
  5
2A73
330
24CB
100
AcDbEntity
  8
0
 62
     7
100
AcDbLine
 10
477.4702529212923
 20
837.3179144686261
 30
0.0
 11
492.9677528102835
 21
837.3179144686261
 31
0.0
  0
LINE
  5
2A74
330
24CB
100
AcDbEntity
  8
0
 62
     7
100
AcDbLine
 10
491.7702529203621
 20
837.0679144723819
 30
0.0
 11
477.4702529212923
 21
837.0679144723819
 31
0.0
  0
LINE
  5
2A75
330
24CB
100
AcDbEntity
  8
0
 62
     7
100
AcDbLine
 10
464.9702535221921
 20
843.8179143710305
 30
0.0
 11
496.9702529209544
 21
843.8179143710305
 31
0.0
  0
ARC
  5
2A76
330
24CB
100
AcDbEntity
  8
0
 62
     7
100
AcDbCircle
 10
472.7702529151946
 20
836.9179144747242
 30
0.0
 40
0.3999999939020995
100
AcDbArc
 50
89.99999997269913
 51
180.0000000090932
  0
LINE
  5
2A77
330
24CB
100
AcDbEntity
  8
0
 62
     7
100
AcDbLine
 10
465.9702529240078
 20
834.3179145137192
 30
0.0
 11
472.870252913783
 21
834.3179145137192
 31
0.0
  0
LINE
  5
2A78
330
24CB
100
AcDbEntity
  8
0
 62
     7
100
AcDbLine
 10
477.0177530500172
 20
835.5679144949665
 30
0.0
 11
472.870252913783
 21
835.5679144949665
 31
0.0
  0
LINE
  5
2A79
330
24CB
100
AcDbEntity
  8
0
 62
     7
100
AcDbLine
 10
477.0177530500172
 20
835.5679144949665
 30
0.0
 11
477.0177530500172
 21
830.8179145662977
 31
0.0
  0
LINE
  5
2A7A
330
24CB
100
AcDbEntity
  8
0
 62
     7
100
AcDbLine
 10
477.0177530500172
 20
830.8179145662977
 30
0.0
 11
477.4702529212923
 21
830.8179145662977
 31
0.0
  0
LINE
  5
2A7B
330
24CB
100
AcDbEntity
  8
0
 62
     7
100
AcDbLine
 10
472.870252913783
 20
835.5679144949665
 30
0.0
 11
472.870252913783
 21
834.3179145137192
 31
0.0
  0
LINE
  5
2A7C
330
24CB
100
AcDbEntity
  8
0
 62
     7
100
AcDbLine
 10
472.870252913783
 20
835.5679144949665
 30
0.0
 11
472.870252913783
 21
837.3179144686261
 31
0.0
  0
LINE
  5
2A7D
330
24CB
100
AcDbEntity
  8
0
 62
     7
100
AcDbLine
 10
477.0177530500172
 20
835.5679144949665
 30
0.0
 11
477.0177530500172
 21
837.3179144686261
 31
0.0
  0
LINE
  5
2A7E
330
24CB
100
AcDbEntity
  8
0
 62
     7
100
AcDbLine
 10
483.7177529493586
 20
837.0679144723819
 30
0.0
 11
483.7177529493586
 21
831.0679145625423
 31
0.0
  0
LINE
  5
2A7F
330
24CB
100
AcDbEntity
  8
0
 62
     7
100
AcDbLine
 10
483.7177529493586
 20
831.0679145625423
 30
0.0
 11
477.4702529212695
 21
831.0679145625423
 31
0.0
  0
LINE
  5
2A80
330
24CB
100
AcDbEntity
  8
0
 62
     7
100
AcDbLine
 10
472.7702529153851
 20
837.3179144686261
 30
0.0
 11
477.4702529212923
 21
837.3179144686261
 31
0.0
  0
LINE
  5
2A81
330
24CB
100
AcDbEntity
  8
1
 62
     7
100
AcDbLine
 10
465.7702528338728
 20
837.3179142283168
 30
0.0
 11
464.9702529212923
 21
837.3179142283168
 31
0.0
  0
LINE
  5
2A82
330
24CB
100
AcDbEntity
  8
0
 62
     7
100
AcDbLine
 10
465.7702528379648
 20
836.3179144836738
 30
0.0
 11
472.3702529212921
 21
836.3179144836738
 31
0.0
  0
LINE
  5
2A83
330
24CB
100
AcDbEntity
  8
0
 62
     7
100
AcDbLine
 10
492.9677528102835
 20
837.3179144686261
 30
0.0
 11
492.9677528102835
 21
838.1679144558315
 31
0.0
  0
LINE
  5
2A84
330
24CB
100
AcDbEntity
  8
0
 62
     7
100
AcDbLine
 10
492.9677528102835
 20
838.1679144558315
 30
0.0
 11
494.5702529209541
 21
838.1679144558315
 31
0.0
  0
LINE
  5
2A85
330
24CB
100
AcDbEntity
  8
0
 62
     7
100
AcDbLine
 10
494.5702529209541
 20
838.1679144558315
 30
0.0
 11
494.5702529209541
 21
837.3179144686261
 31
0.0
  0
LINE
  5
2A86
330
24CB
100
AcDbEntity
  8
0
 62
     7
100
AcDbLine
 10
494.5702529209541
 20
837.3179144686261
 30
0.0
 11
496.4702529284656
 21
837.3179144686261
 31
0.0
  0
LINE
  5
2A87
330
24CB
100
AcDbEntity
  8
0
 62
     7
100
AcDbLine
 10
496.4702529284656
 20
837.3179144686261
 30
0.0
 11
496.9702529209544
 21
837.817914461115
 31
0.0
  0
LINE
  5
2A88
330
24CB
100
AcDbEntity
  8
0
 62
     7
100
AcDbLine
 10
491.77025292023
 20
831.8179145512498
 30
0.0
 11
492.9677528102835
 21
831.8179145512498
 31
0.0
  0
LINE
  5
2A89
330
24CB
100
AcDbEntity
  8
0
 62
     7
100
AcDbLine
 10
492.9677528102835
 20
831.8179145512498
 30
0.0
 11
492.9677528102835
 21
837.3179144686261
 31
0.0
  0
LINE
  5
2A8A
330
24CB
100
AcDbEntity
  8
0
 62
     7
100
AcDbLine
 10
492.9677528102835
 20
836.3179144836738
 30
0.0
 11
491.77025292023
 21
836.3179144836738
 31
0.0
  0
LINE
  5
2A8B
330
24CB
100
AcDbEntity
  8
0
 62
     7
100
AcDbLine
 10
492.9677528102835
 20
834.3179145137192
 30
0.0
 11
494.5702529209541
 21
834.3179145137192
 31
0.0
  0
LINE
  5
2A8C
330
24CB
100
AcDbEntity
  8
0
 62
     7
100
AcDbLine
 10
494.5702529209541
 20
834.3179145137192
 30
0.0
 11
494.5702529209541
 21
837.3179144686261
 31
0.0
  0
LINE
  5
2A8D
330
24CB
100
AcDbEntity
  8
0
 62
     7
100
AcDbLine
 10
496.9702529209544
 20
868.8179139955396
 30
0.0
 11
496.9702529209544
 21
853.317914228317
 31
0.0
  0
LINE
  5
2A8E
330
24CB
100
AcDbEntity
  8
1
  6
CENTER
 62
     3
100
AcDbLine
 10
502.3576342235531
 20
853.317914228317
 30
0.0
 11
460.6446997384693
 21
853.317914228317
 31
0.0
  0
LINE
  5
2A8F
330
24CB
100
AcDbEntity
  8
0
 62
     7
100
AcDbLine
 10
464.9702535221921
 20
862.8179140856415
 30
0.0
 11
496.9702529209544
 21
862.8179140856415
 31
0.0
  0
LINE
  5
2A90
330
24CB
100
AcDbEntity
  8
0
 62
     7
100
AcDbLine
 10
464.9702535221921
 20
865.617914043576
 30
0.0
 11
496.9702529209544
 21
865.617914043576
 31
0.0
  0
LINE
  5
2A91
330
24CB
100
AcDbEntity
  8
0
 62
     7
100
AcDbLine
 10
491.7702529212923
 20
869.567913984255
 30
0.0
 11
477.4702529212923
 21
869.567913984255
 31
0.0
  0
LINE
  5
2A92
330
24CB
100
AcDbEntity
  8
0
 62
     7
100
AcDbLine
 10
472.7702529153851
 20
869.3179139880156
 30
0.0
 11
492.9677528102835
 21
869.3179139880156
 31
0.0
  0
ARC
  5
2A93
330
24CB
100
AcDbEntity
  8
0
 62
     7
100
AcDbCircle
 10
472.7702529152024
 20
869.7179139819253
 30
0.0
 40
0.3999999939098871
100
AcDbArc
 50
179.9999999897929
 51
270.0000000261853
  0
LINE
  5
2A94
330
24CB
100
AcDbEntity
  8
0
 62
     7
100
AcDbLine
 10
483.5177529524037
 20
875.8179138903923
 30
0.0
 11
477.0177530500172
 21
875.8179138903923
 31
0.0
  0
LINE
  5
2A95
330
24CB
100
AcDbEntity
  8
0
 62
     7
100
AcDbLine
 10
477.0177530500172
 20
871.0679139617287
 30
0.0
 11
472.870252913783
 21
871.0679139617287
 31
0.0
  0
LINE
  5
2A96
330
24CB
100
AcDbEntity
  8
0
 62
     7
100
AcDbLine
 10
472.870252913783
 20
871.0679139617287
 30
0.0
 11
472.870252913783
 21
872.317913942966
 31
0.0
  0
LINE
  5
2A97
330
24CB
100
AcDbEntity
  8
0
 62
     7
100
AcDbLine
 10
472.870252913783
 20
872.317913942966
 30
0.0
 11
472.3702529212921
 21
872.317913942966
 31
0.0
  0
LINE
  5
2A98
330
24CB
100
AcDbEntity
  8
0
 62
     7
100
AcDbLine
 10
477.0177530500172
 20
871.0679139617287
 30
0.0
 11
477.0177530500172
 21
875.8179138903923
 31
0.0
  0
LINE
  5
2A99
330
24CB
100
AcDbEntity
  8
0
 62
     7
100
AcDbLine
 10
472.870252913783
 20
871.0679139617287
 30
0.0
 11
472.870252913783
 21
869.3179139880156
 31
0.0
  0
LINE
  5
2A9A
330
24CB
100
AcDbEntity
  8
0
 62
     7
100
AcDbLine
 10
477.0177530500172
 20
871.0679139617287
 30
0.0
 11
477.0177530500172
 21
869.3179139880156
 31
0.0
  0
LINE
  5
2A9B
330
24CB
100
AcDbEntity
  8
0
 62
     7
100
AcDbLine
 10
483.6177529493587
 20
875.5679138941529
 30
0.0
 11
477.4702529212923
 21
875.5679138941529
 31
0.0
  0
LINE
  5
2A9C
330
24CB
100
AcDbEntity
  8
1
 62
     7
100
AcDbLine
 10
464.9702529212923
 20
869.317914228317
 30
0.0
 11
465.7702528338728
 21
869.317914228317
 31
0.0
  0
LINE
  5
2A9D
330
24CB
100
AcDbEntity
  8
0
 62
     7
100
AcDbLine
 10
492.9677528102835
 20
869.3179139880156
 30
0.0
 11
492.9677528102835
 21
868.4679140008073
 31
0.0
  0
LINE
  5
2A9E
330
24CB
100
AcDbEntity
  8
0
 62
     7
100
AcDbLine
 10
492.9677528102835
 20
868.4679140008073
 30
0.0
 11
494.5702529209541
 21
868.4679140008073
 31
0.0
  0
LINE
  5
2A9F
330
24CB
100
AcDbEntity
  8
0
 62
     7
100
AcDbLine
 10
494.5702529209541
 20
868.4679140008073
 30
0.0
 11
494.5702529209541
 21
869.3179139880156
 31
0.0
  0
LINE
  5
2AA0
330
24CB
100
AcDbEntity
  8
0
 62
     7
100
AcDbLine
 10
494.5702529209541
 20
869.3179139880156
 30
0.0
 11
496.4702529284656
 21
869.3179139880156
 31
0.0
  0
LINE
  5
2AA1
330
24CB
100
AcDbEntity
  8
0
 62
     7
100
AcDbLine
 10
496.4702529284656
 20
869.3179139880156
 30
0.0
 11
496.9702529209544
 21
868.8179139955396
 31
0.0
  0
LINE
  5
2AA2
330
24CB
100
AcDbEntity
  8
0
 62
     7
100
AcDbLine
 10
491.8177528275847
 20
874.8179139054398
 30
0.0
 11
492.9677528102835
 21
874.8179139054398
 31
0.0
  0
LINE
  5
2AA3
330
24CB
100
AcDbEntity
  8
0
 62
     7
100
AcDbLine
 10
492.9677528102835
 20
874.8179139054398
 30
0.0
 11
492.9677528102835
 21
869.3179139880156
 31
0.0
  0
LINE
  5
2AA4
330
24CB
100
AcDbEntity
  8
0
 62
     7
100
AcDbLine
 10
492.9677528102835
 20
870.3179139729678
 30
0.0
 11
491.7702529213015
 21
870.3179139729678
 31
0.0
  0
LINE
  5
2AA5
330
24CB
100
AcDbEntity
  8
0
 62
     7
100
AcDbLine
 10
492.9677528102835
 20
872.317913942966
 30
0.0
 11
494.5702529209541
 21
872.317913942966
 31
0.0
  0
LINE
  5
2AA6
330
24CB
100
AcDbEntity
  8
0
 62
     7
100
AcDbLine
 10
494.5702529209541
 20
872.317913942966
 30
0.0
 11
494.5702529209541
 21
869.3179139880156
 31
0.0
  0
ARC
  5
2AA7
330
24CB
100
AcDbEntity
  8
1
 62
     7
100
AcDbCircle
 10
704.0372088050995
 20
853.317914228317
 30
0.0
 40
9.499999857520274
100
AcDbArc
 50
108.4084801749754
 51
270.0000000015177
  0
ARC
  5
2AA8
330
24CB
100
AcDbEntity
  8
0
 62
     7
100
AcDbCircle
 10
704.0372088053532
 20
854.2512475476652
 30
0.0
 40
17.6799997344213
100
AcDbArc
 50
90.00000000000651
 51
250.7303611220291
  0
ARC
  5
2AA9
330
24CB
100
AcDbEntity
  8
1
 62
     7
100
AcDbCircle
 10
651.2505542274802
 20
849.7072081371923
 30
0.0
 40
5.953124999999952
100
AcDbArc
 50
210.489043425481
 51
338.0301301610181
  0
ARC
  5
2AAA
330
24CB
100
AcDbEntity
  8
1
 62
     7
100
AcDbCircle
 10
704.0372088053514
 20
853.317914228317
 30
0.0
 40
48.65499999999978
100
AcDbArc
 50
189.3965940224931
 51
194.0816668470747
  0
ARC
  5
2AAB
330
24CB
100
AcDbEntity
  8
1
 62
     7
100
AcDbCircle
 10
651.2505542274802
 20
849.7072081371923
 30
0.0
 40
6.455000000000006
100
AcDbArc
 50
237.1307382346021
 51
317.8346335483933
  0
LINE
  5
2AAC
330
24CB
100
AcDbEntity
  8
1
  6
CENTER
 62
     3
100
AcDbLine
 10
644.9309749970618
 20
819.1929142283171
 30
0.0
 11
633.239632045972
 21
812.4429142283171
 31
0.0
  0
CIRCLE
  5
2AAD
330
24CB
100
AcDbEntity
  8
1
 62
     7
100
AcDbCircle
 10
639.0853035215168
 20
815.817914228317
 30
0.0
 40
4.500000000000016
  0
ARC
  5
2AAE
330
24CB
100
AcDbEntity
  8
1
 62
     7
100
AcDbCircle
 10
660.8113317661691
 20
822.8057583852196
 30
0.0
 40
5.953124999999968
100
AcDbArc
 50
61.10030462158558
 51
188.6413913571299
  0
ARC
  5
2AAF
330
24CB
100
AcDbEntity
  8
1
 62
     7
100
AcDbCircle
 10
670.64634567106
 20
812.2750298371464
 30
0.0
 40
5.953124999999952
100
AcDbArc
 50
257.4455651646111
 51
24.98665190015371
  0
ARC
  5
2AB0
330
24CB
100
AcDbEntity
  8
1
 62
     7
100
AcDbCircle
 10
670.64634567106
 20
812.2750298371464
 30
0.0
 40
6.454999999999968
100
AcDbArc
 50
284.0872599737333
 51
4.791155287523199
  0
ARC
  5
2AB1
330
24CB
100
AcDbEntity
  8
1
 62
     7
100
AcDbCircle
 10
670.64634567106
 20
812.2750298371464
 30
0.0
 40
5.953125000000056
100
AcDbArc
 50
76.75247853463114
 51
204.2935652701692
  0
ARC
  5
2AB2
330
24CB
100
AcDbEntity
  8
1
 62
     7
100
AcDbCircle
 10
660.8113317661691
 20
822.8057583852196
 30
0.0
 40
5.953124999999976
100
AcDbArc
 50
241.7933912515689
 51
9.334477987104801
  0
ARC
  5
2AB3
330
24CB
100
AcDbEntity
  8
1
 62
     7
100
AcDbCircle
 10
670.64634567106
 20
812.2750298371464
 30
0.0
 40
6.455000000000008
100
AcDbArc
 50
96.94797514725983
 51
177.6518704610506
  0
ARC
  5
2AB4
330
24CB
100
AcDbEntity
  8
1
 62
     7
100
AcDbCircle
 10
704.0372088053514
 20
853.317914228317
 30
0.0
 40
48.65499999999984
100
AcDbArc
 50
220.7009418485795
 51
225.3860146731581
  0
ARC
  5
2AB5
330
24CB
100
AcDbEntity
  8
1
 62
     7
100
AcDbCircle
 10
660.8113317661691
 20
822.8057583852196
 30
0.0
 40
6.455000000000102
100
AcDbArc
 50
268.4350860606913
 51
349.138981374483
  0
ARC
  5
2AB6
330
24CB
100
AcDbEntity
  8
1
 62
     7
100
AcDbCircle
 10
704.0372088053514
 20
853.317914228317
 30
0.0
 40
57.00999999999982
100
AcDbArc
 50
220.4203698801649
 51
225.6665866415753
  0
ARC
  5
2AB7
330
24CB
100
AcDbEntity
  8
1
 62
     7
100
AcDbCircle
 10
704.0372088053514
 20
853.317914228317
 30
0.0
 40
48.65499999999986
100
AcDbArc
 50
252.0052896746643
 51
256.6903624992473
  0
ARC
  5
2AB8
330
24CB
100
AcDbEntity
  8
1
 62
     7
100
AcDbCircle
 10
704.0372088053514
 20
853.317914228317
 30
0.0
 40
48.65499999999986
100
AcDbArc
 50
236.353115761622
 51
241.0381885862026
  0
ARC
  5
2AB9
330
24CB
100
AcDbEntity
  8
1
 62
     7
100
AcDbCircle
 10
654.1821834160448
 20
835.5994339483503
 30
0.0
 40
5.953125000000023
100
AcDbArc
 50
45.44813070854435
 51
172.9892174440854
  0
ARC
  5
2ABA
330
24CB
100
AcDbEntity
  8
1
 62
     7
100
AcDbCircle
 10
654.1821834160448
 20
835.5994339483503
 30
0.0
 40
5.953124999999894
100
AcDbArc
 50
226.1412173385255
 51
353.6823040740612
  0
ARC
  5
2ABB
330
24CB
100
AcDbEntity
  8
1
 62
     7
100
AcDbCircle
 10
660.8113317661691
 20
822.8057583852196
 30
0.0
 40
6.454999999999945
100
AcDbArc
 50
81.29580123421449
 51
161.9996965480051
  0
ARC
  5
2ABC
330
24CB
100
AcDbEntity
  8
1
 62
     7
100
AcDbCircle
 10
704.0372088053514
 20
853.317914228317
 30
0.0
 40
48.6549999999998
100
AcDbArc
 50
205.048767935535
 51
209.7338407601151
  0
ARC
  5
2ABD
330
24CB
100
AcDbEntity
  8
1
 62
     7
100
AcDbCircle
 10
654.1821834160448
 20
835.5994339483503
 30
0.0
 40
6.454999999999968
100
AcDbArc
 50
252.7829121476473
 51
333.4868074614351
  0
ARC
  5
2ABE
330
24CB
100
AcDbEntity
  8
1
 62
     7
100
AcDbCircle
 10
704.0372088053514
 20
853.317914228317
 30
0.0
 40
57.00999999999982
100
AcDbArc
 50
204.7681959671187
 51
210.0144127285269
  0
ARC
  5
2ABF
330
24CB
100
AcDbEntity
  8
1
 62
     7
100
AcDbCircle
 10
654.1821834160448
 20
835.5994339483503
 30
0.0
 40
6.455000000000016
100
AcDbArc
 50
65.64362732117178
 51
146.3475226349616
  0
ARC
  5
2AC0
330
24CB
100
AcDbEntity
  8
1
 62
     7
100
AcDbCircle
 10
704.0372088053514
 20
853.317914228317
 30
0.0
 40
57.0099999999998
100
AcDbArc
 50
189.1160220540803
 51
194.3622388154886
  0
CIRCLE
  5
2AC1
330
24CB
100
AcDbEntity
  8
0
 62
     7
100
AcDbCircle
 10
701.2105421811513
 20
835.8779144902726
 30
0.0
 40
1.066666650638891
  0
ARC
  5
2AC2
330
24CB
100
AcDbEntity
  8
0
 62
     7
100
AcDbCircle
 10
699.9838755329133
 20
834.3845811794286
 30
0.0
 40
1.066666650668707
100
AcDbArc
 50
180.0
 51
269.9999999985457
  0
ARC
  5
2AC3
330
24CB
100
AcDbEntity
  8
0
 62
     7
100
AcDbCircle
 10
697.8505422316102
 20
836.5548451658007
 30
0.0
 40
1.066666650661517
100
AcDbArc
 50
0.0000000005471572
 51
70.73036112249361
  0
LINE
  5
2AC4
330
24CB
100
AcDbEntity
  8
0
 62
     7
100
AcDbLine
 10
704.5705421306736
 20
837.3808088177668
 30
0.0
 11
704.5705421306736
 21
833.3179145287598
 31
0.0
  0
LINE
  5
2AC5
330
24CB
100
AcDbEntity
  8
0
 62
     7
100
AcDbLine
 10
703.5038754800305
 20
837.3808088177668
 30
0.0
 11
703.5038754800305
 21
833.3179145287598
 31
0.0
  0
LINE
  5
2AC6
330
24CB
100
AcDbEntity
  8
0
 62
     7
100
AcDbLine
 10
703.5038754800305
 20
833.3179145287598
 30
0.0
 11
699.983875532886
 21
833.3179145287598
 31
0.0
  0
LINE
  5
2AC7
330
24CB
100
AcDbEntity
  8
0
 62
     7
100
AcDbLine
 10
698.9172088822715
 20
834.3845811794286
 30
0.0
 11
698.9172088822715
 21
836.5548451658112
 31
0.0
  0
CIRCLE
  5
2AC8
330
24CB
100
AcDbEntity
  8
1
 62
     7
100
AcDbCircle
 10
629.0372088053495
 20
853.317914228317
 30
0.0
 40
4.499999999999968
  0
ARC
  5
2AC9
330
24CB
100
AcDbEntity
  8
1
 62
     7
100
AcDbCircle
 10
652.2338697260798
 20
864.0827718789321
 30
0.0
 40
5.953124999999982
100
AcDbArc
 50
14.14378288245963
 51
141.6848696179988
  0
ARC
  5
2ACA
330
24CB
100
AcDbEntity
  8
1
 62
     7
100
AcDbCircle
 10
651.2505542274802
 20
849.7072081371923
 30
0.0
 40
5.953124999999976
100
AcDbArc
 50
29.7959567955008
 51
157.3370435310413
  0
ARC
  5
2ACB
330
24CB
100
AcDbEntity
  8
1
 62
     7
100
AcDbCircle
 10
652.2338697260798
 20
864.0827718789321
 30
0.0
 40
5.953125000000056
100
AcDbArc
 50
194.8368695124409
 51
322.3779562479756
  0
ARC
  5
2ACC
330
24CB
100
AcDbEntity
  8
1
 62
     7
100
AcDbCircle
 10
651.2505542274802
 20
849.7072081371923
 30
0.0
 40
6.454999999999921
100
AcDbArc
 50
49.9914534081277
 51
130.695348721919
  0
ARC
  5
2ACD
330
24CB
100
AcDbEntity
  8
1
 62
     7
100
AcDbCircle
 10
704.0372088053514
 20
853.317914228317
 30
0.0
 40
48.6549999999999
100
AcDbArc
 50
173.7444201094522
 51
178.4294929340271
  0
ARC
  5
2ACE
330
24CB
100
AcDbEntity
  8
1
 62
     7
100
AcDbCircle
 10
652.2338697260798
 20
864.0827718789321
 30
0.0
 40
6.455000000000062
100
AcDbArc
 50
221.4785643215611
 51
302.1824596353482
  0
ARC
  5
2ACF
330
24CB
100
AcDbEntity
  8
1
 62
     7
100
AcDbCircle
 10
704.0372088053514
 20
853.317914228317
 30
0.0
 40
57.0099999999998
100
AcDbArc
 50
173.4638481410328
 51
178.7100649024448
  0
LINE
  5
2AD0
330
24CB
100
AcDbEntity
  8
1
 62
     7
100
AcDbLine
 10
701.0372088494029
 20
865.6179140435913
 30
0.0
 11
701.0372088494029
 21
862.3317922815582
 31
0.0
  0
ARC
  5
2AD1
330
24CB
100
AcDbEntity
  8
1
 62
     7
100
AcDbCircle
 10
657.0592018996815
 20
877.6599553746724
 30
0.0
 40
5.953125000000047
100
AcDbArc
 50
358.4916089694161
 51
126.0326957049556
  0
ARC
  5
2AD2
330
24CB
100
AcDbEntity
  8
1
 62
     7
100
AcDbCircle
 10
657.0592018996815
 20
877.6599553746724
 30
0.0
 40
5.953125000000016
100
AcDbArc
 50
179.1846955993924
 51
306.7257823349327
  0
ARC
  5
2AD3
330
24CB
100
AcDbEntity
  8
1
 62
     7
100
AcDbCircle
 10
652.2338697260798
 20
864.0827718789321
 30
0.0
 40
6.454999999999927
100
AcDbArc
 50
34.33927949508236
 51
115.0431748088749
  0
ARC
  5
2AD4
330
24CB
100
AcDbEntity
  8
1
 62
     7
100
AcDbCircle
 10
704.0372088053514
 20
853.317914228317
 30
0.0
 40
48.65499999999993
100
AcDbArc
 50
158.0922461964035
 51
162.7773190209888
  0
ARC
  5
2AD5
330
24CB
100
AcDbEntity
  8
1
 62
     7
100
AcDbCircle
 10
657.0592018996815
 20
877.6599553746724
 30
0.0
 40
6.455000000000062
100
AcDbArc
 50
205.8263904085132
 51
286.5302857223057
  0
ARC
  5
2AD6
330
24CB
100
AcDbEntity
  8
1
 62
     7
100
AcDbCircle
 10
704.0372088053514
 20
853.317914228317
 30
0.0
 40
57.00999999999986
100
AcDbArc
 50
157.81167422799
 51
163.0578909894005
  0
ARC
  5
2AD7
330
24CB
100
AcDbEntity
  8
1
 62
     7
100
AcDbCircle
 10
657.0592018996815
 20
877.6599553746724
 30
0.0
 40
6.455000000000016
100
AcDbArc
 50
18.68710558204323
 51
99.3910008958309
  0
ARC
  5
2AD8
330
24CB
100
AcDbEntity
  8
1
 62
     7
100
AcDbCircle
 10
704.0372088053514
 20
853.317914228317
 30
0.0
 40
48.65499999999984
100
AcDbArc
 50
142.4400722833635
 51
147.1251451079437
  0
ARC
  5
2AD9
330
24CB
100
AcDbEntity
  8
1
 62
     7
100
AcDbCircle
 10
711.241786209034
 20
800.9007208235351
 30
0.0
 40
5.953124999999936
100
AcDbArc
 50
304.4020869037423
 51
71.94317363927973
  0
ARC
  5
2ADA
330
24CB
100
AcDbEntity
  8
1
 62
     7
100
AcDbCircle
 10
725.1166104691161
 20
804.7882642656638
 30
0.0
 40
5.953124999999927
100
AcDbArc
 50
320.0542608167857
 51
87.59534755232669
  0
ARC
  5
2ADB
330
24CB
100
AcDbEntity
  8
1
 62
     7
100
AcDbCircle
 10
725.1166104691161
 20
804.7882642656638
 30
0.0
 40
5.953125000000071
100
AcDbArc
 50
139.3611741868063
 51
266.9022609223457
  0
ARC
  5
2ADC
330
24CB
100
AcDbEntity
  8
1
 62
     7
100
AcDbCircle
 10
711.241786209034
 20
800.9007208235351
 30
0.0
 40
6.454999999999985
100
AcDbArc
 50
331.0437817128637
 51
51.7476770266567
  0
ARC
  5
2ADD
330
24CB
100
AcDbEntity
  8
1
 62
     7
100
AcDbCircle
 10
725.1166104691161
 20
804.7882642656638
 30
0.0
 40
6.455000000000048
100
AcDbArc
 50
159.556670799435
 51
240.2605661132216
  0
ARC
  5
2ADE
330
24CB
100
AcDbEntity
  8
1
 62
     7
100
AcDbCircle
 10
725.1166104691161
 20
804.7882642656638
 30
0.0
 40
6.454999999999897
100
AcDbArc
 50
346.6959556259089
 51
67.3998509396978
  0
ARC
  5
2ADF
330
24CB
100
AcDbEntity
  8
1
 62
     7
100
AcDbCircle
 10
704.0372088053514
 20
853.317914228317
 30
0.0
 40
57.00999999999985
100
AcDbArc
 50
298.6812394453842
 51
303.9274562067909
  0
CIRCLE
  5
2AE0
330
24CB
100
AcDbEntity
  8
1
 62
     7
100
AcDbCircle
 10
723.448637186711
 20
780.8734772562802
 30
0.0
 40
4.500000000000023
  0
CIRCLE
  5
2AE1
330
24CB
100
AcDbEntity
  8
1
 62
     7
100
AcDbCircle
 10
723.4486371867847
 20
780.8734772560046
 30
0.0
 40
3.199999999999922
  0
CIRCLE
  5
2AE2
330
24CB
100
AcDbEntity
  8
1
 62
     3
100
AcDbCircle
 10
723.4486371867847
 20
780.8734772560046
 30
0.0
 40
3.999999999999931
  0
LINE
  5
2AE3
330
24CB
100
AcDbEntity
  8
1
  6
CENTER
 62
     3
100
AcDbLine
 10
744.9122088053529
 20
782.5203374689394
 30
0.0
 11
738.162208805353
 21
794.2116804200292
 31
0.0
  0
LINE
  5
2AE4
330
24CB
100
AcDbEntity
  8
1
  6
CENTER
 62
     3
100
AcDbLine
 10
725.0015514573999
 20
775.0779222982702
 30
0.0
 11
721.8957229161697
 21
786.6690322137389
 31
0.0
  0
ARC
  5
2AE5
330
24CB
100
AcDbEntity
  8
1
 62
     7
100
AcDbCircle
 10
704.0372088053514
 20
853.317914228317
 30
0.0
 40
57.00999999999989
100
AcDbArc
 50
283.0290655323388
 51
288.2752822937459
  0
CIRCLE
  5
2AE6
330
24CB
100
AcDbEntity
  8
1
 62
     7
100
AcDbCircle
 10
741.5372088053531
 20
788.3660089444843
 30
0.0
 40
4.49999999999992
  0
ARC
  5
2AE7
330
24CB
100
AcDbEntity
  8
1
 62
     7
100
AcDbCircle
 10
756.8238633832225
 20
849.7072081371923
 30
0.0
 40
5.953124999999959
100
AcDbArc
 50
201.9698698389817
 51
329.5109565745189
  0
ARC
  5
2AE8
330
24CB
100
AcDbEntity
  8
1
 62
     7
100
AcDbCircle
 10
704.0372088053514
 20
853.317914228317
 30
0.0
 40
48.65499999999997
100
AcDbArc
 50
345.9183331529253
 51
350.6034059775068
  0
ARC
  5
2AE9
330
24CB
100
AcDbEntity
  8
1
 62
     7
100
AcDbCircle
 10
756.8238633832225
 20
849.7072081371923
 30
0.0
 40
6.454999999999992
100
AcDbArc
 50
222.1653664516066
 51
302.8692617653979
  0
CIRCLE
  5
2AEA
330
24CB
100
AcDbEntity
  8
1
 62
     7
100
AcDbCircle
 10
768.9891140891861
 20
815.817914228317
 30
0.0
 40
4.500000000000016
  0
LINE
  5
2AEB
330
24CB
100
AcDbEntity
  8
1
  6
CENTER
 62
     3
100
AcDbLine
 10
774.8347855647311
 20
812.4429142283171
 30
0.0
 11
763.1434426136411
 21
819.1929142283171
 31
0.0
  0
ARC
  5
2AEC
330
24CB
100
AcDbEntity
  8
1
 62
     7
100
AcDbCircle
 10
747.2630858445336
 20
822.8057583852196
 30
0.0
 40
5.953124999999968
100
AcDbArc
 50
351.35860864287
 51
118.8996953784144
  0
ARC
  5
2AED
330
24CB
100
AcDbEntity
  8
1
 62
     7
100
AcDbCircle
 10
737.4280719396426
 20
812.2750298371464
 30
0.0
 40
5.953125000000013
100
AcDbArc
 50
335.7064347298304
 51
103.2475214653688
  0
ARC
  5
2AEE
330
24CB
100
AcDbEntity
  8
1
 62
     7
100
AcDbCircle
 10
737.4280719396426
 20
812.2750298371464
 30
0.0
 40
5.953124999999902
100
AcDbArc
 50
155.0133480998463
 51
282.5544348353888
  0
ARC
  5
2AEF
330
24CB
100
AcDbEntity
  8
1
 62
     7
100
AcDbCircle
 10
704.0372088053514
 20
853.317914228317
 30
0.0
 40
48.65499999999992
100
AcDbArc
 50
283.3096375007525
 51
287.9947103253357
  0
ARC
  5
2AF0
330
24CB
100
AcDbEntity
  8
1
 62
     7
100
AcDbCircle
 10
704.0372088053514
 20
853.317914228317
 30
0.0
 40
48.65499999999996
100
AcDbArc
 50
298.9618114137974
 51
303.6468842383779
  0
ARC
  5
2AF1
330
24CB
100
AcDbEntity
  8
1
 62
     7
100
AcDbCircle
 10
737.4280719396426
 20
812.2750298371464
 30
0.0
 40
6.455
100
AcDbArc
 50
175.2088447124767
 51
255.9127400262666
  0
ARC
  5
2AF2
330
24CB
100
AcDbEntity
  8
1
 62
     7
100
AcDbCircle
 10
747.2630858445336
 20
822.8057583852196
 30
0.0
 40
5.953124999999927
100
AcDbArc
 50
170.6655220128951
 51
298.206608748431
  0
ARC
  5
2AF3
330
24CB
100
AcDbEntity
  8
1
 62
     7
100
AcDbCircle
 10
737.4280719396426
 20
812.2750298371464
 30
0.0
 40
6.455000000000102
100
AcDbArc
 50
2.348129538949344
 51
83.05202485274014
  0
ARC
  5
2AF4
330
24CB
100
AcDbEntity
  8
1
 62
     7
100
AcDbCircle
 10
704.0372088053514
 20
853.317914228317
 30
0.0
 40
48.6549999999999
100
AcDbArc
 50
314.6139853268418
 51
319.2990581514204
  0
ARC
  5
2AF5
330
24CB
100
AcDbEntity
  8
1
 62
     7
100
AcDbCircle
 10
747.2630858445336
 20
822.8057583852196
 30
0.0
 40
6.455
100
AcDbArc
 50
190.8610186255169
 51
271.5649139393086
  0
ARC
  5
2AF6
330
24CB
100
AcDbEntity
  8
1
 62
     7
100
AcDbCircle
 10
704.0372088053514
 20
853.317914228317
 30
0.0
 40
57.00999999999993
100
AcDbArc
 50
314.3334133584246
 51
319.5796301198345
  0
CIRCLE
  5
2AF7
330
24CB
100
AcDbEntity
  8
0
 62
     7
100
AcDbCircle
 10
706.8638754295598
 20
835.8779144902726
 30
0.0
 40
1.066666650644293
  0
ARC
  5
2AF8
330
24CB
100
AcDbEntity
  8
0
 62
     7
100
AcDbCircle
 10
708.0905420778072
 20
834.3845811794272
 30
0.0
 40
1.066666650667289
100
AcDbArc
 50
270.0000000007995
 51
0.0000000000781653
  0
ARC
  5
2AF9
330
24CB
100
AcDbEntity
  8
0
 62
     7
100
AcDbCircle
 10
710.2238753790999
 20
836.5548451658112
 30
0.0
 40
1.066666650650665
100
AcDbArc
 50
109.2696388775033
 51
180.0
  0
LINE
  5
2AFA
330
24CB
100
AcDbEntity
  8
0
 62
     7
100
AcDbLine
 10
709.1572087284499
 20
834.3845811794286
 30
0.0
 11
709.1572087284499
 21
836.5548451658112
 31
0.0
  0
ARC
  5
2AFB
330
24CB
100
AcDbEntity
  8
1
 62
     7
100
AcDbCircle
 10
753.8922341946579
 20
835.5994339483503
 30
0.0
 40
5.953124999999905
100
AcDbArc
 50
7.010782555914542
 51
134.5518692914556
  0
ARC
  5
2AFC
330
24CB
100
AcDbEntity
  8
1
 62
     7
100
AcDbCircle
 10
753.8922341946579
 20
835.5994339483503
 30
0.0
 40
5.953125000000062
100
AcDbArc
 50
186.3176959259387
 51
313.8587826614755
  0
ARC
  5
2AFD
330
24CB
100
AcDbEntity
  8
1
 62
     7
100
AcDbCircle
 10
747.2630858445336
 20
822.8057583852196
 30
0.0
 40
6.454999999999951
100
AcDbArc
 50
18.00030345199481
 51
98.70419876578552
  0
ARC
  5
2AFE
330
24CB
100
AcDbEntity
  8
1
 62
     7
100
AcDbCircle
 10
704.0372088053514
 20
853.317914228317
 30
0.0
 40
48.65499999999992
100
AcDbArc
 50
330.2661592398848
 51
334.9512320644649
  0
ARC
  5
2AFF
330
24CB
100
AcDbEntity
  8
1
 62
     7
100
AcDbCircle
 10
753.8922341946579
 20
835.5994339483503
 30
0.0
 40
6.454999999999937
100
AcDbArc
 50
206.5131925385648
 51
287.2170878523526
  0
ARC
  5
2B00
330
24CB
100
AcDbEntity
  8
1
 62
     7
100
AcDbCircle
 10
704.0372088053514
 20
853.317914228317
 30
0.0
 40
57.00999999999993
100
AcDbArc
 50
329.9855872714731
 51
335.2318040328812
  0
ARC
  5
2B01
330
24CB
100
AcDbEntity
  8
1
 62
     7
100
AcDbCircle
 10
753.8922341946579
 20
835.5994339483503
 30
0.0
 40
6.454999999999945
100
AcDbArc
 50
33.6524773650384
 51
114.3563726788282
  0
ARC
  5
2B02
330
24CB
100
AcDbEntity
  8
1
 62
     7
100
AcDbCircle
 10
704.0372088053514
 20
853.317914228317
 30
0.0
 40
57.00999999999988
100
AcDbArc
 50
345.6377611845113
 51
350.8839779459197
  0
ARC
  5
2B03
330
24CB
100
AcDbEntity
  8
1
 62
     7
100
AcDbCircle
 10
755.8405478846229
 20
864.0827718789321
 30
0.0
 40
5.953124999999927
100
AcDbArc
 50
38.31513038200116
 51
165.8562171175401
  0
LINE
  5
2B04
330
24CB
100
AcDbEntity
  8
1
 62
     7
100
AcDbLine
 10
707.0372087577439
 20
862.331792283031
 30
0.0
 11
707.0372087577439
 21
865.6179140435913
 31
0.0
  0
ARC
  5
2B05
330
24CB
100
AcDbEntity
  8
1
 62
     7
100
AcDbCircle
 10
756.8238633832225
 20
849.7072081371923
 30
0.0
 40
5.953125
100
AcDbArc
 50
22.66295646895869
 51
150.2040432044991
  0
ARC
  5
2B06
330
24CB
100
AcDbEntity
  8
1
 62
     7
100
AcDbCircle
 10
755.8405478846229
 20
864.0827718789321
 30
0.0
 40
5.953124999999936
100
AcDbArc
 50
217.6220437520242
 51
345.163130487559
  0
ARC
  5
2B07
330
24CB
100
AcDbEntity
  8
1
 62
     7
100
AcDbCircle
 10
756.8238633832225
 20
849.7072081371923
 30
0.0
 40
6.455000000000173
100
AcDbArc
 50
49.30465127808095
 51
130.0085465918722
  0
ARC
  5
2B08
330
24CB
100
AcDbEntity
  8
1
 62
     7
100
AcDbCircle
 10
704.0372088053514
 20
853.317914228317
 30
0.0
 40
48.65499999999996
100
AcDbArc
 50
1.570507065972793
 51
6.255579890547719
  0
ARC
  5
2B09
330
24CB
100
AcDbEntity
  8
1
 62
     7
100
AcDbCircle
 10
755.8405478846229
 20
864.0827718789321
 30
0.0
 40
6.454999999999927
100
AcDbArc
 50
237.8175403646517
 51
318.5214356784389
  0
ARC
  5
2B0A
330
24CB
100
AcDbEntity
  8
1
 62
     7
100
AcDbCircle
 10
704.0372088053514
 20
853.317914228317
 30
0.0
 40
57.01000000000007
100
AcDbArc
 50
1.289935097555224
 51
6.536151858967113
  0
ARC
  5
2B0B
330
24CB
100
AcDbEntity
  8
1
 62
     7
100
AcDbCircle
 10
751.015215711021
 20
877.6599553746724
 30
0.0
 40
5.953124999999912
100
AcDbArc
 50
53.96730429504436
 51
181.5083910305838
  0
ARC
  5
2B0C
330
24CB
100
AcDbEntity
  8
1
 62
     7
100
AcDbCircle
 10
751.015215711021
 20
877.6599553746724
 30
0.0
 40
5.95312499999996
100
AcDbArc
 50
233.2742176650672
 51
0.8153044006076001
  0
ARC
  5
2B0D
330
24CB
100
AcDbEntity
  8
1
 62
     7
100
AcDbCircle
 10
755.8405478846229
 20
864.0827718789321
 30
0.0
 40
6.454999999999959
100
AcDbArc
 50
64.95682519112508
 51
145.6607205049176
  0
ARC
  5
2B0E
330
24CB
100
AcDbEntity
  8
1
 62
     7
100
AcDbCircle
 10
704.0372088053514
 20
853.317914228317
 30
0.0
 40
48.65499999999999
100
AcDbArc
 50
17.22268097901117
 51
21.90775380359642
  0
ARC
  5
2B0F
330
24CB
100
AcDbEntity
  8
1
 62
     7
100
AcDbCircle
 10
751.015215711021
 20
877.6599553746724
 30
0.0
 40
6.454999999999992
100
AcDbArc
 50
253.4697142776942
 51
334.1736095914867
  0
ARC
  5
2B10
330
24CB
100
AcDbEntity
  8
1
 62
     7
100
AcDbCircle
 10
704.0372088053514
 20
853.317914228317
 30
0.0
 40
57.00999999999989
100
AcDbArc
 50
16.94210901059947
 51
22.18832577200995
  0
ARC
  5
2B11
330
24CB
100
AcDbEntity
  8
1
 62
     7
100
AcDbCircle
 10
751.015215711021
 20
877.6599553746724
 30
0.0
 40
6.455000000000024
100
AcDbArc
 50
80.6089991041691
 51
161.3128944179567
  0
ARC
  5
2B12
330
24CB
100
AcDbEntity
  8
1
 62
     7
100
AcDbCircle
 10
704.0372088053514
 20
853.317914228317
 30
0.0
 40
48.65499999999998
100
AcDbArc
 50
32.8748548920563
 51
37.55992771663648
  0
CIRCLE
  5
2B13
330
24CB
100
AcDbEntity
  8
1
 62
     7
100
AcDbCircle
 10
779.0372088053532
 20
853.317914228317
 30
0.0
 40
4.499999999999968
  0
LINE
  5
2B14
330
24CB
100
AcDbEntity
  8
1
 62
     7
100
AcDbLine
 10
494.7702529229271
 20
914.6639142283168
 30
0.0
 11
440.8422529229271
 21
914.6639142283168
 31
0.0
  0
LINE
  5
2B15
330
24CB
100
AcDbEntity
  8
1
 62
     7
100
AcDbLine
 10
441.0952529229272
 20
915.8169142283169
 30
0.0
 11
460.1902529229272
 21
915.8169142283169
 31
0.0
  0
LINE
  5
2B16
330
24CB
100
AcDbEntity
  8
1
  6
PHANTOM
 62
     4
100
AcDbLine
 10
439.7702528628843
 20
919.8179142283169
 30
0.0
 11
460.4702528628843
 21
919.8179142283169
 31
0.0
  0
CIRCLE
  5
2B17
330
24CB
100
AcDbEntity
  8
1
 62
     7
100
AcDbCircle
 10
144.4885356362918
 20
900.817914228317
 30
0.0
 40
4.500000000000023
  0
LINE
  5
2B18
330
24CB
100
AcDbEntity
  8
1
  6
CENTER
 62
     3
100
AcDbLine
 10
138.6428641607471
 20
904.1929142283169
 30
0.0
 11
150.3342071118368
 21
897.442914228317
 31
0.0
  0
CIRCLE
  5
2B19
330
24CB
100
AcDbEntity
  8
1
 62
     7
100
AcDbCircle
 10
179.2609489958135
 20
935.5903275878388
 30
0.0
 40
4.500000000000023
  0
LINE
  5
2B1A
330
24CB
100
AcDbEntity
  8
1
  6
CENTER
 62
     3
100
AcDbLine
 10
175.8859489958135
 20
941.4359990633837
 30
0.0
 11
182.6359489958135
 21
929.7446561122937
 31
0.0
  0
LINE
  5
2B1B
330
24CB
100
AcDbEntity
  8
1
  6
CENTER
 62
     3
100
AcDbLine
 10
226.7609489958136
 20
914.6639142283168
 30
0.0
 11
226.7609489958136
 21
963.8179142283169
 31
0.0
  0
ARC
  5
2B1C
330
24CB
100
AcDbEntity
  8
1
 62
     7
100
AcDbCircle
 10
226.7609489958136
 20
853.317914228317
 30
0.0
 40
61.34599999999993
100
AcDbArc
 50
70.97263981450071
 51
90.0
  0
CIRCLE
  5
2B1D
330
24CB
100
AcDbEntity
  8
1
 62
     7
100
AcDbCircle
 10
309.0333623553352
 20
900.817914228317
 30
0.0
 40
4.500000000000023
  0
LINE
  5
2B1E
330
24CB
100
AcDbEntity
  8
1
  6
CENTER
 62
     3
100
AcDbLine
 10
303.1876908797901
 20
897.442914228317
 30
0.0
 11
314.8790338308801
 21
904.1929142283169
 31
0.0
  0
CIRCLE
  5
2B1F
330
24CB
100
AcDbEntity
  8
1
 62
     7
100
AcDbCircle
 10
274.2609489958134
 20
935.5903275878388
 30
0.0
 40
4.49999999999992
  0
LINE
  5
2B20
330
24CB
100
AcDbEntity
  8
1
  6
CENTER
 62
     3
100
AcDbLine
 10
270.8859489958134
 20
929.7446561122937
 30
0.0
 11
277.6359489958134
 21
941.4359990633837
 31
0.0
  0
CIRCLE
  5
2B21
330
24CB
100
AcDbEntity
  8
1
 62
     7
100
AcDbCircle
 10
226.7609489958136
 20
948.3179142283169
 30
0.0
 40
4.5
  0
LINE
  5
2B22
330
24CB
100
AcDbEntity
  8
1
 62
     7
100
AcDbLine
 10
437.9702529229271
 20
943.817914228317
 30
0.0
 11
437.9702529229272
 21
918.9419142283169
 31
0.0
  0
LINE
  5
2B23
330
24CB
100
AcDbEntity
  8
1
 62
     7
100
AcDbLine
 10
436.8172529229272
 20
940.3179142283169
 30
0.0
 11
436.8172529229274
 21
918.2889142283171
 31
0.0
  0
LINE
  5
2B24
330
24CB
100
AcDbEntity
  8
1
  6
PHANTOM
 62
     4
100
AcDbLine
 10
435.4702529229272
 20
929.8179142283171
 30
0.0
 11
435.4702529229272
 21
909.817914228317
 31
0.0
  0
LINE
  5
2B25
330
24CB
100
AcDbEntity
  8
1
  6
PHANTOM
 62
     4
100
AcDbLine
 10
439.7702528628843
 20
939.817914228317
 30
0.0
 11
439.7702528628843
 21
919.8179142283169
 31
0.0
  0
ARC
  5
2B26
330
24CB
100
AcDbEntity
  8
1
 62
     7
100
AcDbCircle
 10
441.0952529229272
 20
918.9419142283169
 30
0.0
 40
3.125
100
AcDbArc
 50
180.0
 51
270.0
  0
ARC
  5
2B27
330
24CB
100
AcDbEntity
  8
1
 62
     7
100
AcDbCircle
 10
440.6422529229272
 20
918.488914228317
 30
0.0
 40
3.830225189202306
100
AcDbArc
 50
182.9931320059797
 51
272.9931320059796
  0
LINE
  5
2B28
330
24CB
100
AcDbEntity
  8
1
  6
PHANTOM
 62
     4
100
AcDbLine
 10
435.4702529229272
 20
909.817914228317
 30
0.0
 11
454.7702529229272
 21
909.817914228317
 31
0.0
  0
LINE
  5
2B29
330
24CB
100
AcDbEntity
  8
1
 62
     7
100
AcDbLine
 10
437.9702529229271
 20
952.8179142283169
 30
0.0
 11
437.9702529229271
 21
943.817914228317
 31
0.0
  0
LINE
  5
2B2A
330
24CB
100
AcDbEntity
  8
1
 62
     7
100
AcDbLine
 10
432.9702529229272
 20
952.8179142283169
 30
0.0
 11
432.9702529229272
 21
943.817914228317
 31
0.0
  0
ARC
  5
2B2B
330
24CB
100
AcDbEntity
  8
1
 62
     7
100
AcDbCircle
 10
436.3172529229272
 20
940.3179142283169
 30
0.0
 40
0.5
100
AcDbArc
 50
0.0
 51
90.0
  0
LINE
  5
2B2C
330
24CB
100
AcDbEntity
  8
1
 62
     7
100
AcDbLine
 10
432.9702529229273
 20
940.817914228317
 30
0.0
 11
432.9702529229273
 21
941.2179142283171
 31
0.0
  0
LINE
  5
2B2D
330
24CB
100
AcDbEntity
  8
1
 62
     7
100
AcDbLine
 10
433.3702529229272
 20
940.817914228317
 30
0.0
 11
432.9702529229273
 21
941.2179142283171
 31
0.0
  0
LINE
  5
2B2E
330
24CB
100
AcDbEntity
  8
1
 62
     7
100
AcDbLine
 10
432.9702529229273
 20
941.3179142283169
 30
0.0
 11
432.9702529229273
 21
940.817914228317
 31
0.0
  0
LINE
  5
2B2F
330
24CB
100
AcDbEntity
  8
1
 62
     7
100
AcDbLine
 10
433.3702529229272
 20
940.817914228317
 30
0.0
 11
436.3172529229272
 21
940.817914228317
 31
0.0
  0
LINE
  5
2B30
330
24CB
100
AcDbEntity
  8
1
 62
     7
100
AcDbLine
 10
432.9702529229273
 20
941.2179142283171
 30
0.0
 11
432.9702529229272
 21
943.817914228317
 31
0.0
  0
LINE
  5
2B31
330
24CB
100
AcDbEntity
  8
1
 62
     7
100
AcDbLine
 10
437.9702529229271
 20
943.817914228317
 30
0.0
 11
432.9702529229272
 21
943.817914228317
 31
0.0
  0
LINE
  5
2B32
330
24CB
100
AcDbEntity
  8
1
 62
     7
100
AcDbLine
 10
437.5702529229272
 20
955.8179142283169
 30
0.0
 11
437.9702529229269
 21
955.4179142283164
 31
0.0
  0
LINE
  5
2B33
330
24CB
100
AcDbEntity
  8
1
 62
     7
100
AcDbLine
 10
433.3702529229272
 20
955.8179142283169
 30
0.0
 11
432.9702529229265
 21
955.4179142283164
 31
0.0
  0
LINE
  5
2B34
330
24CB
100
AcDbEntity
  8
1
 62
     7
100
AcDbLine
 10
437.9702529229269
 20
955.4179142283164
 30
0.0
 11
437.9702529229271
 21
952.8179142283169
 31
0.0
  0
LINE
  5
2B35
330
24CB
100
AcDbEntity
  8
1
 62
     7
100
AcDbLine
 10
432.9702529229265
 20
955.4179142283164
 30
0.0
 11
432.9702529229272
 21
952.8179142283169
 31
0.0
  0
LINE
  5
2B36
330
24CB
100
AcDbEntity
  8
1
  6
CENTER
 62
     3
100
AcDbLine
 10
440.0447563719607
 20
948.3179142283169
 30
0.0
 11
430.3997369277637
 21
948.3179142283169
 31
0.0
  0
LINE
  5
2B37
330
24CB
100
AcDbEntity
  8
1
 62
     7
100
AcDbLine
 10
437.9702529229271
 20
952.8179142283169
 30
0.0
 11
432.9702529229272
 21
952.8179142283169
 31
0.0
  0
LINE
  5
2B38
330
24CB
100
AcDbEntity
  8
1
 62
     7
100
AcDbLine
 10
433.3702529229272
 20
955.8179142283169
 30
0.0
 11
437.5702529229272
 21
955.8179142283169
 31
0.0
  0
CIRCLE
  5
2B39
330
24CB
100
AcDbEntity
  8
1
 62
     7
100
AcDbCircle
 10
704.0372088053532
 20
928.317914228317
 30
0.0
 40
4.5
  0
LINE
  5
2B3A
330
24CB
100
AcDbEntity
  8
0
 62
     7
100
AcDbLine
 10
495.9702529229878
 20
931.5179131017572
 30
0.0
 11
495.9702529229878
 21
925.1179131017572
 31
0.0
  0
LINE
  5
2B3B
330
24CB
100
AcDbEntity
  8
1
 62
     7
100
AcDbLine
 10
495.9702529229878
 20
931.5179131017572
 30
0.0
 11
495.9702529229878
 21
925.1179131017572
 31
0.0
  0
LINE
  5
2B3C
330
24CB
100
AcDbEntity
  8
0
 62
     7
100
AcDbLine
 10
473.9702528628844
 20
925.117914228317
 30
0.0
 11
473.9702528628844
 21
931.517914228317
 31
0.0
  0
LINE
  5
2B3D
330
24CB
100
AcDbEntity
  8
1
 62
     7
100
AcDbLine
 10
486.2196975129378
 20
931.517914228317
 30
0.0
 11
486.2196975129378
 21
925.117914228317
 31
0.0
  0
LINE
  5
2B3E
330
24CB
100
AcDbEntity
  8
1
 62
     7
100
AcDbLine
 10
486.9702528628843
 20
923.817914228317
 30
0.0
 11
486.9702528628843
 21
932.8179142283168
 31
0.0
  0
ARC
  5
2B3F
330
24CB
100
AcDbEntity
  8
1
 62
     7
100
AcDbCircle
 10
485.4677529229272
 20
906.2204142283171
 30
0.0
 40
5.953125000000023
100
AcDbArc
 50
115.234981287061
 51
270.0
  0
ARC
  5
2B40
330
24CB
100
AcDbEntity
  8
1
 62
     7
100
AcDbCircle
 10
485.4677529229272
 20
906.2204142283171
 30
0.0
 40
5.953125000000013
100
AcDbArc
 50
297.4057708856248
 51
64.76501871293892
  0
LINE
  5
2B41
330
24CB
100
AcDbEntity
  8
1
 62
     7
100
AcDbLine
 10
495.9702529229272
 20
915.011492933471
 30
0.0
 11
495.9702529229272
 21
898.9278963558414
 31
0.0
  0
LINE
  5
2B42
330
24CB
100
AcDbEntity
  8
1
 62
     7
100
AcDbLine
 10
494.5102529229273
 20
911.9054142283172
 30
0.0
 11
494.5102529229273
 21
901.7027725337957
 31
0.0
  0
LINE
  5
2B43
330
24CB
100
AcDbEntity
  8
1
 62
     7
100
AcDbLine
 10
476.4252529229271
 20
901.7027725337957
 30
0.0
 11
476.4252529229271
 21
911.9054142283172
 31
0.0
  0
LINE
  5
2B44
330
24CB
100
AcDbEntity
  8
1
 62
     7
100
AcDbLine
 10
477.0646279229271
 20
909.820414228317
 30
0.0
 11
477.0646279229271
 21
906.6076916922625
 31
0.0
  0
LINE
  5
2B45
330
24CB
100
AcDbEntity
  8
1
 62
     7
100
AcDbLine
 10
479.3146279229272
 20
910.3204142283171
 30
0.0
 11
479.3146279229272
 21
901.9654142283171
 31
0.0
  0
LINE
  5
2B46
330
24CB
100
AcDbEntity
  8
1
  6
DIVIDE
 62
     7
100
AcDbLine
 10
497.9702529224861
 20
903.842276349726
 30
0.0
 11
497.9702529224861
 21
919.8179142283169
 31
0.0
  0
LINE
  5
2B47
330
24CB
100
AcDbEntity
  8
1
  6
DIVIDE
 62
     7
100
AcDbLine
 10
497.9702529224861
 20
903.842276349726
 30
0.0
 11
497.9702529224861
 21
919.8179142283169
 31
0.0
  0
LINE
  5
2B48
330
24CB
100
AcDbEntity
  8
0
 62
     7
100
AcDbLine
 10
477.4702529212923
 20
897.767913560745
 30
0.0
 11
491.7702529212923
 21
897.767913560745
 31
0.0
  0
LINE
  5
2B49
330
24CB
100
AcDbEntity
  8
1
 62
     7
100
AcDbLine
 10
485.4677529229272
 20
897.7604142283169
 30
0.0
 11
491.0177529229271
 21
897.7604142283169
 31
0.0
  0
LINE
  5
2B4A
330
24CB
100
AcDbEntity
  8
1
 62
     7
100
AcDbLine
 10
488.2079120908631
 20
900.935414228317
 30
0.0
 11
491.0177529229271
 21
900.935414228317
 31
0.0
  0
ARC
  5
2B4B
330
24CB
100
AcDbEntity
  8
1
 62
     7
100
AcDbCircle
 10
477.0597751161075
 20
902.4654142283171
 30
0.0
 40
0.5000000000000271
100
AcDbArc
 50
173.0000000000005
 51
270.0
  0
ARC
  5
2B4C
330
24CB
100
AcDbEntity
  8
1
 62
     7
100
AcDbCircle
 10
485.4677529229272
 20
906.2204142283171
 30
0.0
 40
5.953125
100
AcDbArc
 50
270.0
 51
297.4057708856248
  0
LINE
  5
2B4D
330
24CB
100
AcDbEntity
  8
0
 62
     7
100
AcDbLine
 10
472.3702529212921
 20
891.8179136500782
 30
0.0
 11
473.9177531025785
 21
891.8179136500782
 31
0.0
  0
LINE
  5
2B4E
330
24CB
100
AcDbEntity
  8
0
 62
     7
100
AcDbLine
 10
473.9177531025785
 20
891.8179136500782
 30
0.0
 11
473.9177531025785
 21
905.8179134399663
 31
0.0
  0
LINE
  5
2B4F
330
24CB
100
AcDbEntity
  8
0
 62
     7
100
AcDbLine
 10
473.9177531025785
 20
905.8179134399663
 30
0.0
 11
475.5177530725432
 21
905.8179134399663
 31
0.0
  0
LINE
  5
2B50
330
24CB
100
AcDbEntity
  8
0
 62
     7
100
AcDbLine
 10
475.5177530725432
 20
905.8179134399663
 30
0.0
 11
475.5177530725432
 21
891.8179136500782
 31
0.0
  0
LINE
  5
2B51
330
24CB
100
AcDbEntity
  8
0
 62
     7
100
AcDbLine
 10
475.5177530725432
 20
891.8179136500782
 30
0.0
 11
483.5177529524037
 21
891.8179136500782
 31
0.0
  0
LINE
  5
2B52
330
24CB
100
AcDbEntity
  8
0
 62
     7
100
AcDbLine
 10
465.7702529269616
 20
892.0679142283169
 30
0.0
 11
472.3702529212921
 21
892.0679142283169
 31
0.0
  0
LINE
  5
2B53
330
24CB
100
AcDbEntity
  8
1
 62
     7
100
AcDbLine
 10
479.1177529229272
 20
898.560414228317
 30
0.0
 11
479.1177529229272
 21
900.1354142283169
 31
0.0
  0
LINE
  5
2B54
330
24CB
100
AcDbEntity
  8
1
 62
     7
100
AcDbLine
 10
479.9177529229273
 20
900.935414228317
 30
0.0
 11
479.1177529229272
 21
900.1354142283169
 31
0.0
  0
LINE
  5
2B55
330
24CB
100
AcDbEntity
  8
1
 62
     7
100
AcDbLine
 10
479.1177529229272
 20
898.560414228317
 30
0.0
 11
479.9177529229273
 21
897.7604142283169
 31
0.0
  0
LINE
  5
2B56
330
24CB
100
AcDbEntity
  8
1
 62
     7
100
AcDbLine
 10
479.9177529229273
 20
900.935414228317
 30
0.0
 11
482.7275937549908
 21
900.935414228317
 31
0.0
  0
LINE
  5
2B57
330
24CB
100
AcDbEntity
  8
1
 62
     7
100
AcDbLine
 10
479.9177529229273
 20
897.7604142283169
 30
0.0
 11
485.4677529229272
 21
897.7604142283169
 31
0.0
  0
LINE
  5
2B58
330
24CB
100
AcDbEntity
  8
1
 62
     7
100
AcDbLine
 10
476.5635020402871
 20
902.5263489000197
 30
0.0
 11
477.0646279229271
 21
906.6076916922625
 31
0.0
  0
LINE
  5
2B59
330
24CB
100
AcDbEntity
  8
1
 62
     7
100
AcDbLine
 10
477.0597751161075
 20
901.9654142283171
 30
0.0
 11
479.3146279229272
 21
901.9654142283171
 31
0.0
  0
LINE
  5
2B5A
330
24CB
100
AcDbEntity
  8
1
 62
     7
100
AcDbLine
 10
481.3042601265332
 20
901.9654142283171
 30
0.0
 11
479.3146279229272
 21
901.9654142283171
 31
0.0
  0
LINE
  5
2B5B
330
24CB
100
AcDbEntity
  8
1
 62
     7
100
AcDbLine
 10
491.0177529229271
 20
897.7604142283169
 30
0.0
 11
491.8177529229272
 21
898.560414228317
 31
0.0
  0
LINE
  5
2B5C
330
24CB
100
AcDbEntity
  8
1
 62
     7
100
AcDbLine
 10
491.8177529229272
 20
900.1354142283169
 30
0.0
 11
491.0177529229271
 21
900.935414228317
 31
0.0
  0
LINE
  5
2B5D
330
24CB
100
AcDbEntity
  8
1
 62
     7
100
AcDbLine
 10
491.8177529229272
 20
900.1354142283169
 30
0.0
 11
491.8177529229272
 21
898.560414228317
 31
0.0
  0
LINE
  5
2B5E
330
24CB
100
AcDbEntity
  8
1
 62
     7
100
AcDbLine
 10
489.4702529229272
 20
917.338914228317
 30
0.0
 11
494.2535196911766
 21
917.2846474600673
 31
0.0
  0
LINE
  5
2B5F
330
24CB
100
AcDbEntity
  8
0
 62
     7
100
AcDbLine
 10
475.3702528422848
 20
917.338914228698
 30
0.0
 11
493.1646534071748
 21
917.338914228698
 31
0.0
  0
LINE
  5
2B60
330
24CB
100
AcDbEntity
  8
0
 62
     7
100
AcDbLine
 10
472.8275103657648
 20
916.170914228225
 30
0.0
 11
494.9646309580823
 21
916.1709142284028
 31
0.0
  0
LINE
  5
2B61
330
24CB
100
AcDbEntity
  8
0
 62
     7
100
AcDbLine
 10
495.1702529352935
 20
916.170914228225
 30
0.0
 11
470.7702529109055
 21
916.1709142284028
 31
0.0
  0
LINE
  5
2B62
330
24CB
100
AcDbEntity
  8
0
 62
     7
100
AcDbLine
 10
469.9702529229743
 20
917.338914228317
 30
0.0
 11
495.9702529229544
 21
917.338914228317
 31
0.0
  0
LINE
  5
2B63
330
24CB
100
AcDbEntity
  8
1
 62
     7
100
AcDbLine
 10
486.9702528628843
 20
923.817914228317
 30
0.0
 11
495.9702529229878
 21
923.817914228317
 31
0.0
  0
LINE
  5
2B64
330
24CB
100
AcDbEntity
  8
1
 62
     7
100
AcDbLine
 10
488.0057584914052
 20
911.605414228317
 30
0.0
 11
494.2102529229272
 21
911.605414228317
 31
0.0
  0
LINE
  5
2B65
330
24CB
100
AcDbEntity
  8
1
 62
     7
100
AcDbLine
 10
485.4677529229272
 20
914.6639142283168
 30
0.0
 11
493.8102529229271
 21
914.6639142283168
 31
0.0
  0
ARC
  5
2B66
330
24CB
100
AcDbEntity
  8
1
 62
     7
100
AcDbCircle
 10
477.5646279229272
 20
909.820414228317
 30
0.0
 40
0.5
100
AcDbArc
 50
90.0
 51
180.0
  0
ARC
  5
2B67
330
24CB
100
AcDbEntity
  8
1
 62
     7
100
AcDbCircle
 10
461.6675004725472
 20
965.616914228317
 30
0.0
 40
49.82190542645735
100
AcDbArc
 50
268.3008988508143
 51
283.721336646678
  0
ARC
  5
2B68
330
24CB
100
AcDbEntity
  8
0
 62
     7
100
AcDbCircle
 10
473.6702528674165
 20
921.1179132100969
 30
0.0
 40
0.2999999954679424
100
AcDbArc
 50
270.0000000048528
 51
0.0000000048397356
  0
ARC
  5
2B69
330
24CB
100
AcDbEntity
  8
1
 62
     7
100
AcDbCircle
 10
485.4677529229272
 20
906.2204142283171
 30
0.0
 40
5.953125
100
AcDbArc
 50
90.0
 51
115.234981287061
  0
ARC
  5
2B6A
330
24CB
100
AcDbEntity
  8
1
 62
     7
100
AcDbCircle
 10
485.4677529229272
 20
906.2204142283171
 30
0.0
 40
5.953124999999976
100
AcDbArc
 50
64.76501871293892
 51
90.0
  0
LINE
  5
2B6B
330
24CB
100
AcDbEntity
  8
1
 62
     7
100
AcDbLine
 10
483.4702529229272
 20
917.338914228317
 30
0.0
 11
473.4852529229272
 21
917.2168833673312
 31
0.0
  0
LINE
  5
2B6C
330
24CB
100
AcDbEntity
  8
1
 62
     7
100
AcDbLine
 10
483.4702529229272
 20
917.338914228317
 30
0.0
 11
489.4702529229272
 21
917.338914228317
 31
0.0
  0
LINE
  5
2B6D
330
24CB
100
AcDbEntity
  8
0
 62
     7
100
AcDbLine
 10
470.7702529109055
 20
916.1709142284028
 30
0.0
 11
469.9702529229743
 21
916.9709142161817
 31
0.0
  0
LINE
  5
2B6E
330
24CB
100
AcDbEntity
  8
0
 62
     7
100
AcDbLine
 10
473.6702528674418
 20
920.8179132146289
 30
0.0
 11
470.7702529111594
 21
920.8179132148069
 31
0.0
  0
LINE
  5
2B6F
330
24CB
100
AcDbEntity
  8
0
 62
     7
100
AcDbLine
 10
470.7702529111594
 20
920.8179132148069
 30
0.0
 11
469.9702529229743
 21
920.0179132268502
 31
0.0
  0
LINE
  5
2B70
330
24CB
100
AcDbEntity
  8
0
 62
     7
100
AcDbLine
 10
469.9702529229743
 20
920.0179132268502
 30
0.0
 11
469.9702529227202
 21
916.9709142161817
 31
0.0
  0
LINE
  5
2B71
330
24CB
100
AcDbEntity
  8
0
 62
     7
100
AcDbLine
 10
473.9702528628844
 20
924.3179142283169
 30
0.0
 11
473.9702528628844
 21
925.117914228317
 31
0.0
  0
LINE
  5
2B72
330
24CB
100
AcDbEntity
  8
0
 62
     7
100
AcDbLine
 10
473.9702528628844
 20
924.3179142283169
 30
0.0
 11
473.9702528628844
 21
921.117913210122
 31
0.0
  0
LINE
  5
2B73
330
24CB
100
AcDbEntity
  8
1
 62
     7
100
AcDbLine
 10
486.2196975129378
 20
925.117914228317
 30
0.0
 11
473.9702528628844
 21
925.117914228317
 31
0.0
  0
LINE
  5
2B74
330
24CB
100
AcDbEntity
  8
1
 62
     7
100
AcDbLine
 10
486.2196975129378
 20
925.117914228317
 30
0.0
 11
486.9702528628843
 21
923.817914228317
 31
0.0
  0
LINE
  5
2B75
330
24CB
100
AcDbEntity
  8
1
 62
     3
100
AcDbLine
 10
486.6815777282895
 20
924.3179142283169
 30
0.0
 11
473.9702528628844
 21
924.3179142283169
 31
0.0
  0
LINE
  5
2B76
330
24CB
100
AcDbEntity
  8
1
 62
     7
100
AcDbLine
 10
477.1252529229273
 20
914.6639142283168
 30
0.0
 11
485.4677529229272
 21
914.6639142283168
 31
0.0
  0
LINE
  5
2B77
330
24CB
100
AcDbEntity
  8
1
 62
     7
100
AcDbLine
 10
476.4252529229271
 20
914.2597690398842
 30
0.0
 11
476.4252529229271
 21
911.9054142283172
 31
0.0
  0
LINE
  5
2B78
330
24CB
100
AcDbEntity
  8
1
 62
     7
100
AcDbLine
 10
476.7252529229272
 20
911.605414228317
 30
0.0
 11
482.9297473544492
 21
911.605414228317
 31
0.0
  0
LINE
  5
2B79
330
24CB
100
AcDbEntity
  8
1
 62
     7
100
AcDbLine
 10
476.4252529229271
 20
911.9054142283172
 30
0.0
 11
476.7252529229272
 21
911.605414228317
 31
0.0
  0
LINE
  5
2B7A
330
24CB
100
AcDbEntity
  8
1
 62
     7
100
AcDbLine
 10
476.4252529229271
 20
914.2597690398842
 30
0.0
 11
477.1252529229273
 21
914.6639142283168
 31
0.0
  0
LINE
  5
2B7B
330
24CB
100
AcDbEntity
  8
1
 62
     7
100
AcDbLine
 10
479.3146279229272
 20
910.3204142283171
 30
0.0
 11
481.1074259742525
 21
910.2734681591558
 31
0.0
  0
LINE
  5
2B7C
330
24CB
100
AcDbEntity
  8
1
 62
     7
100
AcDbLine
 10
477.5646279229272
 20
910.3204142283171
 30
0.0
 11
479.3146279229272
 21
910.3204142283171
 31
0.0
  0
ARC
  5
2B7D
330
24CB
100
AcDbEntity
  8
1
 62
     7
100
AcDbCircle
 10
495.6702529229273
 20
915.011492933471
 30
0.0
 40
0.3000000000000403
100
AcDbArc
 50
273.0000000000057
 51
0.0
  0
ARC
  5
2B7E
330
24CB
100
AcDbEntity
  8
1
 62
     7
100
AcDbCircle
 10
495.6702529229273
 20
915.443650159605
 30
0.0
 40
0.2999999999999012
100
AcDbArc
 50
0.0
 51
45.00000000000921
  0
LINE
  5
2B7F
330
24CB
100
AcDbEntity
  8
1
 62
     7
100
AcDbLine
 10
494.7702529229271
 20
914.6639142283168
 30
0.0
 11
495.6859537098002
 21
914.711904073045
 31
0.0
  0
LINE
  5
2B80
330
24CB
100
AcDbEntity
  8
1
 62
     7
100
AcDbLine
 10
495.9702529229272
 20
915.443650159605
 30
0.0
 11
495.9702529229272
 21
915.011492933471
 31
0.0
  0
LINE
  5
2B81
330
24CB
100
AcDbEntity
  8
1
 62
     7
100
AcDbLine
 10
494.2535196911766
 20
917.2846474600673
 30
0.0
 11
495.8823849572832
 21
915.655782193961
 31
0.0
  0
LINE
  5
2B82
330
24CB
100
AcDbEntity
  8
0
 62
     7
100
AcDbLine
 10
495.9702529230914
 20
916.9709142161817
 30
0.0
 11
495.1702529352935
 21
916.170914228225
 31
0.0
  0
LINE
  5
2B83
330
24CB
100
AcDbEntity
  8
0
 62
     7
100
AcDbLine
 10
495.9702529229878
 20
924.3179131017573
 30
0.0
 11
495.9702529229878
 21
923.817914228317
 31
0.0
  0
LINE
  5
2B84
330
24CB
100
AcDbEntity
  8
0
 62
     7
100
AcDbLine
 10
495.9702529229878
 20
925.1179131017572
 30
0.0
 11
495.9702529229878
 21
924.3179131017573
 31
0.0
  0
LINE
  5
2B85
330
24CB
100
AcDbEntity
  8
1
 62
     7
100
AcDbLine
 10
495.9702529229878
 20
925.1179131017572
 30
0.0
 11
495.9702529229878
 21
924.3179131017573
 31
0.0
  0
LINE
  5
2B86
330
24CB
100
AcDbEntity
  8
0
 62
     7
100
AcDbLine
 10
495.9702529229878
 20
923.817914228317
 30
0.0
 11
495.9702529227721
 21
916.9709142161817
 31
0.0
  0
LINE
  5
2B87
330
24CB
100
AcDbEntity
  8
1
 62
     7
100
AcDbLine
 10
493.8102529229271
 20
914.6639142283168
 30
0.0
 11
494.5102529229273
 21
914.2597690398842
 31
0.0
  0
LINE
  5
2B88
330
24CB
100
AcDbEntity
  8
1
 62
     7
100
AcDbLine
 10
494.2102529229272
 20
911.605414228317
 30
0.0
 11
494.5102529229273
 21
911.9054142283172
 31
0.0
  0
LINE
  5
2B89
330
24CB
100
AcDbEntity
  8
1
 62
     7
100
AcDbLine
 10
494.5102529229273
 20
911.9054142283172
 30
0.0
 11
494.5102529229273
 21
914.2597690398842
 31
0.0
  0
LINE
  5
2B8A
330
24CB
100
AcDbEntity
  8
1
  6
DIVIDE
 62
     7
100
AcDbLine
 10
497.9702529224861
 20
919.8179142283169
 30
0.0
 11
495.9702529224863
 21
919.8179142283169
 31
0.0
  0
LINE
  5
2B8B
330
24CB
100
AcDbEntity
  8
0
 62
     7
100
AcDbLine
 10
495.5702529291906
 20
938.3179129516593
 30
0.0
 11
474.3702528567229
 21
938.3179129514815
 31
0.0
  0
LINE
  5
2B8C
330
24CB
100
AcDbEntity
  8
1
  6
CENTER
 62
     3
100
AcDbLine
 10
467.9702529530358
 20
928.317914228317
 30
0.0
 11
502.9177526604067
 21
928.317914228317
 31
0.0
  0
LINE
  5
2B8D
330
24CB
100
AcDbEntity
  8
1
 62
     7
100
AcDbLine
 10
486.9702528628843
 20
932.8179142283168
 30
0.0
 11
495.9702529229878
 21
932.8179142283168
 31
0.0
  0
LINE
  5
2B8E
330
24CB
100
AcDbEntity
  8
0
 62
     7
100
AcDbLine
 10
474.3702528567229
 20
938.3179129514815
 30
0.0
 11
473.9702528628844
 21
937.9179129574904
 31
0.0
  0
LINE
  5
2B8F
330
24CB
100
AcDbEntity
  8
1
 62
     3
100
AcDbLine
 10
473.9702528628844
 20
932.3179142283169
 30
0.0
 11
486.6815777282895
 21
932.3179142283169
 31
0.0
  0
LINE
  5
2B90
330
24CB
100
AcDbEntity
  8
1
 62
     7
100
AcDbLine
 10
473.9702528628844
 20
931.517914228317
 30
0.0
 11
486.2196975129378
 21
931.517914228317
 31
0.0
  0
LINE
  5
2B91
330
24CB
100
AcDbEntity
  8
0
 62
     7
100
AcDbLine
 10
473.9702528628844
 20
931.517914228317
 30
0.0
 11
473.9702528628844
 21
932.3179142283169
 31
0.0
  0
LINE
  5
2B92
330
24CB
100
AcDbEntity
  8
0
 62
     7
100
AcDbLine
 10
473.9702528628844
 20
937.9179129574904
 30
0.0
 11
473.9702528628844
 21
932.3179142283169
 31
0.0
  0
LINE
  5
2B93
330
24CB
100
AcDbEntity
  8
1
 62
     7
100
AcDbLine
 10
486.9702528628843
 20
932.8179142283168
 30
0.0
 11
486.2196975129378
 21
931.517914228317
 31
0.0
  0
LINE
  5
2B94
330
24CB
100
AcDbEntity
  8
0
 62
     7
100
AcDbLine
 10
495.9702529231792
 20
937.9179129574904
 30
0.0
 11
495.5702529291906
 21
938.3179129516593
 31
0.0
  0
LINE
  5
2B95
330
24CB
100
AcDbEntity
  8
0
 62
     7
100
AcDbLine
 10
495.9702529231792
 20
937.9179129574904
 30
0.0
 11
495.9702529229878
 21
932.8179142283168
 31
0.0
  0
LINE
  5
2B96
330
24CB
100
AcDbEntity
  8
0
 62
     7
100
AcDbLine
 10
495.9702529229878
 20
932.3179131017573
 30
0.0
 11
495.9702529229878
 21
931.5179131017572
 31
0.0
  0
LINE
  5
2B97
330
24CB
100
AcDbEntity
  8
1
 62
     7
100
AcDbLine
 10
495.9702529229878
 20
932.3179131017573
 30
0.0
 11
495.9702529229878
 21
931.5179131017572
 31
0.0
  0
LINE
  5
2B98
330
24CB
100
AcDbEntity
  8
0
 62
     7
100
AcDbLine
 10
495.9702529229878
 20
932.8179142283168
 30
0.0
 11
495.9702529229878
 21
932.3179131017573
 31
0.0
  0
CIRCLE
  5
2B99
330
24CB
100
AcDbEntity
  8
1
 62
     7
100
AcDbCircle
 10
684.6257804213328
 20
925.7623511996403
 30
0.0
 40
4.500000000000023
  0
CIRCLE
  5
2B9A
330
24CB
100
AcDbEntity
  8
1
 62
     3
100
AcDbCircle
 10
684.6257804214064
 20
925.7623511993646
 30
0.0
 40
4.000000000000031
  0
CIRCLE
  5
2B9B
330
24CB
100
AcDbEntity
  8
1
 62
     7
100
AcDbCircle
 10
684.6257804214064
 20
925.7623511993646
 30
0.0
 40
3.200000000000128
  0
LINE
  5
2B9C
330
24CB
100
AcDbEntity
  8
1
  6
CENTER
 62
     3
100
AcDbLine
 10
683.0728661507915
 20
931.5579061570993
 30
0.0
 11
686.1786946920219
 21
919.9667962416304
 31
0.0
  0
LINE
  5
2B9D
330
24CB
100
AcDbEntity
  8
1
  6
CENTER
 62
     3
100
AcDbLine
 10
644.9309749970618
 20
887.4429142283171
 30
0.0
 11
633.2396320459715
 21
894.192914228317
 31
0.0
  0
ARC
  5
2B9E
330
24CB
100
AcDbEntity
  8
1
 62
     7
100
AcDbCircle
 10
704.0372088053514
 20
906.2279142283172
 30
0.0
 40
5.953124999999792
100
AcDbArc
 50
116.5759999472179
 51
244.1170866827599
  0
ARC
  5
2B9F
330
24CB
100
AcDbEntity
  8
1
 62
     7
100
AcDbCircle
 10
689.7622616434334
 20
904.2658679018888
 30
0.0
 40
5.953124999999926
100
AcDbArc
 50
311.5350872302818
 51
79.07617396582326
  0
ARC
  5
2BA0
330
24CB
100
AcDbEntity
  8
1
 62
     7
100
AcDbCircle
 10
689.7622616434334
 20
904.2658679018888
 30
0.0
 40
5.953124999999927
100
AcDbArc
 50
132.2281738602625
 51
259.7692605958028
  0
ARC
  5
2BA1
330
24CB
100
AcDbEntity
  8
1
 62
     7
100
AcDbCircle
 10
689.7622616434334
 20
904.2658679018888
 30
0.0
 40
6.455000000000016
100
AcDbArc
 50
331.730583842912
 51
52.43447915670091
  0
ARC
  5
2BA2
330
24CB
100
AcDbEntity
  8
1
 62
     7
100
AcDbCircle
 10
704.0372088053514
 20
906.2279142283172
 30
0.0
 40
6.454999999999897
100
AcDbArc
 50
143.2176947563417
 51
223.9215900701338
  0
ARC
  5
2BA3
330
24CB
100
AcDbEntity
  8
1
 62
     7
100
AcDbCircle
 10
676.5460220089765
 20
898.5252449228717
 30
0.0
 40
5.95312499999992
100
AcDbArc
 50
147.8803477733087
 51
275.4214345088466
  0
ARC
  5
2BA4
330
24CB
100
AcDbEntity
  8
1
 62
     7
100
AcDbCircle
 10
665.3686779353959
 20
889.431801036016
 30
0.0
 40
5.953125000000023
100
AcDbArc
 50
342.8394350563676
 51
110.3805217919114
  0
ARC
  5
2BA5
330
24CB
100
AcDbEntity
  8
1
 62
     7
100
AcDbCircle
 10
665.3686779353959
 20
889.431801036016
 30
0.0
 40
6.455000000000008
100
AcDbArc
 50
3.034931668998031
 51
83.73882698278755
  0
ARC
  5
2BA6
330
24CB
100
AcDbEntity
  8
1
 62
     7
100
AcDbCircle
 10
704.0372088053514
 20
853.317914228317
 30
0.0
 40
48.65500000000002
100
AcDbArc
 50
126.7878983703184
 51
131.4729711948967
  0
ARC
  5
2BA7
330
24CB
100
AcDbEntity
  8
1
 62
     7
100
AcDbCircle
 10
676.5460220089765
 20
898.5252449228717
 30
0.0
 40
6.454999999999952
100
AcDbArc
 50
174.5220425824323
 51
255.2259378962189
  0
ARC
  5
2BA8
330
24CB
100
AcDbEntity
  8
1
 62
     7
100
AcDbCircle
 10
704.0372088053514
 20
853.317914228317
 30
0.0
 40
57.00999999999993
100
AcDbArc
 50
126.5073264019047
 51
131.7535431633137
  0
ARC
  5
2BA9
330
24CB
100
AcDbEntity
  8
1
 62
     7
100
AcDbCircle
 10
676.5460220089765
 20
898.5252449228717
 30
0.0
 40
5.953125000000031
100
AcDbArc
 50
327.1872611433253
 51
94.72834787886672
  0
ARC
  5
2BAA
330
24CB
100
AcDbEntity
  8
1
 62
     7
100
AcDbCircle
 10
676.5460220089765
 20
898.5252449228717
 30
0.0
 40
6.455000000000024
100
AcDbArc
 50
347.3827577559525
 51
68.08665306974372
  0
ARC
  5
2BAB
330
24CB
100
AcDbEntity
  8
1
 62
     7
100
AcDbCircle
 10
704.0372088053514
 20
853.317914228317
 30
0.0
 40
48.65500000000007
100
AcDbArc
 50
111.1357244572732
 51
115.8207972818566
  0
ARC
  5
2BAC
330
24CB
100
AcDbEntity
  8
1
 62
     7
100
AcDbCircle
 10
689.7622616434334
 20
904.2658679018888
 30
0.0
 40
6.454999999999976
100
AcDbArc
 50
158.8698686693876
 51
239.5737639831735
  0
ARC
  5
2BAD
330
24CB
100
AcDbEntity
  8
1
 62
     7
100
AcDbCircle
 10
704.0372088053514
 20
853.317914228317
 30
0.0
 40
57.00999999999989
100
AcDbArc
 50
110.8551524888611
 51
116.1013692502706
  0
ARC
  5
2BAE
330
24CB
100
AcDbEntity
  8
1
 62
     7
100
AcDbCircle
 10
704.0372088053514
 20
853.317914228317
 30
0.0
 40
48.65500000000002
100
AcDbArc
 50
95.48355054423211
 51
100.1686233688125
  0
CIRCLE
  5
2BAF
330
24CB
100
AcDbEntity
  8
1
 62
     7
100
AcDbCircle
 10
666.5372088053496
 20
918.2698195121499
 30
0.0
 40
4.500000000000023
  0
LINE
  5
2BB0
330
24CB
100
AcDbEntity
  8
1
  6
CENTER
 62
     3
100
AcDbLine
 10
669.9122088053496
 20
912.424148036605
 30
0.0
 11
663.1622088053497
 21
924.115490987695
 31
0.0
  0
ARC
  5
2BB1
330
24CB
100
AcDbEntity
  8
1
 62
     7
100
AcDbCircle
 10
704.0372088053514
 20
853.317914228317
 30
0.0
 40
57.01000000000007
100
AcDbArc
 50
95.20297857581802
 51
100.4491953372264
  0
LINE
  5
2BB2
330
24CB
100
AcDbEntity
  8
1
  6
CENTER
 62
     3
100
AcDbLine
 10
774.8347855647311
 20
894.192914228317
 30
0.0
 11
763.1434426136413
 21
887.4429142283171
 31
0.0
  0
ARC
  5
2BB3
330
24CB
100
AcDbEntity
  8
1
 62
     7
100
AcDbCircle
 10
704.0372088053514
 20
906.2279142283172
 30
0.0
 40
5.953125000000135
100
AcDbArc
 50
295.8829133172399
 51
63.42400005278061
  0
ARC
  5
2BB4
330
24CB
100
AcDbEntity
  8
1
 62
     7
100
AcDbCircle
 10
718.3121559672696
 20
904.2658679018888
 30
0.0
 40
5.953124999999888
100
AcDbArc
 50
100.9238260341767
 51
228.4649127697182
  0
ARC
  5
2BB5
330
24CB
100
AcDbEntity
  8
1
 62
     7
100
AcDbCircle
 10
718.3121559672696
 20
904.2658679018888
 30
0.0
 40
5.953125000000006
100
AcDbArc
 50
280.2307394041971
 51
47.77182613973746
  0
ARC
  5
2BB6
330
24CB
100
AcDbEntity
  8
1
 62
     7
100
AcDbCircle
 10
718.3121559672696
 20
904.2658679018888
 30
0.0
 40
6.455000000000008
100
AcDbArc
 50
127.565520843299
 51
208.269416157088
  0
ARC
  5
2BB7
330
24CB
100
AcDbEntity
  8
1
 62
     7
100
AcDbCircle
 10
704.0372088053514
 20
906.2279142283172
 30
0.0
 40
6.455000000000119
100
AcDbArc
 50
316.0784099298661
 51
36.78230524365782
  0
ARC
  5
2BB8
330
24CB
100
AcDbEntity
  8
1
 62
     7
100
AcDbCircle
 10
742.705739675307
 20
889.431801036016
 30
0.0
 40
5.953124999999878
100
AcDbArc
 50
69.61947820808852
 51
197.1605649436324
  0
ARC
  5
2BB9
330
24CB
100
AcDbEntity
  8
1
 62
     7
100
AcDbCircle
 10
731.5283956017261
 20
898.5252449228717
 30
0.0
 40
5.95312500000004
100
AcDbArc
 50
264.5785654911533
 51
32.11965222669128
  0
ARC
  5
2BBA
330
24CB
100
AcDbEntity
  8
1
 62
     7
100
AcDbCircle
 10
742.705739675307
 20
889.431801036016
 30
0.0
 40
6.45500000000004
100
AcDbArc
 50
96.26117301721244
 51
176.9650683310019
  0
ARC
  5
2BBB
330
24CB
100
AcDbEntity
  8
1
 62
     7
100
AcDbCircle
 10
731.5283956017261
 20
898.5252449228717
 30
0.0
 40
6.454999999999992
100
AcDbArc
 50
284.774062103781
 51
5.477957417574118
  0
ARC
  5
2BBC
330
24CB
100
AcDbEntity
  8
1
 62
     7
100
AcDbCircle
 10
731.5283956017261
 20
898.5252449228717
 30
0.0
 40
5.953124999999912
100
AcDbArc
 50
85.27165212113329
 51
212.8127388566746
  0
ARC
  5
2BBD
330
24CB
100
AcDbEntity
  8
1
 62
     7
100
AcDbCircle
 10
704.0372088053514
 20
853.317914228317
 30
0.0
 40
48.655
100
AcDbArc
 50
48.52702880510323
 51
53.21210162968152
  0
ARC
  5
2BBE
330
24CB
100
AcDbEntity
  8
1
 62
     7
100
AcDbCircle
 10
731.5283956017261
 20
898.5252449228717
 30
0.0
 40
6.455000000000032
100
AcDbArc
 50
111.9133469302562
 51
192.6172422440474
  0
ARC
  5
2BBF
330
24CB
100
AcDbEntity
  8
1
 62
     7
100
AcDbCircle
 10
704.0372088053514
 20
853.317914228317
 30
0.0
 40
48.65500000000007
100
AcDbArc
 50
64.17920271814335
 51
68.86427554272671
  0
ARC
  5
2BC0
330
24CB
100
AcDbEntity
  8
1
 62
     7
100
AcDbCircle
 10
718.3121559672696
 20
904.2658679018888
 30
0.0
 40
6.454999999999976
100
AcDbArc
 50
300.4262360168264
 51
21.13013133061238
  0
ARC
  5
2BC1
330
24CB
100
AcDbEntity
  8
1
 62
     7
100
AcDbCircle
 10
704.0372088053514
 20
853.317914228317
 30
0.0
 40
57.00999999999998
100
AcDbArc
 50
63.89863074972936
 51
69.14484751113883
  0
ARC
  5
2BC2
330
24CB
100
AcDbEntity
  8
1
 62
     7
100
AcDbCircle
 10
704.0372088053514
 20
853.317914228317
 30
0.0
 40
48.65499999999993
100
AcDbArc
 50
79.83137663118748
 51
84.51644945576788
  0
ARC
  5
2BC3
330
24CB
100
AcDbEntity
  8
1
 62
     7
100
AcDbCircle
 10
704.0372088053514
 20
853.317914228317
 30
0.0
 40
57.01000000000001
100
AcDbArc
 50
48.24645683668627
 51
53.49267359809523
  0
ARC
  5
2BC4
330
24CB
100
AcDbEntity
  8
1
 62
     7
100
AcDbCircle
 10
704.0372088053514
 20
853.317914228317
 30
0.0
 40
57.00999999999998
100
AcDbArc
 50
79.55080466277353
 51
84.79702142418197
  0
CIRCLE
  5
2BC5
330
24CB
100
AcDbEntity
  8
1
 62
     7
100
AcDbCircle
 10
741.5372088053534
 20
918.2698195121499
 30
0.0
 40
4.500000000000023
  0
LINE
  5
2BC6
330
24CB
100
AcDbEntity
  8
1
  6
CENTER
 62
     3
100
AcDbLine
 10
744.9122088053534
 20
924.115490987695
 30
0.0
 11
738.1622088053534
 21
912.424148036605
 31
0.0
  0
INSERT
  5
2BD0
330
24CB
100
AcDbEntity
  8
AM_0
100
AcDbBlockReference
  2
HD LLC
 10
767.2298358559494
 20
498.4698847334014
 30
0.0
 41
2.889999999999999
 42
2.889999999999999
 43
2.889999999999999
  0
INSERT
  5
2BD6
330
24CB
100
AcDbEntity
  8
AM_0
100
AcDbBlockReference
  2
HD logo-new
 10
557.4499339577933
 20
510.1383064656764
 30
0.0
 41
2.0
 42
2.0
 43
2.0
  0
INSERT
  5
2BE3
330
24CB
100
AcDbEntity
  8
AM_0
100
AcDbBlockReference
  2
NTC
 10
48.35579489454392
 20
576.2027801578667
 30
0.0
 41
1.35
 42
1.35
 43
1.35
  0
ENDSEC
  0
SECTION
  2
OBJECTS
  0
DICTIONARY
  5
24B9
330
0
100
AcDbDictionary
281
     1
  3
ACAD_GROUP
350
24BA
  3
ACAD_LAYOUT
350
24C6
  3
ACAD_MLINESTYLE
350
24C3
  3
ACAD_PLOTSETTINGS
350
24C5
  3
ACAD_PLOTSTYLENAME
350
24BB
  3
AcDbVariableDictionary
350
2791
  0
DICTIONARY
  5
24BA
102
{ACAD_REACTORS
330
24B9
102
}
330
24B9
100
AcDbDictionary
281
     1
  0
DICTIONARY
  5
24C6
102
{ACAD_REACTORS
330
24B9
102
}
330
24B9
100
AcDbDictionary
281
     1
  3
Layout1
350
24CA
  3
Model
350
24CE
  0
DICTIONARY
  5
24C3
102
{ACAD_REACTORS
330
24B9
102
}
330
24B9
100
AcDbDictionary
281
     1
  3
Standard
350
24C4
  0
DICTIONARY
  5
24C5
102
{ACAD_REACTORS
330
24B9
102
}
330
24B9
100
AcDbDictionary
281
     1
  0
ACDBDICTIONARYWDFLT
  5
24BB
102
{ACAD_REACTORS
330
24B9
102
}
330
24B9
100
AcDbDictionary
281
     1
  3
Normal
350
24BC
100
AcDbDictionaryWithDefault
340
24BC
  0
DICTIONARY
  5
2791
102
{ACAD_REACTORS
330
24B9
102
}
330
24B9
100
AcDbDictionary
281
     1
  3
DIMASSOC
350
2792
  0
LAYOUT
  5
24CA
102
{ACAD_REACTORS
330
24C6
102
}
330
24C6
100
AcDbPlotSettings
  1

  2
\\SERVER9\HP LaserJet 5100 PCL 5e
  4

  6

 40
0.0
 41
0.0
 42
0.0
 43
0.0
 44
0.0
 45
0.0
 46
0.0
 47
0.0
 48
0.0
 49
0.0
140
0.0
141
0.0
142
1.0
143
1.0
 70
   688
 72
     0
 73
     0
 74
     5
  7

 75
    16
147
1.0
148
0.0
149
0.0
100
AcDbLayout
  1
Layout1
 70
     1
 71
     1
 10
0.0
 20
0.0
 11
420.0
 21
297.0
 12
0.0
 22
0.0
 32
0.0
 14
1.000000000000000E+20
 24
1.000000000000000E+20
 34
1.000000000000000E+20
 15
-1.000000000000000E+20
 25
-1.000000000000000E+20
 35
-1.000000000000000E+20
146
0.0
 13
0.0
 23
0.0
 33
0.0
 16
1.0
 26
0.0
 36
0.0
 17
0.0
 27
1.0
 37
0.0
 76
     0
330
24C7
  0
LAYOUT
  5
24CE
102
{ACAD_REACTORS
330
24C6
102
}
330
24C6
100
AcDbPlotSettings
  1

  2
\\SERVER9\HP LaserJet 5100 PCL 5e
  4

  6

 40
0.0
 41
0.0
 42
0.0
 43
0.0
 44
0.0
 45
0.0
 46
0.0
 47
0.0
 48
0.0
 49
0.0
140
0.0
141
0.0
142
1.0
143
1.0
 70
  1712
 72
     0
 73
     0
 74
     0
  7

 75
     0
147
1.0
148
0.0
149
0.0
100
AcDbLayout
  1
Model
 70
     1
 71
     0
 10
0.0
 20
0.0
 11
12.0
 21
9.0
 12
0.0
 22
0.0
 32
0.0
 14
0.0
 24
0.0
 34
0.0
 15
0.0
 25
0.0
 35
0.0
146
0.0
 13
0.0
 23
0.0
 33
0.0
 16
1.0
 26
0.0
 36
0.0
 17
0.0
 27
1.0
 37
0.0
 76
     0
330
24CB
  0
MLINESTYLE
  5
24C4
102
{ACAD_REACTORS
330
24C3
102
}
330
24C3
100
AcDbMlineStyle
  2
STANDARD
 70
     0
  3

 62
   256
 51
90.0
 52
90.0
 71
     2
 49
0.5
 62
   256
  6
BYLAYER
 49
-0.5
 62
   256
  6
BYLAYER
  0
ACDBPLACEHOLDER
  5
24BC
102
{ACAD_REACTORS
330
24BB
102
}
330
24BB
  0
DICTIONARYVAR
  5
2792
102
{ACAD_REACTORS
330
2791
102
}
330
2791
100
DictionaryVariables
280
     0
  1
1
  0
ENDSEC
  0
EOF
